  0
SECTION
  2
HEADER
  9
$ACADVER
  1
AC1021
  9
$ACADMAINTVER
 70
    25
  9
$DWGCODEPAGE
  3
ANSI_932
  9
$LASTSAVEDBY
  1
tform
  9
$INSBASE
 10
0.0
 20
0.0
 30
0.0
  9
$EXTMIN
 10
0.0
 20
0.0
 30
0.0
  9
$EXTMAX
 10
2100.0
 20
2970.0
 30
34.99521132346015
  9
$LIMMIN
 10
0.0
 20
0.0
  9
$LIMMAX
 10
2100.0
 20
2970.0
  9
$ORTHOMODE
 70
     1
  9
$REGENMODE
 70
     1
  9
$FILLMODE
 70
     1
  9
$QTEXTMODE
 70
     0
  9
$MIRRTEXT
 70
     1
  9
$LTSCALE
 40
5.0
  9
$ATTMODE
 70
     1
  9
$TEXTSIZE
 40
533.0403732820173
  9
$TRACEWID
 40
1.0
  9
$TEXTSTYLE
  7
Standard
  9
$CLAYER
  8
Dim
  9
$CELTYPE
  6
Continuous
  9
$CECOLOR
 62
   256
  9
$CELTSCALE
 40
1.0
  9
$DISPSILH
 70
     0
  9
$DIMSCALE
 40
1.0
  9
$DIMASZ
 40
9.0
  9
$DIMEXO
 40
25.0
  9
$DIMDLI
 40
25.0
  9
$DIMRND
 40
0.0
  9
$DIMDLE
 40
0.0
  9
$DIMEXE
 40
0.0
  9
$DIMTP
 40
0.0
  9
$DIMTM
 40
0.0
  9
$DIMTXT
 40
24.4326171875
  9
$DIMCEN
 40
0.0
  9
$DIMTSZ
 40
0.0
  9
$DIMTOL
 70
     0
  9
$DIMLIM
 70
     0
  9
$DIMTIH
 70
     0
  9
$DIMTOH
 70
     0
  9
$DIMSE1
 70
     0
  9
$DIMSE2
 70
     0
  9
$DIMTAD
 70
     1
  9
$DIMZIN
 70
    11
  9
$DIMBLK
  1
DOT
  9
$DIMASO
 70
     1
  9
$DIMSHO
 70
     1
  9
$DIMPOST
  1
<>
  9
$DIMAPOST
  1
[]
  9
$DIMALT
 70
     0
  9
$DIMALTD
 70
     1
  9
$DIMALTF
 40
1.0
  9
$DIMLFAC
 40
1.0
  9
$DIMTOFL
 70
     0
  9
$DIMTVP
 40
0.0
  9
$DIMTIX
 70
     1
  9
$DIMSOXD
 70
     0
  9
$DIMSAH
 70
     0
  9
$DIMBLK1
  1

  9
$DIMBLK2
  1

  9
$DIMSTYLE
  2
JIS
  9
$DIMCLRD
 70
     0
  9
$DIMCLRE
 70
     0
  9
$DIMCLRT
 70
     0
  9
$DIMTFAC
 40
1.0
  9
$DIMGAP
 40
10.0
  9
$DIMJUST
 70
     0
  9
$DIMSD1
 70
     0
  9
$DIMSD2
 70
     0
  9
$DIMTOLJ
 70
     1
  9
$DIMTZIN
 70
    11
  9
$DIMALTZ
 70
    11
  9
$DIMALTTZ
 70
    11
  9
$DIMUPT
 70
     0
  9
$DIMDEC
 70
     0
  9
$DIMTDEC
 70
     1
  9
$DIMALTU
 70
     2
  9
$DIMALTTD
 70
     2
  9
$DIMTXSTY
  7
ＭＳ ゴシック
  9
$DIMAUNIT
 70
     0
  9
$DIMADEC
 70
     0
  9
$DIMALTRND
 40
0.0
  9
$DIMAZIN
 70
     0
  9
$DIMDSEP
 70
    46
  9
$DIMATFIT
 70
     0
  9
$DIMFRAC
 70
     2
  9
$DIMLDRBLK
  1
DOT
  9
$DIMLUNIT
 70
     2
  9
$DIMLWD
 70
    -2
  9
$DIMLWE
 70
    -2
  9
$DIMTMOVE
 70
     0
  9
$DIMFXL
 40
1.0
  9
$DIMFXLON
 70
     0
  9
$DIMJOGANG
 40
0.7853981633974483
  9
$DIMTFILL
 70
     0
  9
$DIMTFILLCLR
 70
     0
  9
$DIMARCSYM
 70
     0
  9
$DIMLTYPE
  6

  9
$DIMLTEX1
  6

  9
$DIMLTEX2
  6

  9
$LUNITS
 70
     2
  9
$LUPREC
 70
     0
  9
$SKETCHINC
 40
0.1
  9
$FILLETRAD
 40
0.0
  9
$AUNITS
 70
     0
  9
$AUPREC
 70
     0
  9
$MENU
  1
acad
  9
$ELEVATION
 40
0.0
  9
$PELEVATION
 40
0.0
  9
$THICKNESS
 40
0.0
  9
$LIMCHECK
 70
     0
  9
$CHAMFERA
 40
0.0
  9
$CHAMFERB
 40
0.0
  9
$CHAMFERC
 40
0.0
  9
$CHAMFERD
 40
0.0
  9
$SKPOLY
 70
     0
  9
$TDCREATE
 40
2447893.375
  9
$TDUCREATE
 40
0.0
  9
$TDUPDATE
 40
2459499.640391713
  9
$TDUUPDATE
 40
2459499.265391713
  9
$TDINDWG
 40
0.0287682755
  9
$TDUSRTIMER
 40
0.0085021181
  9
$USRTIMER
 70
     1
  9
$ANGBASE
 50
0.0
  9
$ANGDIR
 70
     0
  9
$PDMODE
 70
     1
  9
$PDSIZE
 40
-2.0
  9
$PLINEWID
 40
0.0
  9
$SPLFRAME
 70
     0
  9
$SPLINETYPE
 70
     6
  9
$SPLINESEGS
 70
     8
  9
$HANDSEED
  5
2B51
  9
$SURFTAB1
 70
     6
  9
$SURFTAB2
 70
     6
  9
$SURFTYPE
 70
     6
  9
$SURFU
 70
     6
  9
$SURFV
 70
     6
  9
$UCSBASE
  2

  9
$UCSNAME
  2

  9
$UCSORG
 10
0.0
 20
0.0
 30
0.0
  9
$UCSXDIR
 10
1.0
 20
0.0
 30
0.0
  9
$UCSYDIR
 10
0.0
 20
1.0
 30
0.0
  9
$UCSORTHOREF
  2

  9
$UCSORTHOVIEW
 70
     0
  9
$UCSORGTOP
 10
0.0
 20
0.0
 30
0.0
  9
$UCSORGBOTTOM
 10
0.0
 20
0.0
 30
0.0
  9
$UCSORGLEFT
 10
0.0
 20
0.0
 30
0.0
  9
$UCSORGRIGHT
 10
0.0
 20
0.0
 30
0.0
  9
$UCSORGFRONT
 10
0.0
 20
0.0
 30
0.0
  9
$UCSORGBACK
 10
0.0
 20
0.0
 30
0.0
  9
$PUCSBASE
  2

  9
$PUCSNAME
  2

  9
$PUCSORG
 10
0.0
 20
0.0
 30
0.0
  9
$PUCSXDIR
 10
1.0
 20
0.0
 30
0.0
  9
$PUCSYDIR
 10
0.0
 20
1.0
 30
0.0
  9
$PUCSORTHOREF
  2

  9
$PUCSORTHOVIEW
 70
     0
  9
$PUCSORGTOP
 10
0.0
 20
0.0
 30
0.0
  9
$PUCSORGBOTTOM
 10
0.0
 20
0.0
 30
0.0
  9
$PUCSORGLEFT
 10
0.0
 20
0.0
 30
0.0
  9
$PUCSORGRIGHT
 10
0.0
 20
0.0
 30
0.0
  9
$PUCSORGFRONT
 10
0.0
 20
0.0
 30
0.0
  9
$PUCSORGBACK
 10
0.0
 20
0.0
 30
0.0
  9
$USERI1
 70
     0
  9
$USERI2
 70
     0
  9
$USERI3
 70
     0
  9
$USERI4
 70
     0
  9
$USERI5
 70
     0
  9
$USERR1
 40
0.0
  9
$USERR2
 40
0.0
  9
$USERR3
 40
0.0
  9
$USERR4
 40
0.0
  9
$USERR5
 40
0.0
  9
$WORLDVIEW
 70
     1
  9
$SHADEDGE
 70
     3
  9
$SHADEDIF
 70
    70
  9
$TILEMODE
 70
     1
  9
$MAXACTVP
 70
    64
  9
$PINSBASE
 10
0.0
 20
0.0
 30
0.0
  9
$PLIMCHECK
 70
     0
  9
$PEXTMIN
 10
0.0
 20
0.0
 30
0.0
  9
$PEXTMAX
 10
0.0
 20
0.0
 30
0.0
  9
$PLIMMIN
 10
-7.5
 20
-20.0
  9
$PLIMMAX
 10
412.5
 20
277.0
  9
$UNITMODE
 70
     0
  9
$VISRETAIN
 70
     0
  9
$PLINEGEN
 70
     1
  9
$PSLTSCALE
 70
     0
  9
$TREEDEPTH
 70
  3020
  9
$CMLSTYLE
  2
Standard
  9
$CMLJUST
 70
     0
  9
$CMLSCALE
 40
1.0
  9
$PROXYGRAPHICS
 70
     0
  9
$MEASUREMENT
 70
     1
  9
$CELWEIGHT
370
    -1
  9
$ENDCAPS
280
     0
  9
$JOINSTYLE
280
     0
  9
$LWDISPLAY
290
     1
  9
$INSUNITS
 70
     4
  9
$HYPERLINKBASE
  1

  9
$STYLESHEET
  1

  9
$XEDIT
290
     1
  9
$CEPSNTYPE
380
     0
  9
$PSTYLEMODE
290
     1
  9
$FINGERPRINTGUID
  2

  9
$VERSIONGUID
  2

  9
$EXTNAMES
290
     1
  9
$PSVPSCALE
 40
0.0
  9
$OLESTARTUP
290
     0
  9
$SORTENTS
280
   127
  9
$INDEXCTL
280
     0
  9
$HIDETEXT
280
     1
  9
$XCLIPFRAME
290
     0
  9
$HALOGAP
280
     0
  9
$OBSCOLOR
 70
   257
  9
$OBSLTYPE
280
     0
  9
$INTERSECTIONDISPLAY
280
     0
  9
$INTERSECTIONCOLOR
 70
   257
  9
$DIMASSOC
280
     2
  9
$PROJECTNAME
  1

  9
$CAMERADISPLAY
290
     0
  9
$LENSLENGTH
 40
50.0
  9
$CAMERAHEIGHT
 40
0.0
  9
$STEPSPERSEC
 40
2.0
  9
$STEPSIZE
 40
6.0
  9
$3DDWFPREC
 40
2.0
  9
$PSOLWIDTH
 40
0.25
  9
$PSOLHEIGHT
 40
4.0
  9
$LOFTANG1
 40
1.570796326794897
  9
$LOFTANG2
 40
1.570796326794897
  9
$LOFTMAG1
 40
0.0
  9
$LOFTMAG2
 40
0.0
  9
$LOFTPARAM
 70
     7
  9
$LOFTNORMALS
280
     1
  9
$LATITUDE
 40
37.795
  9
$LONGITUDE
 40
-122.394
  9
$NORTHDIRECTION
 40
0.0
  9
$TIMEZONE
 70
 -8000
  9
$LIGHTGLYPHDISPLAY
280
     1
  9
$TILEMODELIGHTSYNCH
280
     1
  9
$SOLIDHIST
280
     1
  9
$SHOWHIST
280
     1
  9
$DWFFRAME
280
     2
  9
$DGNFRAME
280
     2
  9
$REALWORLDSCALE
290
     1
  9
$INTERFERECOLOR
 62
   256
  9
$CSHADOW
280
     0
  9
$SHADOWPLANELOCATION
 40
0.0
  0
ENDSEC
  0
SECTION
  2
CLASSES
  0
CLASS
  1
LWPOLYLINE
  2
AcDbPolyline
  3
ObjectDBX Classes
 90
        0
 91
        1
280
     0
281
     1
  0
CLASS
  1
IMAGE
  2
AcDbRasterImage
  3
ISM
 90
      127
 91
        4
280
     0
281
     1
  0
CLASS
  1
OLE2FRAME
  2
AcDbOle2Frame
  3
ObjectDBX Classes
 90
        0
 91
        1
280
     0
281
     1
  0
CLASS
  1
HATCH
  2
AcDbHatch
  3
ObjectDBX Classes
 90
        0
 91
        1
280
     0
281
     1
  0
CLASS
  1
DICTIONARYVAR
  2
AcDbDictionaryVar
  3
ObjectDBX Classes
 90
        0
 91
        3
280
     0
281
     0
  0
CLASS
  1
RASTERVARIABLES
  2
AcDbRasterVariables
  3
ISM
 90
        0
 91
        3
280
     0
281
     0
  0
CLASS
  1
IMAGEDEF
  2
AcDbRasterImageDef
  3
ISM
 90
        0
 91
        3
280
     0
281
     0
  0
CLASS
  1
IMAGEDEF_REACTOR
  2
AcDbRasterImageDefReactor
  3
ISM
 90
        1
 91
        3
280
     0
281
     0
  0
CLASS
  1
IDBUFFER
  2
AcDbIdBuffer
  3
ObjectDBX Classes
 90
        0
 91
        3
280
     0
281
     0
  0
CLASS
  1
SPATIAL_FILTER
  2
AcDbSpatialFilter
  3
ObjectDBX Classes
 90
        0
 91
        3
280
     0
281
     0
  0
CLASS
  1
XRECORD
  2
AcDbXrecord
  3
ObjectDBX Classes
 90
        0
 91
        1
280
     0
281
     0
  0
CLASS
  1
SORTENTSTABLE
  2
AcDbSortentsTable
  3
ObjectDBX Classes
 90
        0
 91
        3
280
     0
281
     0
  0
CLASS
  1
LAYER_INDEX
  2
AcDbLayerIndex
  3
ObjectDBX Classes
 90
        0
 91
        3
280
     0
281
     0
  0
CLASS
  1
SPATIAL_INDEX
  2
AcDbSpatialIndex
  3
AutoCAD 2000
 90
        0
 91
        3
280
     0
281
     0
  0
CLASS
  1
OBJECT_PTR
  2
CAseDLPNTableRecord
  3
ASE-LPNTableRecord
 90
        1
 91
        3
280
     0
281
     0
  0
CLASS
  1
LAYOUT
  2
AcDbLayout
  3
ObjectDBX Classes
 90
        0
 91
        1
280
     0
281
     0
  0
CLASS
  1
PLOTSETTINGS
  2
AcDbPlotSettings
  3
ObjectDBX Classes
 90
        0
 91
        3
280
     0
281
     0
  0
CLASS
  1
ACDBDICTIONARYWDFLT
  2
AcDbDictionaryWithDefault
  3
ObjectDBX Classes
 90
        0
 91
        3
280
     0
281
     0
  0
CLASS
  1
ACDBPLACEHOLDER
  2
AcDbPlaceHolder
  3
ObjectDBX Classes
 90
        0
 91
        1
280
     0
281
     0
  0
CLASS
  1
SCALE
  2
AcDbScale
  3
ObjectDBX Classes
 90
     1153
 91
        3
280
     0
281
     0
  0
CLASS
  1
MATERIAL
  2
AcDbMaterial
  3
ObjectDBX Classes
 90
     1153
 91
        3
280
     0
281
     0
  0
CLASS
  1
VISUALSTYLE
  2
AcDbVisualStyle
  3
ObjectDBX Classes
 90
     4095
 91
        3
280
     0
281
     0
  0
CLASS
  1
TABLESTYLE
  2
AcDbTableStyle
  3
ObjectDBX Classes
 90
     4095
 91
        3
280
     0
281
     0
  0
CLASS
  1
DIMASSOC
  2
AcDbDimAssoc
  3
"AcDbDimAssoc|Product Desc:     AcDim ARX App For Dimension|Company:          Autodesk, Inc.|WEB Address:      www.autodesk.com"
 90
        0
 91
        3
280
     0
281
     0
  0
CLASS
  1
CELLSTYLEMAP
  2
AcDbCellStyleMap
  3
ObjectDBX Classes
 90
     1152
 91
        3
280
     0
281
     0
  0
CLASS
  1
SUN
  2
AcDbSun
  3
SCENEOE
 90
     1153
 91
        3
280
     0
281
     0
  0
CLASS
  1
MLEADERSTYLE
  2
AcDbMLeaderStyle
  3
ACDB_MLEADERSTYLE_CLASS
 90
     4095
 91
        3
280
     0
281
     0
  0
CLASS
  1
FIELD
  2
AcDbField
  3
ObjectDBX Classes
 90
     1152
 91
        3
280
     0
281
     0
  0
CLASS
  1
FIELDLIST
  2
AcDbFieldList
  3
ObjectDBX Classes
 90
     1152
 91
        3
280
     0
281
     0
  0
CLASS
  1
ACDB_ALDIMOBJECTCONTEXTDATA_CLASS
  2
AcDbAlignedDimensionObjectContextData
  3
ObjectDBX Classes
 90
     1153
 91
        3
280
     0
281
     0
  0
ENDSEC
  0
SECTION
  2
TABLES
  0
TABLE
  2
VPORT
  5
7
330
0
100
AcDbSymbolTable
 70
     1
  0
VPORT
  5
15
330
7
100
AcDbSymbolTableRecord
100
AcDbViewportTableRecord
  2
*ACTIVE
 70
     0
 10
0.0
 20
0.0
 11
1.0
 21
1.0
 12
672.9525617540355
 22
1782.612370234525
 13
0.0
 23
0.0
 14
1.0
 24
1.0
 15
0.0
 25
0.0
 16
0.0
 26
0.0
 36
1.0
 17
377.0474382459645
 27
-297.6123702345249
 37
0.0
 40
3029.4
 41
2.333333333333333
 42
50.0
 43
0.0
 44
0.0
 50
0.0
 51
0.0
 71
    16
 72
  2000
 73
     1
 74
     1
 75
     0
 76
     0
 77
     0
 78
     0
281
     0
 65
     1
110
0.0
120
0.0
130
0.0
111
1.0
121
0.0
131
0.0
112
0.0
122
1.0
132
0.0
 79
     0
146
0.0
348
26C
 60
     3
 61
     5
292
     1
282
     1
141
0.0
142
0.0
 63
   256
361
8C2
  0
ENDTAB
  0
TABLE
  2
LTYPE
  5
4
330
0
100
AcDbSymbolTable
 70
     3
  0
LTYPE
  5
11
330
4
100
AcDbSymbolTableRecord
100
AcDbLinetypeTableRecord
  2
ByBlock
 70
     0
  3

 72
    65
 73
     0
 40
0.0
  0
LTYPE
  5
12
330
4
100
AcDbSymbolTableRecord
100
AcDbLinetypeTableRecord
  2
ByLayer
 70
     0
  3

 72
    65
 73
     0
 40
0.0
  0
LTYPE
  5
13
330
4
100
AcDbSymbolTableRecord
100
AcDbLinetypeTableRecord
  2
Continuous
 70
     0
  3
Solid line
 72
    65
 73
     0
 40
0.0
  0
LTYPE
  5
8D4
330
4
100
AcDbSymbolTableRecord
100
AcDbLinetypeTableRecord
  2
HIDDEN
 70
     0
  3
Hidden _ _ _ _ _ _ _ _ _ _ _ _ _ _ _ _ _ _ _ _ 
 72
    65
 73
     2
 40
9.524999999999999
 49
6.35
 74
     0
 49
-3.175
 74
     0
  0
LTYPE
  5
BF2
330
4
100
AcDbSymbolTableRecord
100
AcDbLinetypeTableRecord
  2
BORDER
 70
     0
  3
Border __  __  . __  __  . __  __  . __  __  . 
 72
    65
 73
     6
 40
44.45
 49
12.7
 74
     0
 49
-6.35
 74
     0
 49
12.7
 74
     0
 49
-6.35
 74
     0
 49
0.0
 74
     0
 49
-6.35
 74
     0
  0
ENDTAB
  0
TABLE
  2
LAYER
  5
2
102
{ACAD_XDICTIONARY
360
2E1
102
}
330
0
100
AcDbSymbolTable
 70
     8
  0
LAYER
  5
14
330
2
100
AcDbSymbolTableRecord
100
AcDbLayerTableRecord
  2
0
 70
     0
 62
     7
  6
Continuous
370
    -3
390
1D
347
266
  0
LAYER
  5
4A
330
2
100
AcDbSymbolTableRecord
100
AcDbLayerTableRecord
  2
Defpoints
 70
     0
 62
     7
  6
Continuous
290
     0
370
    20
390
1D
347
266
  0
LAYER
  5
4B
330
2
100
AcDbSymbolTableRecord
100
AcDbLayerTableRecord
  2
template
 70
     0
 62
     7
  6
Continuous
370
    20
390
1D
347
266
  0
LAYER
  5
4D
330
2
100
AcDbSymbolTableRecord
100
AcDbLayerTableRecord
  2
MODEL
 70
     0
 62
     7
  6
Continuous
370
    20
390
1D
347
266
  0
LAYER
  5
382
330
2
100
AcDbSymbolTableRecord
100
AcDbLayerTableRecord
  2
レイヤー 1
 70
     0
 62
     7
  6
Continuous
370
    -3
390
1D
347
266
  0
LAYER
  5
5C4
330
2
100
AcDbSymbolTableRecord
100
AcDbLayerTableRecord
  2
HIDDEN
 70
     0
 62
   253
  6
HIDDEN
370
    20
390
1D
347
266
1001
AcAecLayerStandard
1000

1000

  0
LAYER
  5
5EB
330
2
100
AcDbSymbolTableRecord
100
AcDbLayerTableRecord
  2
Dim
 70
     0
 62
     3
  6
Continuous
370
    13
390
1D
347
266
1001
AcAecLayerStandard
1000

1000

  0
LAYER
  5
BF1
330
2
100
AcDbSymbolTableRecord
100
AcDbLayerTableRecord
  2
PRINT BORDER
 70
     0
 62
     4
  6
BORDER
290
     0
370
    20
390
1D
347
266
1001
AcAecLayerStandard
1000

1000

  0
ENDTAB
  0
TABLE
  2
STYLE
  5
3
330
0
100
AcDbSymbolTable
 70
     2
  0
STYLE
  5
17
330
3
100
AcDbSymbolTableRecord
100
AcDbTextStyleTableRecord
  2
Standard
 70
     0
 40
0.0
 41
1.0
 50
0.0
 71
     0
 42
533.0403732820173
  3
txt
  4
BIGFONT.SHX
  0
STYLE
  5
39
330
3
100
AcDbSymbolTableRecord
100
AcDbTextStyleTableRecord
  2
ＭＳ ゴシック
 70
     0
 40
0.0
 41
1.0
 50
0.0
 71
     0
 42
2.5
  3
msgothic.ttc
  4
ＭＳ ゴシック
1001
ACAD
1000
ＭＳ ゴシック
1071
        0
  0
ENDTAB
  0
TABLE
  2
VIEW
  5
5
330
0
100
AcDbSymbolTable
 70
     0
  0
ENDTAB
  0
TABLE
  2
UCS
  5
6
330
0
100
AcDbSymbolTable
 70
     0
  0
ENDTAB
  0
TABLE
  2
APPID
  5
8
330
0
100
AcDbSymbolTable
 70
    14
  0
APPID
  5
16
330
8
100
AcDbSymbolTableRecord
100
AcDbRegAppTableRecord
  2
ACAD
 70
     0
  0
APPID
  5
5C5
330
8
100
AcDbSymbolTableRecord
100
AcDbRegAppTableRecord
  2
AcAecLayerStandard
 70
     0
  0
APPID
  5
913
330
8
100
AcDbSymbolTableRecord
100
AcDbRegAppTableRecord
  2
ACAD_DSTYLE_DIMBREAK
 70
     0
  0
APPID
  5
914
330
8
100
AcDbSymbolTableRecord
100
AcDbRegAppTableRecord
  2
ACAD_DSTYLE_DIMJAG
 70
     0
  0
APPID
  5
915
330
8
100
AcDbSymbolTableRecord
100
AcDbRegAppTableRecord
  2
ACAD_DSTYLE_DIMTALN
 70
     0
  0
APPID
  5
E4F
330
8
100
AcDbSymbolTableRecord
100
AcDbRegAppTableRecord
  2
ACAD_MLEADERVER
 70
     0
  0
APPID
  5
E79
330
8
100
AcDbSymbolTableRecord
100
AcDbRegAppTableRecord
  2
ACAD_PSEXT
 70
     0
  0
APPID
  5
E7A
330
8
100
AcDbSymbolTableRecord
100
AcDbRegAppTableRecord
  2
ACAD_NAV_VCDISPLAY
 70
     0
  0
APPID
  5
166E
330
8
100
AcDbSymbolTableRecord
100
AcDbRegAppTableRecord
  2
AcadAnnotative
 70
     0
  0
APPID
  5
166F
330
8
100
AcDbSymbolTableRecord
100
AcDbRegAppTableRecord
  2
GradientColor1ACI
 70
     0
  0
APPID
  5
1670
330
8
100
AcDbSymbolTableRecord
100
AcDbRegAppTableRecord
  2
GradientColor2ACI
 70
     0
  0
APPID
  5
20FE
330
8
100
AcDbSymbolTableRecord
100
AcDbRegAppTableRecord
  2
AcLayerTools
 70
     0
  0
APPID
  5
2627
330
8
100
AcDbSymbolTableRecord
100
AcDbRegAppTableRecord
  2
AcCmTransparency
 70
     0
  0
APPID
  5
2A89
330
8
100
AcDbSymbolTableRecord
100
AcDbRegAppTableRecord
  2
PLOTTRANSPARENCY
 70
     0
  0
ENDTAB
  0
TABLE
  2
DIMSTYLE
  5
9
330
0
100
AcDbSymbolTable
 70
     1
100
AcDbDimStyleTable
  0
DIMSTYLE
105
5C
330
9
100
AcDbSymbolTableRecord
100
AcDbDimStyleTableRecord
  2
JIS
 70
     0
  3
<>
  4
[]
 41
9.0
 42
0.0
 43
6.99999999999994
 44
19.9999999999962
 73
     0
 74
     0
 77
     1
 78
    11
140
24.4326171875
141
0.0
143
1.0
147
10.0
171
     1
174
     1
178
     0
179
     2
271
     1
272
     1
276
     2
284
    11
285
    11
286
    11
289
     0
340
39
341
4E
342
4E
  0
ENDTAB
  0
TABLE
  2
BLOCK_RECORD
  5
1
330
0
100
AcDbSymbolTable
 70
    17
  0
BLOCK_RECORD
  5
A
330
1
100
AcDbSymbolTableRecord
100
AcDbBlockTableRecord
  2
*MODEL_SPACE
340
20
 70
     0
280
     1
281
     0
  0
BLOCK_RECORD
  5
B
330
1
100
AcDbSymbolTableRecord
100
AcDbBlockTableRecord
  2
*PAPER_SPACE
340
21
 70
     0
280
     1
281
     0
  0
BLOCK_RECORD
  5
4E
330
1
100
AcDbSymbolTableRecord
100
AcDbBlockTableRecord
  2
_DOT
340
0
102
{BLKREFS
331
239A
331
239B
331
23CE
331
23CF
331
23DB
331
23DC
331
23E8
331
23E9
331
23FF
331
2400
331
2426
331
2427
331
2494
331
2495
331
24AC
331
24AD
331
25BB
331
25BC
331
25D2
331
25D3
331
28D8
331
28D9
331
29B3
331
29B4
331
29FA
331
29FB
331
2A06
331
2A07
331
2A12
331
2A13
331
2A1E
331
2A1F
331
2A46
331
2A47
331
2A52
331
2A53
331
2A5E
331
2A5F
331
2A6A
331
2A6B
331
2A76
331
2A77
331
2AA6
331
2AA5
331
2AB6
331
2AB5
331
2AE5
331
2AE6
331
2AEB
331
2AEC
331
2AF1
331
2AF2
331
2AF7
331
2AF8
331
2B00
331
2B01
331
2B06
331
2B07
331
2B0C
331
2B0D
331
2B3C
331
2B3D
331
2B42
331
2B43
331
2B48
331
2B49
102
}
 70
     0
280
     1
281
     0
  0
BLOCK_RECORD
  5
3A5
330
1
100
AcDbSymbolTableRecord
100
AcDbBlockTableRecord
  2
名称未設定-1
340
0
102
{BLKREFS
331
0
102
}
 70
     1
280
     1
281
     0
  0
BLOCK_RECORD
  5
3A8
330
1
100
AcDbSymbolTableRecord
100
AcDbBlockTableRecord
  2
block 2
340
0
102
{BLKREFS
331
3A7
331
2AD6
102
}
 70
     0
280
     1
281
     0
  0
BLOCK_RECORD
  5
3AB
330
1
100
AcDbSymbolTableRecord
100
AcDbBlockTableRecord
  2
block 3
340
0
102
{BLKREFS
331
3AA
102
}
 70
     0
280
     1
281
     0
  0
BLOCK_RECORD
  5
3AE
330
1
100
AcDbSymbolTableRecord
100
AcDbBlockTableRecord
  2
block 4
340
0
102
{BLKREFS
331
3AD
102
}
 70
     0
280
     1
281
     0
  0
BLOCK_RECORD
  5
3BD
330
1
100
AcDbSymbolTableRecord
100
AcDbBlockTableRecord
  2
block 5
340
0
102
{BLKREFS
331
3BC
102
}
 70
     0
280
     1
281
     0
  0
BLOCK_RECORD
  5
11F0
330
1
100
AcDbSymbolTableRecord
100
AcDbBlockTableRecord
  2
BLOCK_2
340
0
102
{BLKREFS
331
1273
331
127B
331
127C
102
}
 70
     0
280
     1
281
     0
  0
BLOCK_RECORD
  5
29AB
330
1
100
AcDbSymbolTableRecord
100
AcDbBlockTableRecord
  2
*D24
340
0
 70
     0
280
     1
281
     0
  0
BLOCK_RECORD
  5
29F4
330
1
100
AcDbSymbolTableRecord
100
AcDbBlockTableRecord
  2
*D25
340
0
 70
     0
280
     1
281
     0
  0
BLOCK_RECORD
  5
2A00
330
1
100
AcDbSymbolTableRecord
100
AcDbBlockTableRecord
  2
*D26
340
0
 70
     0
280
     1
281
     0
  0
BLOCK_RECORD
  5
2A0C
330
1
100
AcDbSymbolTableRecord
100
AcDbBlockTableRecord
  2
*D27
340
0
 70
     0
280
     1
281
     0
  0
BLOCK_RECORD
  5
2A40
330
1
100
AcDbSymbolTableRecord
100
AcDbBlockTableRecord
  2
*D29
340
0
 70
     0
280
     1
281
     0
  0
BLOCK_RECORD
  5
2A4C
330
1
100
AcDbSymbolTableRecord
100
AcDbBlockTableRecord
  2
*D30
340
0
 70
     0
280
     1
281
     0
  0
BLOCK_RECORD
  5
2A58
330
1
100
AcDbSymbolTableRecord
100
AcDbBlockTableRecord
  2
*D31
340
0
 70
     0
280
     1
281
     0
  0
BLOCK_RECORD
  5
2A64
330
1
100
AcDbSymbolTableRecord
100
AcDbBlockTableRecord
  2
*D32
340
0
 70
     0
280
     1
281
     0
  0
BLOCK_RECORD
  5
2A70
330
1
100
AcDbSymbolTableRecord
100
AcDbBlockTableRecord
  2
*D33
340
0
 70
     0
280
     1
281
     0
  0
BLOCK_RECORD
  5
2A9F
330
1
100
AcDbSymbolTableRecord
100
AcDbBlockTableRecord
  2
*D34
340
0
 70
     0
280
     1
281
     0
  0
ENDTAB
  0
ENDSEC
  0
SECTION
  2
BLOCKS
  0
BLOCK
  5
D
330
A
100
AcDbEntity
  8
0
390
1D
100
AcDbBlockBegin
  2
*MODEL_SPACE
 70
     0
 10
0.0
 20
0.0
 30
0.0
  3
*MODEL_SPACE
  1
*MODEL_SPACE
  0
ENDBLK
  5
E
330
A
100
AcDbEntity
  8
0
390
1D
100
AcDbBlockEnd
  0
BLOCK
  5
F
330
B
100
AcDbEntity
 67
     1
  8
0
390
1D
100
AcDbBlockBegin
  2
*PAPER_SPACE
 70
     0
 10
0.0
 20
0.0
 30
0.0
  3
*PAPER_SPACE
  1
*PAPER_SPACE
  0
ENDBLK
  5
10
330
B
100
AcDbEntity
 67
     1
  8
0
390
1D
100
AcDbBlockEnd
  0
BLOCK
  5
2BB
330
4E
100
AcDbEntity
  8
0
390
1D
100
AcDbBlockBegin
  2
_DOT
 70
     0
 10
0.0
 20
0.0
 30
0.0
  3
_DOT
  1
_DOT
  0
POLYLINE
  5
2BD
330
4E
100
AcDbEntity
  8
0
  6
ByBlock
 62
     0
370
    -2
390
1D
100
AcDb2dPolyline
 66
     1
 10
0.0
 20
0.0
 30
0.0
 70
     1
 40
0.5
 41
0.5
  0
VERTEX
  5
2BE
330
2BD
100
AcDbEntity
  8
0
  6
ByBlock
 62
     0
370
    -2
390
1D
100
AcDbVertex
100
AcDb2dVertex
 10
-0.25
 20
0.0
 30
0.0
 42
1.0
  0
VERTEX
  5
2BF
330
2BD
100
AcDbEntity
  8
0
  6
ByBlock
 62
     0
370
    -2
390
1D
100
AcDbVertex
100
AcDb2dVertex
 10
0.25
 20
0.0
 30
0.0
 42
1.0
  0
SEQEND
  5
2C0
330
2BD
100
AcDbEntity
  8
0
390
1D
  0
LINE
  5
2C1
330
4E
100
AcDbEntity
  8
0
  6
ByBlock
 62
     0
370
    -2
390
1D
100
AcDbLine
 10
-0.5
 20
0.0
 30
0.0
 11
-1.0
 21
0.0
 31
0.0
  0
ENDBLK
  5
2C2
330
4E
100
AcDbEntity
  8
0
390
1D
100
AcDbBlockEnd
  0
BLOCK
  5
3A6
330
3A5
100
AcDbEntity
  8
0
100
AcDbBlockBegin
  2
名称未設定-1
 70
     0
 10
0.0
 20
0.0
 30
0.0
  3
名称未設定-1
  1
名称未設定-1
  0
INSERT
  5
3A7
330
3A5
100
AcDbEntity
  8
レイヤー 1
100
AcDbBlockReference
  2
block 2
 10
0.0
 20
0.0
 30
0.0
  0
ENDBLK
  5
3CC
330
3A5
100
AcDbEntity
  8
0
100
AcDbBlockEnd
  0
BLOCK
  5
3A9
330
3A8
100
AcDbEntity
  8
0
100
AcDbBlockBegin
  2
block 2
 70
     0
 10
0.0
 20
0.0
 30
0.0
  3
block 2
  1
block 2
  0
INSERT
  5
3AA
330
3A8
100
AcDbEntity
  8
レイヤー 1
100
AcDbBlockReference
  2
block 3
 10
0.0
 20
0.0
 30
0.0
  0
ENDBLK
  5
3CB
330
3A8
100
AcDbEntity
  8
0
100
AcDbBlockEnd
  0
BLOCK
  5
3AC
330
3AB
100
AcDbEntity
  8
0
100
AcDbBlockBegin
  2
block 3
 70
     0
 10
0.0
 20
0.0
 30
0.0
  3
block 3
  1
block 3
  0
INSERT
  5
3AD
330
3AB
100
AcDbEntity
  8
レイヤー 1
100
AcDbBlockReference
  2
block 4
 10
0.0
 20
0.0
 30
0.0
  0
ENDBLK
  5
3CA
330
3AB
100
AcDbEntity
  8
0
100
AcDbBlockEnd
  0
BLOCK
  5
3AF
330
3AE
100
AcDbEntity
  8
0
100
AcDbBlockBegin
  2
block 4
 70
     0
 10
0.0
 20
0.0
 30
0.0
  3
block 4
  1
block 4
  0
POLYLINE
  5
3B0
330
3AE
100
AcDbEntity
  8
レイヤー 1
370
     0
100
AcDb2dPolyline
 66
     1
 10
0.0
 20
0.0
 30
0.0
  0
VERTEX
  5
3B1
330
3B0
100
AcDbEntity
  8
レイヤー 1
370
     0
100
AcDbVertex
100
AcDb2dVertex
 10
83.79545727667795
 20
167.6444858234922
 30
0.0
  0
VERTEX
  5
3B2
330
3B0
100
AcDbEntity
  8
レイヤー 1
370
     0
100
AcDbVertex
100
AcDb2dVertex
 10
83.79545727667795
 20
159.7968976406313
 30
0.0
  0
VERTEX
  5
3B3
330
3B0
100
AcDbEntity
  8
レイヤー 1
370
     0
100
AcDbVertex
100
AcDb2dVertex
 10
71.3631329975216
 20
159.7968976406313
 30
0.0
  0
VERTEX
  5
3B4
330
3B0
100
AcDbEntity
  8
レイヤー 1
370
     0
100
AcDbVertex
100
AcDb2dVertex
 10
71.3631329975216
 20
127.8027915271048
 30
0.0
  0
VERTEX
  5
3B5
330
3B0
100
AcDbEntity
  8
レイヤー 1
370
     0
100
AcDbVertex
100
AcDb2dVertex
 10
60.43011526263018
 20
127.8027915271048
 30
0.0
  0
VERTEX
  5
3B6
330
3B0
100
AcDbEntity
  8
レイヤー 1
370
     0
100
AcDbVertex
100
AcDb2dVertex
 10
60.43011526263018
 20
159.7968976406313
 30
0.0
  0
VERTEX
  5
3B7
330
3B0
100
AcDbEntity
  8
レイヤー 1
370
     0
100
AcDbVertex
100
AcDb2dVertex
 10
48.21793273020759
 20
159.7968976406313
 30
0.0
  0
VERTEX
  5
3B8
330
3B0
100
AcDbEntity
  8
レイヤー 1
370
     0
100
AcDbVertex
100
AcDb2dVertex
 10
48.21793273020759
 20
167.6444858234922
 30
0.0
  0
VERTEX
  5
3B9
330
3B0
100
AcDbEntity
  8
レイヤー 1
370
     0
100
AcDbVertex
100
AcDb2dVertex
 10
83.79545727667795
 20
167.6444858234922
 30
0.0
  0
SEQEND
  5
3BA
330
3B0
100
AcDbEntity
  8
レイヤー 1
370
     0
  0
HATCH
  5
3BB
330
3AE
100
AcDbEntity
  8
レイヤー 1
 62
   250
420
  2234388
100
AcDbHatch
 10
0.0
 20
0.0
 30
0.0
210
0.0
220
0.0
230
1.0
  2
SOLID
 70
     1
 71
     0
 91
        1
 92
        1
 93
        8
 72
     1
 10
83.79545727667795
 20
167.6444858234922
 11
83.79545727667795
 21
159.7968976406313
 72
     1
 10
83.79545727667795
 20
159.7968976406313
 11
71.3631329975216
 21
159.7968976406313
 72
     1
 10
71.3631329975216
 20
159.7968976406313
 11
71.3631329975216
 21
127.8027915271048
 72
     1
 10
71.3631329975216
 20
127.8027915271048
 11
60.43011526263018
 21
127.8027915271048
 72
     1
 10
60.43011526263018
 20
127.8027915271048
 11
60.43011526263018
 21
159.7968976406313
 72
     1
 10
60.43011526263018
 20
159.7968976406313
 11
48.21793273020759
 21
159.7968976406313
 72
     1
 10
48.21793273020759
 20
159.7968976406313
 11
48.21793273020759
 21
167.6444858234922
 72
     1
 10
48.21793273020759
 20
167.6444858234922
 11
83.79545727667795
 21
167.6444858234922
 97
        0
 75
     2
 76
     1
 98
        0
  0
INSERT
  5
3BC
330
3AE
100
AcDbEntity
  8
レイヤー 1
100
AcDbBlockReference
  2
block 5
 10
0.0
 20
0.0
 30
0.0
  0
ENDBLK
  5
3C9
330
3AE
100
AcDbEntity
  8
0
100
AcDbBlockEnd
  0
BLOCK
  5
3BE
330
3BD
100
AcDbEntity
  8
0
100
AcDbBlockBegin
  2
block 5
 70
     0
 10
0.0
 20
0.0
 30
0.0
  3
block 5
  1
block 5
  0
SPLINE
  5
3BF
330
3BD
100
AcDbEntity
  8
レイヤー 1
370
     0
100
AcDbSpline
210
0.0
220
0.0
230
1.0
 70
    11
 71
     3
 72
    56
 73
    52
 74
     0
 42
0.000000001
 43
0.0000000001
 40
0.0
 40
0.0
 40
0.0
 40
0.0
 40
1.0
 40
1.0
 40
1.0
 40
2.0
 40
2.0
 40
2.0
 40
3.0
 40
3.0
 40
3.0
 40
4.0
 40
4.0
 40
4.0
 40
5.0
 40
5.0
 40
5.0
 40
6.0
 40
6.0
 40
6.0
 40
7.0
 40
7.0
 40
7.0
 40
8.0
 40
8.0
 40
8.0
 40
9.0
 40
9.0
 40
9.0
 40
10.0
 40
10.0
 40
10.0
 40
11.0
 40
11.0
 40
11.0
 40
12.0
 40
12.0
 40
12.0
 40
13.0
 40
13.0
 40
13.0
 40
14.0
 40
14.0
 40
14.0
 40
15.0
 40
15.0
 40
15.0
 40
16.0
 40
16.0
 40
16.0
 40
17.0
 40
17.0
 40
17.0
 40
17.0
 10
100.4504378777679
 20
166.69157178364
 30
0.0
 10
101.9848844191641
 20
167.1313385124438
 30
0.0
 10
103.9637485713373
 20
166.7649523658846
 30
0.0
 10
103.9637485713373
 20
166.7649523658846
 30
0.0
 10
103.9637485713373
 20
166.7649523658846
 30
0.0
 10
103.0132460999156
 20
163.911205638077
 30
0.0
 10
103.0132460999156
 20
163.911205638077
 30
0.0
 10
103.0132460999156
 20
163.911205638077
 30
0.0
 10
101.0674548862189
 20
164.3601018759394
 30
0.0
 10
99.57090442016032
 20
163.1805004036133
 30
0.0
 10
98.40508333886608
 20
162.258247733807
 30
0.0
 10
97.65301849830304
 20
159.804132345923
 30
0.0
 10
97.3598406791005
 20
158.8699940888517
 30
0.0
 10
97.3598406791005
 20
158.8699940888517
 30
0.0
 10
96.07137411762282
 20
154.9119212747295
 30
0.0
 10
96.07137411762282
 20
154.9119212747295
 30
0.0
 10
96.07137411762282
 20
154.9119212747295
 30
0.0
 10
100.3012651448482
 20
154.9119212747295
 30
0.0
 10
100.3012651448482
 20
154.9119212747295
 30
0.0
 10
100.3012651448482
 20
154.9119212747295
 30
0.0
 10
99.64152892419852
 20
152.4199098115079
 30
0.0
 10
99.64152892419852
 20
152.4199098115079
 30
0.0
 10
99.64152892419852
 20
152.4199098115079
 30
0.0
 10
95.38097652692731
 20
152.4199098115079
 30
0.0
 10
95.38097652692731
 20
152.4199098115079
 30
0.0
 10
95.38097652692731
 20
152.4199098115079
 30
0.0
 10
87.75353009080013
 20
127.8027915271048
 30
0.0
 10
87.75353009080013
 20
127.8027915271048
 30
0.0
 10
87.75353009080013
 20
127.8027915271048
 30
0.0
 10
85.36538832498108
 20
127.8027915271048
 30
0.0
 10
85.36538832498108
 20
127.8027915271048
 30
0.0
 10
85.36538832498108
 20
127.8027915271048
 30
0.0
 10
93.00006946639998
 20
152.4199098115079
 30
0.0
 10
93.00006946639998
 20
152.4199098115079
 30
0.0
 10
93.00006946639998
 20
152.4199098115079
 30
0.0
 10
89.85297266450198
 20
152.4199098115079
 30
0.0
 10
89.85297266450198
 20
152.4199098115079
 30
0.0
 10
89.85297266450198
 20
152.4199098115079
 30
0.0
 10
90.51270888515164
 20
154.9119212747295
 30
0.0
 10
90.51270888515164
 20
154.9119212747295
 30
0.0
 10
90.51270888515164
 20
154.9119212747295
 30
0.0
 10
93.6904670570955
 20
154.9119212747295
 30
0.0
 10
93.6904670570955
 20
154.9119212747295
 30
0.0
 10
93.6904670570955
 20
154.9119212747295
 30
0.0
 10
94.81598049462158
 20
158.3616699146644
 30
0.0
 10
94.81598049462158
 20
158.3616699146644
 30
0.0
 10
95.7237637538445
 20
161.2605474231013
 30
0.0
 10
96.4968436907311
 20
162.8139420021662
 30
0.0
 10
97.15657991138076
 20
163.9844139654337
 30
0.0
 10
97.81183750494507
 20
165.1523021053827
 30
0.0
 10
99.1047826935081
 20
166.3084769129547
 30
0.0
 10
100.4504378777679
 20
166.69157178364
 30
0.0
  0
HATCH
  5
3C0
330
3BD
100
AcDbEntity
  8
レイヤー 1
 62
   250
420
  2234388
100
AcDbHatch
 10
0.0
 20
0.0
 30
0.0
210
0.0
220
0.0
230
1.0
  2
SOLID
 70
     1
 71
     0
 91
        1
 92
        1
 93
        1
 72
     4
 94
        3
 73
     0
 74
     1
 95
       56
 96
       52
 40
0.0
 40
0.0
 40
0.0
 40
0.0
 40
1.0
 40
1.0
 40
1.0
 40
2.0
 40
2.0
 40
2.0
 40
3.0
 40
3.0
 40
3.0
 40
4.0
 40
4.0
 40
4.0
 40
5.0
 40
5.0
 40
5.0
 40
6.0
 40
6.0
 40
6.0
 40
7.0
 40
7.0
 40
7.0
 40
8.0
 40
8.0
 40
8.0
 40
9.0
 40
9.0
 40
9.0
 40
10.0
 40
10.0
 40
10.0
 40
11.0
 40
11.0
 40
11.0
 40
12.0
 40
12.0
 40
12.0
 40
13.0
 40
13.0
 40
13.0
 40
14.0
 40
14.0
 40
14.0
 40
15.0
 40
15.0
 40
15.0
 40
16.0
 40
16.0
 40
16.0
 40
17.0
 40
17.0
 40
17.0
 40
17.0
 10
100.4504378777679
 20
166.69157178364
 10
101.9848844191641
 20
167.1313385124438
 10
103.9637485713373
 20
166.7649523658846
 10
103.9637485713373
 20
166.7649523658846
 10
103.9637485713373
 20
166.7649523658846
 10
103.0132460999156
 20
163.911205638077
 10
103.0132460999156
 20
163.911205638077
 10
103.0132460999156
 20
163.911205638077
 10
101.0674548862189
 20
164.3601018759394
 10
99.57090442016032
 20
163.1805004036133
 10
98.40508333886608
 20
162.258247733807
 10
97.65301849830304
 20
159.804132345923
 10
97.3598406791005
 20
158.8699940888517
 10
97.3598406791005
 20
158.8699940888517
 10
96.07137411762282
 20
154.9119212747295
 10
96.07137411762282
 20
154.9119212747295
 10
96.07137411762282
 20
154.9119212747295
 10
100.3012651448482
 20
154.9119212747295
 10
100.3012651448482
 20
154.9119212747295
 10
100.3012651448482
 20
154.9119212747295
 10
99.64152892419852
 20
152.4199098115079
 10
99.64152892419852
 20
152.4199098115079
 10
99.64152892419852
 20
152.4199098115079
 10
95.38097652692731
 20
152.4199098115079
 10
95.38097652692731
 20
152.4199098115079
 10
95.38097652692731
 20
152.4199098115079
 10
87.75353009080013
 20
127.8027915271048
 10
87.75353009080013
 20
127.8027915271048
 10
87.75353009080013
 20
127.8027915271048
 10
85.36538832498108
 20
127.8027915271048
 10
85.36538832498108
 20
127.8027915271048
 10
85.36538832498108
 20
127.8027915271048
 10
93.00006946639998
 20
152.4199098115079
 10
93.00006946639998
 20
152.4199098115079
 10
93.00006946639998
 20
152.4199098115079
 10
89.85297266450198
 20
152.4199098115079
 10
89.85297266450198
 20
152.4199098115079
 10
89.85297266450198
 20
152.4199098115079
 10
90.51270888515164
 20
154.9119212747295
 10
90.51270888515164
 20
154.9119212747295
 10
90.51270888515164
 20
154.9119212747295
 10
93.6904670570955
 20
154.9119212747295
 10
93.6904670570955
 20
154.9119212747295
 10
93.6904670570955
 20
154.9119212747295
 10
94.81598049462158
 20
158.3616699146644
 10
94.81598049462158
 20
158.3616699146644
 10
95.7237637538445
 20
161.2605474231013
 10
96.4968436907311
 20
162.8139420021662
 10
97.15657991138076
 20
163.9844139654337
 10
97.81183750494507
 20
165.1523021053827
 10
99.1047826935081
 20
166.3084769129547
 10
100.4504378777679
 20
166.69157178364
 97
        0
 75
     2
 76
     1
 98
        0
  0
SPLINE
  5
3C1
330
3BD
100
AcDbEntity
  8
レイヤー 1
370
     0
100
AcDbSpline
210
0.0
220
0.0
230
1.0
 70
    11
 71
     3
 72
    38
 73
    34
 74
     0
 42
0.000000001
 43
0.0000000001
 40
0.0
 40
0.0
 40
0.0
 40
0.0
 40
1.0
 40
1.0
 40
1.0
 40
2.0
 40
2.0
 40
2.0
 40
3.0
 40
3.0
 40
3.0
 40
4.0
 40
4.0
 40
4.0
 40
5.0
 40
5.0
 40
5.0
 40
6.0
 40
6.0
 40
6.0
 40
7.0
 40
7.0
 40
7.0
 40
8.0
 40
8.0
 40
8.0
 40
9.0
 40
9.0
 40
9.0
 40
10.0
 40
10.0
 40
10.0
 40
11.0
 40
11.0
 40
11.0
 40
11.0
 10
126.377554584636
 20
154.8151140277308
 30
0.0
 10
126.377554584636
 20
154.8151140277308
 30
0.0
 10
128.8311532078563
 20
154.8151140277308
 30
0.0
 10
128.8311532078563
 20
154.8151140277308
 30
0.0
 10
128.8311532078563
 20
154.8151140277308
 30
0.0
 10
127.7345785914971
 20
151.3062819612468
 30
0.0
 10
127.7345785914971
 20
151.3062819612468
 30
0.0
 10
128.571392836906
 20
152.2922689395754
 30
0.0
 10
129.8860421413442
 20
153.604506675583
 30
0.0
 10
131.0163787157314
 20
154.2664822097754
 30
0.0
 10
132.7044766171327
 20
155.2500576196734
 30
0.0
 10
133.6642808525008
 20
155.3847609420097
 30
0.0
 10
134.7284715499351
 20
155.3565111403944
 30
0.0
 10
134.7284715499351
 20
155.3565111403944
 30
0.0
 10
133.6877075172549
 20
152.0345756272799
 30
0.0
 10
133.6877075172549
 20
152.0345756272799
 30
0.0
 10
133.011434827367
 20
152.3184516825359
 30
0.0
 10
130.930940291334
 20
151.7768823149844
 30
0.0
 10
129.739280976855
 20
150.9162968950455
 30
0.0
 10
128.66613302525
 20
150.1454562717016
 30
0.0
 10
127.9192358313239
 20
149.4857200510519
 30
0.0
 10
127.0393578639405
 20
147.8282835196966
 30
0.0
 10
126.164647543194
 20
146.1699857139017
 30
0.0
 10
125.4742499524985
 20
143.5262176944419
 30
0.0
 10
124.2822461282437
 20
139.6959580071401
 30
0.0
 10
124.2822461282437
 20
139.6959580071401
 30
0.0
 10
120.5753209406769
 20
127.8027915271048
 30
0.0
 10
120.5753209406769
 20
127.8027915271048
 30
0.0
 10
120.5753209406769
 20
127.8027915271048
 30
0.0
 10
118.1964809388044
 20
127.8027915271048
 30
0.0
 10
118.1964809388044
 20
127.8027915271048
 30
0.0
 10
118.1964809388044
 20
127.8027915271048
 30
0.0
 10
126.377554584636
 20
154.8151140277308
 30
0.0
 10
126.377554584636
 20
154.8151140277308
 30
0.0
  0
HATCH
  5
3C2
330
3BD
100
AcDbEntity
  8
レイヤー 1
 62
   250
420
  2234388
100
AcDbHatch
 10
0.0
 20
0.0
 30
0.0
210
0.0
220
0.0
230
1.0
  2
SOLID
 70
     1
 71
     0
 91
        1
 92
        1
 93
        1
 72
     4
 94
        3
 73
     0
 74
     1
 95
       38
 96
       34
 40
0.0
 40
0.0
 40
0.0
 40
0.0
 40
1.0
 40
1.0
 40
1.0
 40
2.0
 40
2.0
 40
2.0
 40
3.0
 40
3.0
 40
3.0
 40
4.0
 40
4.0
 40
4.0
 40
5.0
 40
5.0
 40
5.0
 40
6.0
 40
6.0
 40
6.0
 40
7.0
 40
7.0
 40
7.0
 40
8.0
 40
8.0
 40
8.0
 40
9.0
 40
9.0
 40
9.0
 40
10.0
 40
10.0
 40
10.0
 40
11.0
 40
11.0
 40
11.0
 40
11.0
 10
126.377554584636
 20
154.8151140277308
 10
126.377554584636
 20
154.8151140277308
 10
128.8311532078563
 20
154.8151140277308
 10
128.8311532078563
 20
154.8151140277308
 10
128.8311532078563
 20
154.8151140277308
 10
127.7345785914971
 20
151.3062819612468
 10
127.7345785914971
 20
151.3062819612468
 10
128.571392836906
 20
152.2922689395754
 10
129.8860421413442
 20
153.604506675583
 10
131.0163787157314
 20
154.2664822097754
 10
132.7044766171327
 20
155.2500576196734
 10
133.6642808525008
 20
155.3847609420097
 10
134.7284715499351
 20
155.3565111403944
 10
134.7284715499351
 20
155.3565111403944
 10
133.6877075172549
 20
152.0345756272799
 10
133.6877075172549
 20
152.0345756272799
 10
133.011434827367
 20
152.3184516825359
 10
130.930940291334
 20
151.7768823149844
 10
129.739280976855
 20
150.9162968950455
 10
128.66613302525
 20
150.1454562717016
 10
127.9192358313239
 20
149.4857200510519
 10
127.0393578639405
 20
147.8282835196966
 10
126.164647543194
 20
146.1699857139017
 10
125.4742499524985
 20
143.5262176944419
 10
124.2822461282437
 20
139.6959580071401
 10
124.2822461282437
 20
139.6959580071401
 10
120.5753209406769
 20
127.8027915271048
 10
120.5753209406769
 20
127.8027915271048
 10
120.5753209406769
 20
127.8027915271048
 10
118.1964809388044
 20
127.8027915271048
 10
118.1964809388044
 20
127.8027915271048
 10
118.1964809388044
 20
127.8027915271048
 10
126.377554584636
 20
154.8151140277308
 10
126.377554584636
 20
154.8151140277308
 97
        0
 75
     2
 76
     1
 98
        0
  0
SPLINE
  5
3C3
330
3BD
100
AcDbEntity
  8
レイヤー 1
370
     0
100
AcDbSpline
210
0.0
220
0.0
230
1.0
 70
    11
 71
     3
 72
   104
 73
   100
 74
     0
 42
0.000000001
 43
0.0000000001
 40
0.0
 40
0.0
 40
0.0
 40
0.0
 40
1.0
 40
1.0
 40
1.0
 40
2.0
 40
2.0
 40
2.0
 40
3.0
 40
3.0
 40
3.0
 40
4.0
 40
4.0
 40
4.0
 40
5.0
 40
5.0
 40
5.0
 40
6.0
 40
6.0
 40
6.0
 40
7.0
 40
7.0
 40
7.0
 40
8.0
 40
8.0
 40
8.0
 40
9.0
 40
9.0
 40
9.0
 40
10.0
 40
10.0
 40
10.0
 40
11.0
 40
11.0
 40
11.0
 40
12.0
 40
12.0
 40
12.0
 40
13.0
 40
13.0
 40
13.0
 40
14.0
 40
14.0
 40
14.0
 40
15.0
 40
15.0
 40
15.0
 40
16.0
 40
16.0
 40
16.0
 40
17.0
 40
17.0
 40
17.0
 40
18.0
 40
18.0
 40
18.0
 40
19.0
 40
19.0
 40
19.0
 40
20.0
 40
20.0
 40
20.0
 40
21.0
 40
21.0
 40
21.0
 40
22.0
 40
22.0
 40
22.0
 40
23.0
 40
23.0
 40
23.0
 40
24.0
 40
24.0
 40
24.0
 40
25.0
 40
25.0
 40
25.0
 40
26.0
 40
26.0
 40
26.0
 40
27.0
 40
27.0
 40
27.0
 40
28.0
 40
28.0
 40
28.0
 40
29.0
 40
29.0
 40
29.0
 40
30.0
 40
30.0
 40
30.0
 40
31.0
 40
31.0
 40
31.0
 40
32.0
 40
32.0
 40
32.0
 40
33.0
 40
33.0
 40
33.0
 40
33.0
 10
139.8926730891197
 20
154.8294111834263
 30
0.0
 10
139.8926730891197
 20
154.8294111834263
 30
0.0
 10
142.0344903652445
 20
154.8294111834263
 30
0.0
 10
142.0344903652445
 20
154.8294111834263
 30
0.0
 10
142.0344903652445
 20
154.8294111834263
 30
0.0
 10
140.9516961399171
 20
151.3157559800812
 30
0.0
 10
140.9516961399171
 20
151.3157559800812
 30
0.0
 10
141.8928968473923
 20
152.7887075264977
 30
0.0
 10
142.7341897198865
 20
153.4484437471474
 30
0.0
 10
143.8552245303272
 20
154.2926649527359
 30
0.0
 10
144.9803934580775
 20
155.1296514530327
 30
0.0
 10
146.3139908001845
 20
155.3044901642492
 30
0.0
 10
147.241066606852
 20
155.3044901642492
 30
0.0
 10
148.3855280820469
 20
155.3044901642492
 30
0.0
 10
149.4969166187653
 20
155.0752189084569
 30
0.0
 10
150.0784491203092
 20
153.8172414621372
 30
0.0
 10
150.5228667310863
 20
152.833838307127
 30
0.0
 10
150.5414702589793
 20
152.7201500811143
 30
0.0
 10
150.4140016419347
 20
150.7765981809602
 30
0.0
 10
151.5818897818837
 20
152.7699317437168
 30
0.0
 10
152.4424752018226
 20
153.6256940267945
 30
0.0
 10
153.9038856707499
 20
154.4507949398263
 30
0.0
 10
155.4455669174378
 20
155.3044901642492
 30
0.0
 10
156.339225275853
 20
155.3659851592288
 30
0.0
 10
157.3748216618963
 20
155.2147453676543
 30
0.0
 10
158.911679771723
 20
154.9877134254046
 30
0.0
 10
159.8859534176746
 20
154.4390816074493
 30
0.0
 10
160.3965169054045
 20
152.7816450760939
 30
0.0
 10
160.9070803931344
 20
151.1219692311958
 30
0.0
 10
160.6328506116007
 20
150.2303779314354
 30
0.0
 10
159.9992971339115
 20
147.597634224801
 30
0.0
 10
159.7105979417943
 20
146.4014962832367
 30
0.0
 10
159.2947746424084
 20
144.9400858143094
 30
0.0
 10
158.7463150793409
 20
143.2092687007094
 30
0.0
 10
158.7463150793409
 20
143.2092687007094
 30
0.0
 10
153.9038856707499
 20
127.8027915271048
 30
0.0
 10
153.9038856707499
 20
127.8027915271048
 30
0.0
 10
153.9038856707499
 20
127.8027915271048
 30
0.0
 10
151.3882752878863
 20
127.8027915271048
 30
0.0
 10
151.3882752878863
 20
127.8027915271048
 30
0.0
 10
151.3882752878863
 20
127.8027915271048
 30
0.0
 10
155.6250565106276
 20
141.2751908193897
 30
0.0
 10
155.6250565106276
 20
141.2751908193897
 30
0.0
 10
156.5094131050963
 20
144.0936252951782
 30
0.0
 10
157.109893644309
 20
146.1506931664571
 30
0.0
 10
157.4220195011804
 20
147.4415712963654
 30
0.0
 10
157.8095929989511
 20
149.0530157726519
 30
0.0
 10
157.9656559273867
 20
149.5826995529385
 30
0.0
 10
157.7816877071116
 20
150.7529992613181
 30
0.0
 10
157.6111553680925
 20
151.8430281919372
 30
0.0
 10
157.0582171779396
 20
152.5547853887321
 30
0.0
 10
156.1170164704645
 20
152.5547853887321
 30
0.0
 10
155.1096698860365
 20
152.5547853887321
 30
0.0
 10
154.2962823053817
 20
152.4412694176073
 30
0.0
 10
153.156643967048
 20
151.2945686288697
 30
0.0
 10
152.0170056287143
 20
150.1476955852443
 30
0.0
 10
151.076149431015
 20
148.7930831468137
 30
0.0
 10
150.3337308641742
 20
147.2290087646991
 30
0.0
 10
149.5957909244188
 20
145.6683794803425
 30
0.0
 10
148.8530278478023
 20
143.6822806228776
 30
0.0
 10
148.0964843801539
 20
141.2751908193897
 30
0.0
 10
148.0964843801539
 20
141.2751908193897
 30
0.0
 10
143.8552245303272
 20
127.8027915271048
 30
0.0
 10
143.8552245303272
 20
127.8027915271048
 30
0.0
 10
143.8552245303272
 20
127.8027915271048
 30
0.0
 10
141.486030802177
 20
127.8027915271048
 30
0.0
 10
141.486030802177
 20
127.8027915271048
 30
0.0
 10
141.486030802177
 20
127.8027915271048
 30
0.0
 10
146.3329388378533
 20
143.2092687007094
 30
0.0
 10
146.3329388378533
 20
143.2092687007094
 30
0.0
 10
146.8483254624444
 20
144.8408669988801
 30
0.0
 10
147.2314203331297
 20
146.1837661049335
 30
0.0
 10
147.4867020769946
 20
147.224185627838
 30
0.0
 10
147.9169947869641
 20
149.0197705792876
 30
0.0
 10
148.0306830129768
 20
150.2400242051577
 30
0.0
 10
147.709255392159
 20
151.3157559800812
 30
0.0
 10
147.3874832615654
 20
152.3916600098926
 30
0.0
 10
146.8245542879144
 20
152.6683013598569
 30
0.0
 10
145.8840425999909
 20
152.6683013598569
 30
0.0
 10
145.0989048209514
 20
152.6683013598569
 30
0.0
 10
144.3282364524954
 20
152.3275811915945
 30
0.0
 10
143.4531816219731
 20
151.6538923250251
 30
0.0
 10
142.34627171234
 20
150.8074318058939
 30
0.0
 10
141.901854101563
 20
150.1097995099067
 30
0.0
 10
141.3578731655808
 20
149.289521733736
 30
0.0
 10
140.6299240093235
 20
148.192602607601
 30
0.0
 10
140.2850697237515
 20
147.455696197173
 30
0.0
 10
139.6652966370942
 20
145.8385673095858
 30
0.0
 10
139.0506911970739
 20
144.2214384219986
 30
0.0
 10
138.463991048893
 20
142.3252566160164
 30
0.0
 10
138.0571250036777
 20
141.0154304484394
 30
0.0
 10
138.0571250036777
 20
141.0154304484394
 30
0.0
 10
133.9009590684727
 20
127.8027915271048
 30
0.0
 10
133.9009590684727
 20
127.8027915271048
 30
0.0
 10
133.9009590684727
 20
127.8027915271048
 30
0.0
 10
131.4180771143097
 20
127.8027915271048
 30
0.0
 10
131.4180771143097
 20
127.8027915271048
 30
0.0
 10
131.4180771143097
 20
127.8027915271048
 30
0.0
 10
139.8926730891197
 20
154.8294111834263
 30
0.0
 10
139.8926730891197
 20
154.8294111834263
 30
0.0
  0
HATCH
  5
3C4
330
3BD
100
AcDbEntity
  8
レイヤー 1
 62
   250
420
  2234388
100
AcDbHatch
 10
0.0
 20
0.0
 30
0.0
210
0.0
220
0.0
230
1.0
  2
SOLID
 70
     1
 71
     0
 91
        1
 92
        1
 93
        1
 72
     4
 94
        3
 73
     0
 74
     1
 95
      104
 96
      100
 40
0.0
 40
0.0
 40
0.0
 40
0.0
 40
1.0
 40
1.0
 40
1.0
 40
2.0
 40
2.0
 40
2.0
 40
3.0
 40
3.0
 40
3.0
 40
4.0
 40
4.0
 40
4.0
 40
5.0
 40
5.0
 40
5.0
 40
6.0
 40
6.0
 40
6.0
 40
7.0
 40
7.0
 40
7.0
 40
8.0
 40
8.0
 40
8.0
 40
9.0
 40
9.0
 40
9.0
 40
10.0
 40
10.0
 40
10.0
 40
11.0
 40
11.0
 40
11.0
 40
12.0
 40
12.0
 40
12.0
 40
13.0
 40
13.0
 40
13.0
 40
14.0
 40
14.0
 40
14.0
 40
15.0
 40
15.0
 40
15.0
 40
16.0
 40
16.0
 40
16.0
 40
17.0
 40
17.0
 40
17.0
 40
18.0
 40
18.0
 40
18.0
 40
19.0
 40
19.0
 40
19.0
 40
20.0
 40
20.0
 40
20.0
 40
21.0
 40
21.0
 40
21.0
 40
22.0
 40
22.0
 40
22.0
 40
23.0
 40
23.0
 40
23.0
 40
24.0
 40
24.0
 40
24.0
 40
25.0
 40
25.0
 40
25.0
 40
26.0
 40
26.0
 40
26.0
 40
27.0
 40
27.0
 40
27.0
 40
28.0
 40
28.0
 40
28.0
 40
29.0
 40
29.0
 40
29.0
 40
30.0
 40
30.0
 40
30.0
 40
31.0
 40
31.0
 40
31.0
 40
32.0
 40
32.0
 40
32.0
 40
33.0
 40
33.0
 40
33.0
 40
33.0
 10
139.8926730891197
 20
154.8294111834263
 10
139.8926730891197
 20
154.8294111834263
 10
142.0344903652445
 20
154.8294111834263
 10
142.0344903652445
 20
154.8294111834263
 10
142.0344903652445
 20
154.8294111834263
 10
140.9516961399171
 20
151.3157559800812
 10
140.9516961399171
 20
151.3157559800812
 10
141.8928968473923
 20
152.7887075264977
 10
142.7341897198865
 20
153.4484437471474
 10
143.8552245303272
 20
154.2926649527359
 10
144.9803934580775
 20
155.1296514530327
 10
146.3139908001845
 20
155.3044901642492
 10
147.241066606852
 20
155.3044901642492
 10
148.3855280820469
 20
155.3044901642492
 10
149.4969166187653
 20
155.0752189084569
 10
150.0784491203092
 20
153.8172414621372
 10
150.5228667310863
 20
152.833838307127
 10
150.5414702589793
 20
152.7201500811143
 10
150.4140016419347
 20
150.7765981809602
 10
151.5818897818837
 20
152.7699317437168
 10
152.4424752018226
 20
153.6256940267945
 10
153.9038856707499
 20
154.4507949398263
 10
155.4455669174378
 20
155.3044901642492
 10
156.339225275853
 20
155.3659851592288
 10
157.3748216618963
 20
155.2147453676543
 10
158.911679771723
 20
154.9877134254046
 10
159.8859534176746
 20
154.4390816074493
 10
160.3965169054045
 20
152.7816450760939
 10
160.9070803931344
 20
151.1219692311958
 10
160.6328506116007
 20
150.2303779314354
 10
159.9992971339115
 20
147.597634224801
 10
159.7105979417943
 20
146.4014962832367
 10
159.2947746424084
 20
144.9400858143094
 10
158.7463150793409
 20
143.2092687007094
 10
158.7463150793409
 20
143.2092687007094
 10
153.9038856707499
 20
127.8027915271048
 10
153.9038856707499
 20
127.8027915271048
 10
153.9038856707499
 20
127.8027915271048
 10
151.3882752878863
 20
127.8027915271048
 10
151.3882752878863
 20
127.8027915271048
 10
151.3882752878863
 20
127.8027915271048
 10
155.6250565106276
 20
141.2751908193897
 10
155.6250565106276
 20
141.2751908193897
 10
156.5094131050963
 20
144.0936252951782
 10
157.109893644309
 20
146.1506931664571
 10
157.4220195011804
 20
147.4415712963654
 10
157.8095929989511
 20
149.0530157726519
 10
157.9656559273867
 20
149.5826995529385
 10
157.7816877071116
 20
150.7529992613181
 10
157.6111553680925
 20
151.8430281919372
 10
157.0582171779396
 20
152.5547853887321
 10
156.1170164704645
 20
152.5547853887321
 10
155.1096698860365
 20
152.5547853887321
 10
154.2962823053817
 20
152.4412694176073
 10
153.156643967048
 20
151.2945686288697
 10
152.0170056287143
 20
150.1476955852443
 10
151.076149431015
 20
148.7930831468137
 10
150.3337308641742
 20
147.2290087646991
 10
149.5957909244188
 20
145.6683794803425
 10
148.8530278478023
 20
143.6822806228776
 10
148.0964843801539
 20
141.2751908193897
 10
148.0964843801539
 20
141.2751908193897
 10
143.8552245303272
 20
127.8027915271048
 10
143.8552245303272
 20
127.8027915271048
 10
143.8552245303272
 20
127.8027915271048
 10
141.486030802177
 20
127.8027915271048
 10
141.486030802177
 20
127.8027915271048
 10
141.486030802177
 20
127.8027915271048
 10
146.3329388378533
 20
143.2092687007094
 10
146.3329388378533
 20
143.2092687007094
 10
146.8483254624444
 20
144.8408669988801
 10
147.2314203331297
 20
146.1837661049335
 10
147.4867020769946
 20
147.224185627838
 10
147.9169947869641
 20
149.0197705792876
 10
148.0306830129768
 20
150.2400242051577
 10
147.709255392159
 20
151.3157559800812
 10
147.3874832615654
 20
152.3916600098926
 10
146.8245542879144
 20
152.6683013598569
 10
145.8840425999909
 20
152.6683013598569
 10
145.0989048209514
 20
152.6683013598569
 10
144.3282364524954
 20
152.3275811915945
 10
143.4531816219731
 20
151.6538923250251
 10
142.34627171234
 20
150.8074318058939
 10
141.901854101563
 20
150.1097995099067
 10
141.3578731655808
 20
149.289521733736
 10
140.6299240093235
 20
148.192602607601
 10
140.2850697237515
 20
147.455696197173
 10
139.6652966370942
 20
145.8385673095858
 10
139.0506911970739
 20
144.2214384219986
 10
138.463991048893
 20
142.3252566160164
 10
138.0571250036777
 20
141.0154304484394
 10
138.0571250036777
 20
141.0154304484394
 10
133.9009590684727
 20
127.8027915271048
 10
133.9009590684727
 20
127.8027915271048
 10
133.9009590684727
 20
127.8027915271048
 10
131.4180771143097
 20
127.8027915271048
 10
131.4180771143097
 20
127.8027915271048
 10
131.4180771143097
 20
127.8027915271048
 10
139.8926730891197
 20
154.8294111834263
 10
139.8926730891197
 20
154.8294111834263
 97
        0
 75
     2
 76
     1
 98
        0
  0
SPLINE
  5
3C5
330
3BD
100
AcDbEntity
  8
レイヤー 1
370
     0
100
AcDbSpline
210
0.0
220
0.0
230
1.0
 70
    11
 71
     3
 72
    29
 73
    25
 74
     0
 42
0.000000001
 43
0.0000000001
 40
0.0
 40
0.0
 40
0.0
 40
0.0
 40
1.0
 40
1.0
 40
1.0
 40
2.0
 40
2.0
 40
2.0
 40
3.0
 40
3.0
 40
3.0
 40
4.0
 40
4.0
 40
4.0
 40
5.0
 40
5.0
 40
5.0
 40
6.0
 40
6.0
 40
6.0
 40
7.0
 40
7.0
 40
7.0
 40
8.0
 40
8.0
 40
8.0
 40
8.0
 10
101.6420971922469
 20
132.8388354296931
 30
0.0
 10
101.630039350094
 20
134.7164137077823
 30
0.0
 10
102.2236296937908
 20
138.0598810818841
 30
0.0
 10
103.7487744712405
 20
142.5378191476827
 30
0.0
 10
105.819967243327
 20
148.5896501242061
 30
0.0
 10
107.0602024361932
 20
150.8074318058939
 30
0.0
 10
108.1522984254671
 20
151.8833358357054
 30
0.0
 10
109.741177511439
 20
153.4532668840085
 30
0.0
 10
111.8740375333931
 20
153.5290590346837
 30
0.0
 10
112.5075910110823
 20
153.4532668840085
 30
0.0
 10
113.4012493694975
 20
153.3490526768302
 30
0.0
 10
114.6683563248758
 20
152.7580461564518
 30
0.0
 10
114.7493161221879
 20
150.7838328862519
 30
0.0
 10
114.8106388622796
 20
149.0909118479895
 30
0.0
 10
114.3186789024427
 20
145.9191825971221
 30
0.0
 10
112.6164561002338
 20
140.9489400617108
 30
0.0
 10
110.6444821435766
 20
135.1746117095912
 30
0.0
 10
109.4669477299053
 20
132.8960240524753
 30
0.0
 10
108.5212683953448
 20
131.9072809959403
 30
0.0
 10
106.7346406980658
 20
130.0538184021569
 30
0.0
 10
104.8222669326213
 20
130.2336525051225
 30
0.0
 10
104.5408024457958
 20
130.2336525051225
 30
0.0
 10
104.1721769856939
 20
130.2336525051225
 30
0.0
 10
101.6465758193322
 20
130.6305277668397
 30
0.0
 10
101.6420971922469
 20
132.8388354296931
 30
0.0
  0
SPLINE
  5
3C6
330
3BD
100
AcDbEntity
  8
レイヤー 1
370
     0
100
AcDbSpline
210
0.0
220
0.0
230
1.0
 70
    11
 71
     3
 72
    32
 73
    28
 74
     0
 42
0.000000001
 43
0.0000000001
 40
0.0
 40
0.0
 40
0.0
 40
0.0
 40
1.0
 40
1.0
 40
1.0
 40
2.0
 40
2.0
 40
2.0
 40
3.0
 40
3.0
 40
3.0
 40
4.0
 40
4.0
 40
4.0
 40
5.0
 40
5.0
 40
5.0
 40
6.0
 40
6.0
 40
6.0
 40
7.0
 40
7.0
 40
7.0
 40
8.0
 40
8.0
 40
8.0
 40
9.0
 40
9.0
 40
9.0
 40
9.0
 10
106.2595617172429
 20
153.4105476718098
 30
0.0
 10
104.8222669326213
 20
151.5474388043041
 30
0.0
 10
103.7177685914188
 20
149.8758773721411
 30
0.0
 10
101.9232171692965
 20
144.6141795664062
 30
0.0
 10
100.2754269116635
 20
139.7999999594306
 30
0.0
 10
99.22777268346732
 20
136.3052927937542
 30
0.0
 10
99.06964269637689
 20
132.039572749846
 30
0.0
 10
98.94665270641765
 20
128.8673267343149
 30
0.0
 10
100.8807305877373
 20
127.8027915271048
 30
0.0
 10
103.7129454545577
 20
127.8027915271048
 30
0.0
 10
104.9352661390825
 20
127.8027915271048
 30
0.0
 10
108.0151835347002
 20
127.8827177950895
 30
0.0
 10
110.2045431598849
 20
130.5926316915021
 30
0.0
 10
111.7417457794874
 20
132.4984597712065
 30
0.0
 10
113.155269389579
 20
134.475256864725
 30
0.0
 10
115.0562743324223
 20
140.9489400617108
 30
0.0
 10
116.6361961642235
 20
146.3680788349845
 30
0.0
 10
117.7282921534974
 20
149.8639917848761
 30
0.0
 10
117.6480213757369
 20
151.8595646611754
 30
0.0
 10
117.6480213757369
 20
151.8595646611754
 30
0.0
 10
117.6480213757369
 20
151.8595646611754
 30
0.0
 10
117.6480213757369
 20
151.8595646611754
 30
0.0
 10
117.13229024137
 20
155.18150017429
 30
0.0
 10
114.7162431837115
 20
155.886194920681
 30
0.0
 10
113.3351034925446
 20
155.886194920681
 30
0.0
 10
111.9829026225447
 20
155.886194920681
 30
0.0
 10
108.3414342923792
 20
156.1251124501957
 30
0.0
 10
106.2595617172429
 20
153.4105476718098
 30
0.0
  0
HATCH
  5
3C7
330
3BD
100
AcDbEntity
  8
レイヤー 1
 62
   250
420
  2234388
100
AcDbHatch
 10
0.0
 20
0.0
 30
0.0
210
0.0
220
0.0
230
1.0
  2
SOLID
 70
     1
 71
     0
 91
        2
 92
        1
 93
        1
 72
     4
 94
        3
 73
     0
 74
     1
 95
       29
 96
       25
 40
0.0
 40
0.0
 40
0.0
 40
0.0
 40
1.0
 40
1.0
 40
1.0
 40
2.0
 40
2.0
 40
2.0
 40
3.0
 40
3.0
 40
3.0
 40
4.0
 40
4.0
 40
4.0
 40
5.0
 40
5.0
 40
5.0
 40
6.0
 40
6.0
 40
6.0
 40
7.0
 40
7.0
 40
7.0
 40
8.0
 40
8.0
 40
8.0
 40
8.0
 10
101.6420971922469
 20
132.8388354296931
 10
101.630039350094
 20
134.7164137077823
 10
102.2236296937908
 20
138.0598810818841
 10
103.7487744712405
 20
142.5378191476827
 10
105.819967243327
 20
148.5896501242061
 10
107.0602024361932
 20
150.8074318058939
 10
108.1522984254671
 20
151.8833358357054
 10
109.741177511439
 20
153.4532668840085
 10
111.8740375333931
 20
153.5290590346837
 10
112.5075910110823
 20
153.4532668840085
 10
113.4012493694975
 20
153.3490526768302
 10
114.6683563248758
 20
152.7580461564518
 10
114.7493161221879
 20
150.7838328862519
 10
114.8106388622796
 20
149.0909118479895
 10
114.3186789024427
 20
145.9191825971221
 10
112.6164561002338
 20
140.9489400617108
 10
110.6444821435766
 20
135.1746117095912
 10
109.4669477299053
 20
132.8960240524753
 10
108.5212683953448
 20
131.9072809959403
 10
106.7346406980658
 20
130.0538184021569
 10
104.8222669326213
 20
130.2336525051225
 10
104.5408024457958
 20
130.2336525051225
 10
104.1721769856939
 20
130.2336525051225
 10
101.6465758193322
 20
130.6305277668397
 10
101.6420971922469
 20
132.8388354296931
 97
        0
 92
        1
 93
        1
 72
     4
 94
        3
 73
     0
 74
     1
 95
       32
 96
       28
 40
0.0
 40
0.0
 40
0.0
 40
0.0
 40
1.0
 40
1.0
 40
1.0
 40
2.0
 40
2.0
 40
2.0
 40
3.0
 40
3.0
 40
3.0
 40
4.0
 40
4.0
 40
4.0
 40
5.0
 40
5.0
 40
5.0
 40
6.0
 40
6.0
 40
6.0
 40
7.0
 40
7.0
 40
7.0
 40
8.0
 40
8.0
 40
8.0
 40
9.0
 40
9.0
 40
9.0
 40
9.0
 10
106.2595617172429
 20
153.4105476718098
 10
104.8222669326213
 20
151.5474388043041
 10
103.7177685914188
 20
149.8758773721411
 10
101.9232171692965
 20
144.6141795664062
 10
100.2754269116635
 20
139.7999999594306
 10
99.22777268346732
 20
136.3052927937542
 10
99.06964269637689
 20
132.039572749846
 10
98.94665270641765
 20
128.8673267343149
 10
100.8807305877373
 20
127.8027915271048
 10
103.7129454545577
 20
127.8027915271048
 10
104.9352661390825
 20
127.8027915271048
 10
108.0151835347002
 20
127.8827177950895
 10
110.2045431598849
 20
130.5926316915021
 10
111.7417457794874
 20
132.4984597712065
 10
113.155269389579
 20
134.475256864725
 10
115.0562743324223
 20
140.9489400617108
 10
116.6361961642235
 20
146.3680788349845
 10
117.7282921534974
 20
149.8639917848761
 10
117.6480213757369
 20
151.8595646611754
 10
117.6480213757369
 20
151.8595646611754
 10
117.6480213757369
 20
151.8595646611754
 10
117.6480213757369
 20
151.8595646611754
 10
117.13229024137
 20
155.18150017429
 10
114.7162431837115
 20
155.886194920681
 10
113.3351034925446
 20
155.886194920681
 10
111.9829026225447
 20
155.886194920681
 10
108.3414342923792
 20
156.1251124501957
 10
106.2595617172429
 20
153.4105476718098
 97
        0
 75
     2
 76
     1
 98
        0
  0
ENDBLK
  5
3C8
330
3BD
100
AcDbEntity
  8
0
100
AcDbBlockEnd
  0
BLOCK
  5
11F1
330
11F0
100
AcDbEntity
  8
0
100
AcDbBlockBegin
  2
BLOCK_2
 70
     0
 10
0.0
 20
0.0
 30
0.0
  3
BLOCK_2
  1
BLOCK_2
  0
ENDBLK
  5
11F2
330
11F0
100
AcDbEntity
  8
0
100
AcDbBlockEnd
  0
BLOCK
  5
29AC
330
29AB
100
AcDbEntity
  8
0
100
AcDbBlockBegin
  2
*D24
 70
     1
 10
0.0
 20
0.0
 30
0.0
  3
*D24
  1

  0
LINE
  5
29AE
330
29AB
100
AcDbEntity
  8
Dim
  6
Continuous
 62
     0
370
    -2
100
AcDbLine
 10
1530.523848038015
 20
1210.620547476412
 30
0.0
 11
1507.666413453032
 21
1210.620547476412
 31
0.0
  0
LINE
  5
29AF
330
29AB
100
AcDbEntity
  8
Dim
  6
Continuous
 62
     0
370
    -2
100
AcDbLine
 10
1530.523848038015
 20
1085.620547476412
 30
0.0
 11
1507.666413453032
 21
1085.620547476412
 31
0.0
  0
LINE
  5
29B0
330
29AB
100
AcDbEntity
  8
Dim
  6
Continuous
 62
     0
370
    -2
100
AcDbLine
 10
1507.666413453032
 20
1210.620547476412
 30
0.0
 11
1507.666413453032
 21
1381.046126990605
 31
0.0
  0
LINE
  5
29B1
330
29AB
100
AcDbEntity
  8
Dim
  6
Continuous
 62
     0
370
    -2
100
AcDbLine
 10
1507.666413453032
 20
1201.620547476412
 30
0.0
 11
1507.666413453032
 21
1094.620547476412
 31
0.0
  0
LINE
  5
29B2
330
29AB
100
AcDbEntity
  8
Dim
  6
Continuous
 62
     0
370
    -2
100
AcDbLine
 10
1507.666413453032
 20
1201.620547476412
 30
0.0
 11
1507.666413453032
 21
1192.620547476412
 31
0.0
  0
INSERT
  5
29B3
330
29AB
100
AcDbEntity
  8
Dim
 62
     0
370
    -2
100
AcDbBlockReference
  2
_DOT
 10
1507.666413453032
 20
1210.620547476412
 30
0.0
 41
9.0
 42
9.0
 43
9.0
 50
90.0
  0
INSERT
  5
29B4
330
29AB
100
AcDbEntity
  8
Dim
 62
     0
370
    -2
100
AcDbBlockReference
  2
_DOT
 10
1507.666413453032
 20
1085.620547476412
 30
0.0
 41
9.0
 42
9.0
 43
9.0
 50
270.0
  0
MTEXT
  5
29B5
330
29AB
100
AcDbEntity
  8
Dim
  6
Continuous
 62
     0
100
AcDbMText
 10
1483.404633156515
 20
1304.833337233508
 30
0.0
 40
24.4326171875
 41
0.0
 46
0.0
 71
     5
 72
     1
  1
\A1;125(深さ)
  7
ＭＳ ゴシック
 11
0.0
 21
1.0
 31
0.0
 73
     1
 44
1.0
  0
POINT
  5
29B6
330
29AB
100
AcDbEntity
  8
Defpoints
 62
     0
100
AcDbPoint
 10
1505.523848038015
 20
1210.620547476412
 30
0.0
  0
POINT
  5
29B7
330
29AB
100
AcDbEntity
  8
Defpoints
 62
     0
100
AcDbPoint
 10
1505.523848038015
 20
1085.620547476412
 30
0.0
  0
POINT
  5
29B8
330
29AB
100
AcDbEntity
  8
Defpoints
 62
     0
100
AcDbPoint
 10
1507.666413453032
 20
1085.620547476412
 30
0.0
  0
ENDBLK
  5
29AD
330
29AB
100
AcDbEntity
  8
0
100
AcDbBlockEnd
  0
BLOCK
  5
29F5
330
29F4
100
AcDbEntity
  8
0
100
AcDbBlockBegin
  2
*D25
 70
     1
 10
0.0
 20
0.0
 30
0.0
  3
*D25
  1

  0
LINE
  5
29F7
330
29F4
100
AcDbEntity
  8
Dim
  6
Continuous
 62
     0
370
    -2
100
AcDbLine
 10
755.92754130302
 20
2031.897582459381
 30
0.0
 11
755.92754130302
 21
2281.615497600225
 31
0.0
  0
LINE
  5
29F8
330
29F4
100
AcDbEntity
  8
Dim
  6
Continuous
 62
     0
370
    -2
100
AcDbLine
 10
405.92754130302
 20
2031.897582459381
 30
0.0
 11
405.92754130302
 21
2281.615497600225
 31
0.0
  0
LINE
  5
29F9
330
29F4
100
AcDbEntity
  8
Dim
  6
Continuous
 62
     0
370
    -2
100
AcDbLine
 10
746.92754130302
 20
2281.615497600225
 30
0.0
 11
414.92754130302
 21
2281.615497600225
 31
0.0
  0
INSERT
  5
29FA
330
29F4
100
AcDbEntity
  8
Dim
 62
     0
370
    -2
100
AcDbBlockReference
  2
_DOT
 10
755.92754130302
 20
2281.615497600225
 30
0.0
 41
9.0
 42
9.0
 43
9.0
  0
INSERT
  5
29FB
330
29F4
100
AcDbEntity
  8
Dim
 62
     0
370
    -2
100
AcDbBlockReference
  2
_DOT
 10
405.92754130302
 20
2281.615497600225
 30
0.0
 41
9.0
 42
9.0
 43
9.0
 50
180.0
  0
MTEXT
  5
29FC
330
29F4
100
AcDbEntity
  8
Dim
  6
Continuous
 62
     0
100
AcDbMText
 10
580.92754130302
 20
2303.83638902826
 30
0.0
 40
24.4326171875
 41
0.0
 46
0.0
 71
     5
 72
     1
  1
\A1;%%C350
  7
ＭＳ ゴシック
 73
     1
 44
1.0
  0
POINT
  5
29FD
330
29F4
100
AcDbEntity
  8
Defpoints
 62
     0
100
AcDbPoint
 10
755.92754130302
 20
2006.897582459381
 30
0.0
  0
POINT
  5
29FE
330
29F4
100
AcDbEntity
  8
Defpoints
 62
     0
100
AcDbPoint
 10
405.92754130302
 20
2006.897582459381
 30
0.0
  0
POINT
  5
29FF
330
29F4
100
AcDbEntity
  8
Defpoints
 62
     0
100
AcDbPoint
 10
405.92754130302
 20
2281.615497600225
 30
0.0
  0
ENDBLK
  5
29F6
330
29F4
100
AcDbEntity
  8
0
100
AcDbBlockEnd
  0
BLOCK
  5
2A01
330
2A00
100
AcDbEntity
  8
0
100
AcDbBlockBegin
  2
*D26
 70
     1
 10
0.0
 20
0.0
 30
0.0
  3
*D26
  1

  0
LINE
  5
2A03
330
2A00
100
AcDbEntity
  8
Dim
  6
Continuous
 62
     0
370
    -2
100
AcDbLine
 10
476.8307598742749
 20
1034.010486865128
 30
0.0
 11
476.8307598742749
 21
979.3390431362159
 31
0.0
  0
LINE
  5
2A04
330
2A00
100
AcDbEntity
  8
Dim
  6
Continuous
 62
     0
370
    -2
100
AcDbLine
 10
691.8307598742749
 20
1034.010486865128
 30
0.0
 11
691.8307598742749
 21
979.3390431362159
 31
0.0
  0
LINE
  5
2A05
330
2A00
100
AcDbEntity
  8
Dim
  6
Continuous
 62
     0
370
    -2
100
AcDbLine
 10
485.8307598742749
 20
979.3390431362159
 30
0.0
 11
682.8307598742749
 21
979.3390431362159
 31
0.0
  0
INSERT
  5
2A06
330
2A00
100
AcDbEntity
  8
Dim
 62
     0
370
    -2
100
AcDbBlockReference
  2
_DOT
 10
476.8307598742749
 20
979.3390431362159
 30
0.0
 41
9.0
 42
9.0
 43
9.0
 50
180.0
  0
INSERT
  5
2A07
330
2A00
100
AcDbEntity
  8
Dim
 62
     0
370
    -2
100
AcDbBlockReference
  2
_DOT
 10
691.8307598742749
 20
979.3390431362159
 30
0.0
 41
9.0
 42
9.0
 43
9.0
  0
MTEXT
  5
2A08
330
2A00
100
AcDbEntity
  8
Dim
  6
Continuous
 62
     0
100
AcDbMText
 10
584.3307598742749
 20
1001.559934564251
 30
0.0
 40
24.4326171875
 41
0.0
 46
0.0
 71
     5
 72
     1
  1
\A1;215
  7
ＭＳ ゴシック
 73
     1
 44
1.0
  0
POINT
  5
2A09
330
2A00
100
AcDbEntity
  8
Defpoints
 62
     0
100
AcDbPoint
 10
476.8307598742749
 20
1059.010486865128
 30
0.0
  0
POINT
  5
2A0A
330
2A00
100
AcDbEntity
  8
Defpoints
 62
     0
100
AcDbPoint
 10
691.8307598742749
 20
1059.010486865128
 30
0.0
  0
POINT
  5
2A0B
330
2A00
100
AcDbEntity
  8
Defpoints
 62
     0
100
AcDbPoint
 10
691.8307598742749
 20
979.3390431362159
 30
0.0
  0
ENDBLK
  5
2A02
330
2A00
100
AcDbEntity
  8
0
100
AcDbBlockEnd
  0
BLOCK
  5
2A0D
330
2A0C
100
AcDbEntity
  8
0
100
AcDbBlockBegin
  2
*D27
 70
     1
 10
0.0
 20
0.0
 30
0.0
  3
*D27
  1

  0
LINE
  5
2A0F
330
2A0C
100
AcDbEntity
  8
Dim
  6
Continuous
 62
     0
370
    -2
100
AcDbLine
 10
779.7888771837033
 20
1210.536992806717
 30
0.0
 11
868.5028968290876
 21
1210.536992806717
 31
0.0
  0
LINE
  5
2A10
330
2A0C
100
AcDbEntity
  8
Dim
  6
Continuous
 62
     0
370
    -2
100
AcDbLine
 10
721.9452808793521
 20
1060.536992806717
 30
0.0
 11
868.5028968290876
 21
1060.536992806717
 31
0.0
  0
LINE
  5
2A11
330
2A0C
100
AcDbEntity
  8
Dim
  6
Continuous
 62
     0
370
    -2
100
AcDbLine
 10
868.5028968290876
 20
1201.536992806717
 30
0.0
 11
868.5028968290876
 21
1069.536992806717
 31
0.0
  0
INSERT
  5
2A12
330
2A0C
100
AcDbEntity
  8
Dim
 62
     0
370
    -2
100
AcDbBlockReference
  2
_DOT
 10
868.5028968290876
 20
1210.536992806717
 30
0.0
 41
9.0
 42
9.0
 43
9.0
 50
90.0
  0
INSERT
  5
2A13
330
2A0C
100
AcDbEntity
  8
Dim
 62
     0
370
    -2
100
AcDbBlockReference
  2
_DOT
 10
868.5028968290876
 20
1060.536992806717
 30
0.0
 41
9.0
 42
9.0
 43
9.0
 50
270.0
  0
MTEXT
  5
2A14
330
2A0C
100
AcDbEntity
  8
Dim
  6
Continuous
 62
     0
100
AcDbMText
 10
846.2820054010522
 20
1135.536992806717
 30
0.0
 40
24.4326171875
 41
0.0
 46
0.0
 71
     5
 72
     1
  1
\A1;150
  7
ＭＳ ゴシック
 11
0.0
 21
1.0
 31
0.0
 73
     1
 44
1.0
  0
POINT
  5
2A15
330
2A0C
100
AcDbEntity
  8
Defpoints
 62
     0
100
AcDbPoint
 10
754.7888771837033
 20
1210.536992806717
 30
0.0
  0
POINT
  5
2A16
330
2A0C
100
AcDbEntity
  8
Defpoints
 62
     0
100
AcDbPoint
 10
696.9452808793521
 20
1060.536992806717
 30
0.0
  0
POINT
  5
2A17
330
2A0C
100
AcDbEntity
  8
Defpoints
 62
     0
100
AcDbPoint
 10
868.5028968290876
 20
1060.536992806717
 30
0.0
  0
ENDBLK
  5
2A0E
330
2A0C
100
AcDbEntity
  8
0
100
AcDbBlockEnd
  0
BLOCK
  5
2A41
330
2A40
100
AcDbEntity
  8
0
100
AcDbBlockBegin
  2
*D29
 70
     1
 10
0.0
 20
0.0
 30
0.0
  3
*D29
  1

  0
LINE
  5
2A43
330
2A40
100
AcDbEntity
  8
Dim
  6
Continuous
 62
     0
370
    -2
100
AcDbLine
 10
1501.79619310149
 20
954.2482288497847
 30
0.0
 11
1501.79619310149
 21
887.4011141920306
 31
0.0
  0
LINE
  5
2A44
330
2A40
100
AcDbEntity
  8
Dim
  6
Continuous
 62
     0
370
    -2
100
AcDbLine
 10
1676.79619310149
 20
1168.919424785869
 30
0.0
 11
1676.79619310149
 21
887.4011141920306
 31
0.0
  0
LINE
  5
2A45
330
2A40
100
AcDbEntity
  8
Dim
  6
Continuous
 62
     0
370
    -2
100
AcDbLine
 10
1510.79619310149
 20
887.4011141920306
 30
0.0
 11
1667.79619310149
 21
887.4011141920306
 31
0.0
  0
INSERT
  5
2A46
330
2A40
100
AcDbEntity
  8
Dim
 62
     0
370
    -2
100
AcDbBlockReference
  2
_DOT
 10
1501.79619310149
 20
887.4011141920306
 30
0.0
 41
9.0
 42
9.0
 43
9.0
 50
180.0
  0
INSERT
  5
2A47
330
2A40
100
AcDbEntity
  8
Dim
 62
     0
370
    -2
100
AcDbBlockReference
  2
_DOT
 10
1676.79619310149
 20
887.4011141920306
 30
0.0
 41
9.0
 42
9.0
 43
9.0
  0
MTEXT
  5
2A48
330
2A40
100
AcDbEntity
  8
Dim
  6
Continuous
 62
     0
100
AcDbMText
 10
1589.29619310149
 20
909.6220056200661
 30
0.0
 40
24.4326171875
 41
0.0
 46
0.0
 71
     5
 72
     1
  1
\A1;175
  7
ＭＳ ゴシック
 73
     1
 44
1.0
  0
POINT
  5
2A49
330
2A40
100
AcDbEntity
  8
Defpoints
 62
     0
100
AcDbPoint
 10
1501.79619310149
 20
979.2482288497847
 30
0.0
  0
POINT
  5
2A4A
330
2A40
100
AcDbEntity
  8
Defpoints
 62
     0
100
AcDbPoint
 10
1676.79619310149
 20
1193.919424785869
 30
0.0
  0
POINT
  5
2A4B
330
2A40
100
AcDbEntity
  8
Defpoints
 62
     0
100
AcDbPoint
 10
1676.79619310149
 20
887.4011141920306
 30
0.0
  0
ENDBLK
  5
2A42
330
2A40
100
AcDbEntity
  8
0
100
AcDbBlockEnd
  0
BLOCK
  5
2A4D
330
2A4C
100
AcDbEntity
  8
0
100
AcDbBlockBegin
  2
*D30
 70
     1
 10
0.0
 20
0.0
 30
0.0
  3
*D30
  1

  0
LINE
  5
2A4F
330
2A4C
100
AcDbEntity
  8
Dim
  6
Continuous
 62
     0
370
    -2
100
AcDbLine
 10
1305.767147306618
 20
1210.446178520286
 30
0.0
 11
1246.18542502011
 21
1210.446178520286
 31
0.0
  0
LINE
  5
2A50
330
2A4C
100
AcDbEntity
  8
Dim
  6
Continuous
 62
     0
370
    -2
100
AcDbLine
 10
1321.761768241476
 20
1135.446178520286
 30
0.0
 11
1246.18542502011
 21
1135.446178520286
 31
0.0
  0
LINE
  5
2A51
330
2A4C
100
AcDbEntity
  8
Dim
  6
Continuous
 62
     0
370
    -2
100
AcDbLine
 10
1246.18542502011
 20
1201.446178520286
 30
0.0
 11
1246.18542502011
 21
1144.446178520286
 31
0.0
  0
INSERT
  5
2A52
330
2A4C
100
AcDbEntity
  8
Dim
 62
     0
370
    -2
100
AcDbBlockReference
  2
_DOT
 10
1246.18542502011
 20
1210.446178520286
 30
0.0
 41
9.0
 42
9.0
 43
9.0
 50
90.0
  0
INSERT
  5
2A53
330
2A4C
100
AcDbEntity
  8
Dim
 62
     0
370
    -2
100
AcDbBlockReference
  2
_DOT
 10
1246.18542502011
 20
1135.446178520286
 30
0.0
 41
9.0
 42
9.0
 43
9.0
 50
270.0
  0
MTEXT
  5
2A54
330
2A4C
100
AcDbEntity
  8
Dim
  6
Continuous
 62
     0
100
AcDbMText
 10
1223.964533592074
 20
1172.946178520286
 30
0.0
 40
24.4326171875
 41
0.0
 46
0.0
 71
     5
 72
     1
  1
\A1;75
  7
ＭＳ ゴシック
 11
0.0
 21
1.0
 31
0.0
 73
     1
 44
1.0
  0
POINT
  5
2A55
330
2A4C
100
AcDbEntity
  8
Defpoints
 62
     0
100
AcDbPoint
 10
1330.767147306618
 20
1210.446178520286
 30
0.0
  0
POINT
  5
2A56
330
2A4C
100
AcDbEntity
  8
Defpoints
 62
     0
100
AcDbPoint
 10
1346.761768241476
 20
1135.446178520286
 30
0.0
  0
POINT
  5
2A57
330
2A4C
100
AcDbEntity
  8
Defpoints
 62
     0
100
AcDbPoint
 10
1246.18542502011
 20
1135.446178520286
 30
0.0
  0
ENDBLK
  5
2A4E
330
2A4C
100
AcDbEntity
  8
0
100
AcDbBlockEnd
  0
BLOCK
  5
2A59
330
2A58
100
AcDbEntity
  8
0
100
AcDbBlockBegin
  2
*D31
 70
     1
 10
0.0
 20
0.0
 30
0.0
  3
*D31
  1

  0
LINE
  5
2A5B
330
2A58
100
AcDbEntity
  8
Dim
  6
Continuous
 62
     0
370
    -2
100
AcDbLine
 10
1356.576074794752
 20
1959.585876744915
 30
0.0
 11
1356.576074794752
 21
1697.141553256426
 31
0.0
  0
LINE
  5
2A5C
330
2A58
100
AcDbEntity
  8
Dim
  6
Continuous
 62
     0
370
    -2
100
AcDbLine
 10
1647.016311685688
 20
1959.585876744915
 30
0.0
 11
1647.016311685688
 21
1697.141553256426
 31
0.0
  0
LINE
  5
2A5D
330
2A58
100
AcDbEntity
  8
Dim
  6
Continuous
 62
     0
370
    -2
100
AcDbLine
 10
1365.576074794752
 20
1697.141553256426
 30
0.0
 11
1638.016311685688
 21
1697.141553256426
 31
0.0
  0
INSERT
  5
2A5E
330
2A58
100
AcDbEntity
  8
Dim
 62
     0
370
    -2
100
AcDbBlockReference
  2
_DOT
 10
1356.576074794752
 20
1697.141553256426
 30
0.0
 41
9.0
 42
9.0
 43
9.0
 50
180.0
  0
INSERT
  5
2A5F
330
2A58
100
AcDbEntity
  8
Dim
 62
     0
370
    -2
100
AcDbBlockReference
  2
_DOT
 10
1647.016311685688
 20
1697.141553256426
 30
0.0
 41
9.0
 42
9.0
 43
9.0
  0
MTEXT
  5
2A60
330
2A58
100
AcDbEntity
  8
Dim
  6
Continuous
 62
     0
100
AcDbMText
 10
1501.79619324022
 20
1719.362444684461
 30
0.0
 40
24.4326171875
 41
0.0
 46
0.0
 71
     5
 72
     1
  1
\A1;%%C295
  7
ＭＳ ゴシック
 73
     1
 44
1.0
  0
POINT
  5
2A61
330
2A58
100
AcDbEntity
  8
Defpoints
 62
     0
100
AcDbPoint
 10
1356.576074794752
 20
1984.585876744915
 30
0.0
  0
POINT
  5
2A62
330
2A58
100
AcDbEntity
  8
Defpoints
 62
     0
100
AcDbPoint
 10
1647.016311685688
 20
1984.585876744915
 30
0.0
  0
POINT
  5
2A63
330
2A58
100
AcDbEntity
  8
Defpoints
 62
     0
100
AcDbPoint
 10
1647.016311685688
 20
1697.141553256426
 30
0.0
  0
ENDBLK
  5
2A5A
330
2A58
100
AcDbEntity
  8
0
100
AcDbBlockEnd
  0
BLOCK
  5
2A65
330
2A64
100
AcDbEntity
  8
0
100
AcDbBlockBegin
  2
*D32
 70
     1
 10
0.0
 20
0.0
 30
0.0
  3
*D32
  1

  0
LINE
  5
2A67
330
2A64
100
AcDbEntity
  8
Dim
  6
Continuous
 62
     0
370
    -2
100
AcDbLine
 10
1697.825238896355
 20
1210.446178520286
 30
0.0
 11
1790.435488627793
 21
1210.446178520286
 31
0.0
  0
LINE
  5
2A68
330
2A64
100
AcDbEntity
  8
Dim
  6
Continuous
 62
     0
370
    -2
100
AcDbLine
 10
1552.23512320608
 20
1065.446178520286
 30
0.0
 11
1790.435488627793
 21
1065.446178520286
 31
0.0
  0
LINE
  5
2A69
330
2A64
100
AcDbEntity
  8
Dim
  6
Continuous
 62
     0
370
    -2
100
AcDbLine
 10
1790.435488627793
 20
1201.446178520286
 30
0.0
 11
1790.435488627793
 21
1074.446178520286
 31
0.0
  0
INSERT
  5
2A6A
330
2A64
100
AcDbEntity
  8
Dim
 62
     0
370
    -2
100
AcDbBlockReference
  2
_DOT
 10
1790.435488627793
 20
1210.446178520286
 30
0.0
 41
9.0
 42
9.0
 43
9.0
 50
90.0
  0
INSERT
  5
2A6B
330
2A64
100
AcDbEntity
  8
Dim
 62
     0
370
    -2
100
AcDbBlockReference
  2
_DOT
 10
1790.435488627793
 20
1065.446178520286
 30
0.0
 41
9.0
 42
9.0
 43
9.0
 50
270.0
  0
MTEXT
  5
2A6C
330
2A64
100
AcDbEntity
  8
Dim
  6
Continuous
 62
     0
100
AcDbMText
 10
1768.214597199758
 20
1137.946178520286
 30
0.0
 40
24.4326171875
 41
0.0
 46
0.0
 71
     5
 72
     1
  1
\A1;145
  7
ＭＳ ゴシック
 11
0.0
 21
1.0
 31
0.0
 73
     1
 44
1.0
  0
POINT
  5
2A6D
330
2A64
100
AcDbEntity
  8
Defpoints
 62
     0
100
AcDbPoint
 10
1672.825238896355
 20
1210.446178520286
 30
0.0
  0
POINT
  5
2A6E
330
2A64
100
AcDbEntity
  8
Defpoints
 62
     0
100
AcDbPoint
 10
1527.23512320608
 20
1065.446178520286
 30
0.0
  0
POINT
  5
2A6F
330
2A64
100
AcDbEntity
  8
Defpoints
 62
     0
100
AcDbPoint
 10
1790.435488627793
 20
1065.446178520286
 30
0.0
  0
ENDBLK
  5
2A66
330
2A64
100
AcDbEntity
  8
0
100
AcDbBlockEnd
  0
BLOCK
  5
2A71
330
2A70
100
AcDbEntity
  8
0
100
AcDbBlockBegin
  2
*D33
 70
     1
 10
0.0
 20
0.0
 30
0.0
  3
*D33
  1

  0
LINE
  5
2A73
330
2A70
100
AcDbEntity
  8
Dim
  6
Continuous
 62
     0
370
    -2
100
AcDbLine
 10
1394.29619310149
 20
1034.857050281434
 30
0.0
 11
1394.29619310149
 21
979.2482288497847
 31
0.0
  0
LINE
  5
2A74
330
2A70
100
AcDbEntity
  8
Dim
  6
Continuous
 62
     0
370
    -2
100
AcDbLine
 10
1609.29619310149
 20
1034.857050281434
 30
0.0
 11
1609.29619310149
 21
979.2482288497847
 31
0.0
  0
LINE
  5
2A75
330
2A70
100
AcDbEntity
  8
Dim
  6
Continuous
 62
     0
370
    -2
100
AcDbLine
 10
1403.29619310149
 20
979.2482288497847
 30
0.0
 11
1600.29619310149
 21
979.2482288497847
 31
0.0
  0
INSERT
  5
2A76
330
2A70
100
AcDbEntity
  8
Dim
 62
     0
370
    -2
100
AcDbBlockReference
  2
_DOT
 10
1394.29619310149
 20
979.2482288497847
 30
0.0
 41
9.0
 42
9.0
 43
9.0
 50
180.0
  0
INSERT
  5
2A77
330
2A70
100
AcDbEntity
  8
Dim
 62
     0
370
    -2
100
AcDbBlockReference
  2
_DOT
 10
1609.29619310149
 20
979.2482288497847
 30
0.0
 41
9.0
 42
9.0
 43
9.0
  0
MTEXT
  5
2A78
330
2A70
100
AcDbEntity
  8
Dim
  6
Continuous
 62
     0
100
AcDbMText
 10
1501.79619310149
 20
1001.46912027782
 30
0.0
 40
24.4326171875
 41
0.0
 46
0.0
 71
     5
 72
     1
  1
\A1;215
  7
ＭＳ ゴシック
 73
     1
 44
1.0
  0
POINT
  5
2A79
330
2A70
100
AcDbEntity
  8
Defpoints
 62
     0
100
AcDbPoint
 10
1394.29619310149
 20
1059.857050281434
 30
0.0
  0
POINT
  5
2A7A
330
2A70
100
AcDbEntity
  8
Defpoints
 62
     0
100
AcDbPoint
 10
1609.29619310149
 20
1059.857050281434
 30
0.0
  0
POINT
  5
2A7B
330
2A70
100
AcDbEntity
  8
Defpoints
 62
     0
100
AcDbPoint
 10
1609.29619310149
 20
979.2482288497847
 30
0.0
  0
ENDBLK
  5
2A72
330
2A70
100
AcDbEntity
  8
0
100
AcDbBlockEnd
  0
BLOCK
  5
2AA0
330
2A9F
100
AcDbEntity
  8
0
100
AcDbBlockBegin
  2
*D34
 70
     1
 10
0.0
 20
0.0
 30
0.0
  3
*D34
  1

  0
LINE
  5
2AA2
330
2A9F
100
AcDbEntity
  8
Dim
  6
Continuous
 62
     0
370
    -2
100
AcDbLine
 10
420.9275411776334
 20
1931.446439506123
 30
0.0
 11
420.9275411776334
 21
1684.661796693095
 31
0.0
  0
LINE
  5
2AA3
330
2A9F
100
AcDbEntity
  8
Dim
  6
Continuous
 62
     0
370
    -2
100
AcDbLine
 10
740.9275411776334
 20
1931.446439506123
 30
0.0
 11
740.9275411776334
 21
1684.661796693095
 31
0.0
  0
LINE
  5
2AA4
330
2A9F
100
AcDbEntity
  8
Dim
  6
Continuous
 62
     0
370
    -2
100
AcDbLine
 10
429.9275411776334
 20
1684.661796693095
 30
0.0
 11
731.9275411776334
 21
1684.661796693095
 31
0.0
  0
INSERT
  5
2AA5
330
2A9F
100
AcDbEntity
  8
Dim
 62
     0
370
    -2
100
AcDbBlockReference
  2
_DOT
 10
420.9275411776334
 20
1684.661796693095
 30
0.0
 41
9.0
 42
9.0
 43
9.0
 50
180.0
  0
INSERT
  5
2AA6
330
2A9F
100
AcDbEntity
  8
Dim
 62
     0
370
    -2
100
AcDbBlockReference
  2
_DOT
 10
740.9275411776334
 20
1684.661796693095
 30
0.0
 41
9.0
 42
9.0
 43
9.0
  0
MTEXT
  5
2AA7
330
2A9F
100
AcDbEntity
  8
Dim
  6
Continuous
 62
     0
100
AcDbMText
 10
580.9275411776334
 20
1706.882688121131
 30
0.0
 40
24.4326171875
 41
0.0
 46
0.0
 71
     5
 72
     1
  1
\A1;320
  7
ＭＳ ゴシック
 73
     1
 44
1.0
  0
POINT
  5
2AA8
330
2A9F
100
AcDbEntity
  8
Defpoints
 62
     0
100
AcDbPoint
 10
420.9275411776334
 20
1956.446439506123
 30
0.0
  0
POINT
  5
2AA9
330
2A9F
100
AcDbEntity
  8
Defpoints
 62
     0
100
AcDbPoint
 10
740.9275411776334
 20
1956.446439506123
 30
0.0
  0
POINT
  5
2AAA
330
2A9F
100
AcDbEntity
  8
Defpoints
 62
     0
100
AcDbPoint
 10
740.9275411776334
 20
1684.661796693095
 30
0.0
  0
ENDBLK
  5
2AA1
330
2A9F
100
AcDbEntity
  8
0
100
AcDbBlockEnd
  0
ENDSEC
  0
SECTION
  2
ENTITIES
  0
LINE
  5
179
330
A
100
AcDbEntity
  8
template
390
1D
100
AcDbLine
 10
2025.0
 20
271.4388797103189
 30
0.0
 11
75.00000000000023
 21
271.4388797103189
 31
0.0
  0
LINE
  5
17B
330
A
100
AcDbEntity
  8
template
390
1D
100
AcDbLine
 10
2025.0
 20
356.4388797103188
 30
0.0
 11
75.00000000000023
 21
356.4388797103188
 31
0.0
  0
LINE
  5
17C
330
A
100
AcDbEntity
  8
template
390
1D
100
AcDbLine
 10
2025.000000000482
 20
186.4388797103189
 30
0.0
 11
1272.000000000482
 21
186.4388797103189
 31
0.0
  0
LINE
  5
182
330
A
100
AcDbEntity
  8
template
390
1D
100
AcDbLine
 10
1774.000000000742
 20
186.4388797103189
 30
0.0
 11
1774.000000000742
 21
271.4388797103189
 31
0.0
  0
LINE
  5
184
330
A
100
AcDbEntity
  8
template
390
1D
100
AcDbLine
 10
1523.000000000742
 20
186.4388797103189
 30
0.0
 11
1523.000000000742
 21
271.4388797103189
 31
0.0
  0
LINE
  5
188
330
A
100
AcDbEntity
  8
template
390
1D
100
AcDbLine
 10
1272.000000000742
 20
101.4388797103188
 30
0.0
 11
1272.000000000742
 21
356.4388797103188
 31
0.0
  0
INSERT
  5
1273
330
A
100
AcDbEntity
  8
0
 62
     7
100
AcDbBlockReference
  2
BLOCK_2
 10
591.2037060744204
 20
943.564364962162
 30
0.0
  0
INSERT
  5
127B
330
A
100
AcDbEntity
  8
0
 62
     7
100
AcDbBlockReference
  2
BLOCK_2
 10
1291.863324028138
 20
1038.76992320659
 30
0.0
  0
INSERT
  5
127C
330
A
100
AcDbEntity
  8
0
 62
     7
100
AcDbBlockReference
  2
BLOCK_2
 10
652.1648429406905
 20
1595.641631888467
 30
0.0
  0
CIRCLE
  5
142C
330
A
100
AcDbEntity
  8
Dim
  6
Continuous
100
AcDbCircle
 10
1366.841726484681
 20
1758.85027442579
 30
0.0
 40
0.0
  0
CIRCLE
  5
2859
330
A
100
AcDbEntity
  8
MODEL
100
AcDbCircle
 10
580.9275411776334
 20
1984.585876744915
 30
0.0
 40
160.0
  0
CIRCLE
  5
285A
330
A
100
AcDbEntity
  8
MODEL
100
AcDbCircle
 10
580.9275411776334
 20
1984.585876744915
 30
0.0
 40
40.93091461041922
  0
CIRCLE
  5
285B
330
A
100
AcDbEntity
  8
MODEL
100
AcDbCircle
 10
580.9275411776334
 20
1984.585876744915
 30
0.0
 40
23.13991284896815
  0
CIRCLE
  5
285C
330
A
100
AcDbEntity
  8
MODEL
100
AcDbCircle
 10
580.9275411776334
 20
1984.585876744915
 30
0.0
 40
21.95328793119563
  0
CIRCLE
  5
285D
330
A
100
AcDbEntity
  8
MODEL
100
AcDbCircle
 10
580.9275411776334
 20
1984.585876744915
 30
0.0
 40
21.9528310166648
  0
CIRCLE
  5
285E
102
{ACAD_REACTORS
330
2AAE
102
}
330
A
100
AcDbEntity
  8
MODEL
100
AcDbCircle
 10
580.9275411776334
 20
1984.585876744915
 30
0.0
 40
175.0166891811284
  0
LINE
  5
285F
330
A
100
AcDbEntity
  8
MODEL
100
AcDbLine
 10
493.488376254239
 20
1060.701845746033
 30
0.0
 11
481.888606969123
 21
1060.701845746033
 31
0.0
  0
LINE
  5
286A
330
A
100
AcDbEntity
  8
MODEL
100
AcDbLine
 10
498.6984084631272
 20
1059.701845746033
 30
0.0
 11
495.7244442317328
 21
1059.701845746033
 31
0.0
  0
ARC
  5
286B
330
A
100
AcDbEntity
  8
MODEL
100
AcDbCircle
 10
495.7244442317328
 20
1062.701845746033
 30
0.0
 40
3.0
100
AcDbArc
 50
221.8103148957795
 51
270.0
  0
LINE
  5
286E
330
A
100
AcDbEntity
  8
MODEL
100
AcDbLine
 10
481.888606969123
 20
1060.701845746033
 30
0.0
 11
475.6211822254859
 21
1060.701845746033
 31
0.0
  0
ARC
  5
286F
330
A
100
AcDbEntity
  8
MODEL
100
AcDbCircle
 10
475.6211822254859
 20
1064.701845746033
 30
0.0
 40
4.0
100
AcDbArc
 50
212.2734764520976
 51
270.0
  0
LINE
  5
2871
330
A
100
AcDbEntity
  8
MODEL
100
AcDbLine
 10
721.3472711893974
 20
1135.701845746032
 30
0.0
 11
422.9114957439247
 21
1135.701845746033
 31
0.0
  0
ARC
  5
2872
330
A
100
AcDbEntity
  8
MODEL
100
AcDbCircle
 10
422.9114957438155
 20
1139.701845746033
 30
0.0
 40
4.0
100
AcDbArc
 50
197.5910840899982
 51
270.0000000020844
  0
ARC
  5
2873
330
A
100
AcDbEntity
  8
MODEL
100
AcDbCircle
 10
705.0698577023882
 20
1229.159426625801
 30
0.0
 40
300.0
100
AcDbArc
 50
184.3624081115998
 51
197.5910839611547
  0
ARC
  5
2875
330
A
100
AcDbEntity
  8
MODEL
100
AcDbCircle
 10
692.0715135576479
 20
1201.395861950826
 30
0.0
 40
260.0
100
AcDbArc
 50
194.6355235996018
 51
212.2734764519718
  0
LINE
  5
288E
330
A
100
AcDbEntity
  8
MODEL
100
AcDbLine
 10
668.3667063518092
 20
1060.701845746033
 30
0.0
 11
679.966475636918
 21
1060.701845746033
 31
0.0
  0
LINE
  5
2899
330
A
100
AcDbEntity
  8
MODEL
100
AcDbLine
 10
663.156674142921
 20
1059.701845746033
 30
0.0
 11
666.1306383743081
 21
1059.701845746033
 31
0.0
  0
ARC
  5
289A
330
A
100
AcDbEntity
  8
MODEL
100
AcDbCircle
 10
666.1306383743081
 20
1062.701845746033
 30
0.0
 40
3.0
100
AcDbArc
 50
270.0
 51
318.1896851042205
  0
LINE
  5
289D
330
A
100
AcDbEntity
  8
MODEL
100
AcDbLine
 10
679.966475636918
 20
1060.701845746033
 30
0.0
 11
686.2339003805623
 21
1060.701845746033
 31
0.0
  0
ARC
  5
289E
330
A
100
AcDbEntity
  8
MODEL
100
AcDbCircle
 10
686.2339003805623
 20
1064.701845746033
 30
0.0
 40
4.0
100
AcDbArc
 50
270.0
 51
327.7265235478844
  0
LINE
  5
28A0
330
A
100
AcDbEntity
  8
MODEL
100
AcDbLine
 10
733.9145138338076
 20
1135.701845746033
 30
0.0
 11
738.9435868621163
 21
1135.701845746033
 31
0.0
  0
ARC
  5
28A1
330
A
100
AcDbEntity
  8
MODEL
100
AcDbCircle
 10
738.9435868622254
 20
1139.701845746033
 30
0.0
 40
4.0
100
AcDbArc
 50
269.9999999979156
 51
342.4089159099812
  0
ARC
  5
28A2
330
A
100
AcDbEntity
  8
MODEL
100
AcDbCircle
 10
456.78522490366
 20
1229.159426625801
 30
0.0
 40
300.0
100
AcDbArc
 50
342.4089160388453
 51
355.6375918883999
  0
SPLINE
  5
28A3
330
A
100
AcDbEntity
  8
MODEL
100
AcDbSpline
210
0.0
220
0.0
230
1.0
 70
     8
 71
     3
 72
     8
 73
     4
 74
     0
 42
0.000000001
 43
0.0000000001
 40
0.3631972698678186
 40
0.3631972698678186
 40
0.3631972698678186
 40
0.3631972698678186
 40
1.000000916608586
 40
1.000000916608586
 40
1.000000916608586
 40
1.000000916608586
 10
753.3821471808442
 20
1210.620547476413
 30
0.0
 10
755.1439558017978
 20
1210.6531430902
 30
0.0
 10
756.1265842023968
 20
1209.235337560451
 30
0.0
 10
755.9160868479607
 20
1206.339973686304
 30
0.0
  0
ARC
  5
28A4
330
A
100
AcDbEntity
  8
MODEL
100
AcDbCircle
 10
469.7835690484003
 20
1201.395861950826
 30
0.0
 40
260.0
100
AcDbArc
 50
327.7265235480281
 51
345.3644764003981
  0
LINE
  5
28BD
330
A
100
AcDbEntity
  8
HIDDEN
100
AcDbLine
 10
602.8008776597067
 20
1063.701845746033
 30
0.0
 11
559.0008929184928
 21
1063.701845746033
 31
0.0
  0
LINE
  5
28C2
330
A
100
AcDbEntity
  8
MODEL
100
AcDbLine
 10
498.6984084631272
 20
1059.701845746033
 30
0.0
 11
664.6436562586109
 21
1059.701845746033
 31
0.0
  0
LINE
  5
28C3
330
A
100
AcDbEntity
  8
MODEL
100
AcDbLine
 10
408.3553549381527
 20
1210.620547476413
 30
0.0
 11
753.6279397040239
 21
1210.620547476413
 31
0.0
  0
LINE
  5
28C4
330
A
100
AcDbEntity
  8
MODEL
100
AcDbLine
 10
733.9145138337713
 20
1135.701845746033
 30
0.0
 11
721.3472711893933
 21
1135.701845746033
 31
0.0
  0
LINE
  5
2937
330
A
100
AcDbEntity
  8
HIDDEN
100
AcDbLine
 10
536.7118127983081
 20
1088.160506269144
 30
0.0
 11
625.1432698077347
 21
1088.160506269144
 31
0.0
  0
LINE
  5
2938
330
A
100
AcDbEntity
  8
HIDDEN
100
AcDbLine
 10
547.5022752791933
 20
1084.244235350873
 30
0.0
 11
614.3528073268476
 21
1084.244235350873
 31
0.0
  0
SPLINE
  5
293F
330
A
100
AcDbEntity
  8
HIDDEN
100
AcDbSpline
210
0.0
220
0.0
230
1.0
 70
  1064
 71
     3
 72
    39
 73
    35
 74
    33
 42
0.000000001
 43
0.0000000001
 44
0.0
 40
0.0
 40
0.0
 40
0.0
 40
0.0
 40
0.3939917242370936
 40
1.091976327968011
 40
2.475004574559197
 40
3.884434820495125
 40
5.36771559654707
 40
7.70681869862106
 40
10.05769050109102
 40
12.21877393266464
 40
24.95809011670976
 40
36.41923663190859
 40
47.76189371910885
 40
57.25357210668794
 40
61.42519484463714
 40
73.74276598007508
 40
90.91467970243997
 40
109.057643292459
 40
127.5652943341776
 40
145.2475858310148
 40
159.4231841405689
 40
172.9946330774348
 40
180.3557820940992
 40
185.4081914791869
 40
189.5590929672754
 40
191.5598924811602
 40
194.672309363615
 40
202.4481854735955
 40
206.3929975485355
 40
207.6376789923466
 40
208.4238331049219
 40
209.1228066553736
 40
210.4546583732939
 40
219.3698271302793
 40
219.3698271302793
 40
219.3698271302793
 40
219.3698271302793
 10
408.3998365722714
 20
1210.620547476413
 30
0.0
 10
408.5312433296859
 20
1210.616353560824
 30
0.0
 10
408.8954465847403
 20
1210.604729822904
 30
0.0
 10
409.7072345624152
 20
1210.43252890961
 30
0.0
 10
410.7932938976508
 20
1209.997235777544
 30
0.0
 10
412.0239003111276
 20
1209.272744565823
 30
0.0
 10
413.4575155479002
 20
1208.279422362822
 30
0.0
 10
415.1335660345866
 20
1207.085270073586
 30
0.0
 10
416.9462132456341
 20
1205.695416788767
 30
0.0
 10
421.4152920257835
 20
1202.076173073746
 30
0.0
 10
427.7653145168351
 20
1195.962713828805
 30
0.0
 10
435.477201545803
 20
1186.957151910273
 30
0.0
 10
441.9375944576051
 20
1178.338721493388
 30
0.0
 10
446.6595309751754
 20
1171.468595195276
 30
0.0
 10
451.4325437416418
 20
1164.242112285643
 30
0.0
 10
457.4612686659319
 20
1154.779127901398
 30
0.0
 10
465.8498055708058
 20
1141.293019834575
 30
0.0
 10
476.5216132034136
 20
1126.840222985438
 30
0.0
 10
488.7330582108183
 20
1113.403529964691
 30
0.0
 10
501.7776717612205
 20
1102.714346216276
 30
0.0
 10
514.9353523808462
 20
1095.091041859145
 30
0.0
 10
525.881469935206
 20
1090.85869288146
 30
0.0
 10
534.2509033310932
 20
1088.53738349028
 30
0.0
 10
539.7073982155027
 20
1087.731475279893
 30
0.0
 10
543.3668881142055
 20
1086.835205919987
 30
0.0
 10
546.1107823381192
 20
1085.378180973601
 30
0.0
 10
549.4397235450075
 20
1082.642486067194
 30
0.0
 10
553.2347474921095
 20
1079.472446302374
 30
0.0
 10
556.4887135473314
 20
1076.648951481587
 30
0.0
 10
558.0787117010684
 20
1075.419650844431
 30
0.0
 10
558.582490428724
 20
1074.64689674494
 30
0.0
 10
558.8887371640925
 20
1073.747805014909
 30
0.0
 10
558.8256382962537
 20
1070.061098115215
 30
0.0
 10
558.9193560693471
 20
1066.660474708175
 30
0.0
 10
559.0008929184928
 20
1063.701845746033
 30
0.0
 11
408.3998365722714
 21
1210.620547476413
 31
0.0
 11
408.7932704226796
 21
1210.599588370509
 31
0.0
 11
409.4786010779644
 21
1210.467284175669
 31
0.0
 11
410.7690908958457
 21
1209.969887793682
 31
0.0
 11
411.9931735705959
 21
1209.271235359681
 31
0.0
 11
413.2215554787717
 21
1208.439851123439
 31
0.0
 11
415.122294647786
 21
1207.076548540185
 31
0.0
 11
416.9896644715404
 21
1205.648428036523
 31
0.0
 11
418.6692199366221
 21
1204.288510745679
 31
0.0
 11
427.91286492381
 21
1195.522371105683
 31
0.0
 11
435.4053730261685
 21
1186.849413030208
 31
0.0
 11
442.2386549571602
 21
1177.796119273271
 31
0.0
 11
447.6303710508273
 21
1169.984502527774
 31
0.0
 11
449.9311632537406
 21
1166.504733640795
 31
0.0
 11
456.5764648701224
 21
1156.133498174184
 31
0.0
 11
465.8638941207241
 21
1141.689874016674
 31
0.0
 11
476.6870777570321
 21
1127.128767472063
 31
0.0
 11
489.2426982726611
 21
1113.531358139784
 31
0.0
 11
502.9865214821812
 21
1102.406127528036
 31
0.0
 11
515.2707653289508
 21
1095.331882653356
 31
0.0
 11
527.9084016102584
 21
1090.384724330911
 31
0.0
 11
535.0264829931357
 21
1088.50870933303
 31
0.0
 11
539.9966266925926
 21
1087.600682790868
 31
0.0
 11
543.9839108422866
 21
1086.446755464987
 31
0.0
 11
545.7518581104237
 21
1085.509973125354
 31
0.0
 11
548.2331049008221
 21
1083.630996484912
 31
0.0
 11
554.189771585256
 21
1078.632759666961
 31
0.0
 11
557.2116729544136
 21
1076.097083342649
 31
0.0
 11
558.138519134347
 21
1075.266307768074
 31
0.0
 11
558.5670214780457
 21
1074.607199256398
 31
0.0
 11
558.7923933580892
 21
1073.945556195589
 31
0.0
 11
558.8719338970327
 21
1072.616081750106
 31
0.0
 11
559.0008929184928
 21
1063.701845746033
 31
0.0
  0
SPLINE
  5
2944
330
A
100
AcDbEntity
  8
MODEL
100
AcDbSpline
210
0.0
220
0.0
230
1.0
 70
     8
 71
     3
 72
     8
 73
     4
 74
     0
 42
0.000000001
 43
0.0000000001
 40
0.3255751023742854
 40
0.3255751023742854
 40
0.3255751023742854
 40
0.3255751023742854
 40
1.000000916608586
 40
1.000000916608586
 40
1.000000916608586
 40
1.000000916608586
 10
408.7932704083951
 20
1210.599588371884
 30
0.0
 10
406.831398082682
 20
1210.815512851062
 30
0.0
 10
405.7160622834208
 20
1209.406394785168
 30
0.0
 10
405.9389957580997
 20
1206.339973686104
 30
0.0
  0
SPLINE
  5
2949
330
A
100
AcDbEntity
  8
HIDDEN
100
AcDbSpline
210
0.0
220
0.0
230
1.0
 70
  1064
 71
     3
 72
    39
 73
    35
 74
    33
 42
0.000000001
 43
0.0000000001
 44
0.0
 40
0.0
 40
0.0
 40
0.0
 40
0.0
 40
0.3939917242370936
 40
1.091976327968011
 40
2.475004574559197
 40
3.884434820494674
 40
5.367715596547176
 40
7.70681869862112
 40
10.05769050109057
 40
12.21877393266472
 40
24.95809011670925
 40
36.41923663190874
 40
47.7618937191081
 40
57.25357210668813
 40
61.42519484463732
 40
73.74276598007529
 40
90.9146797024392
 40
109.0576432924583
 40
127.5652943341777
 40
145.2475858310148
 40
159.423184140569
 40
172.9946330774349
 40
180.3557820940993
 40
185.4081914791869
 40
189.5590929672755
 40
191.5598924811603
 40
194.6723093636151
 40
202.4481854735956
 40
206.3929975485356
 40
207.6376789923467
 40
208.423833104922
 40
209.1228066553737
 40
210.4546583732941
 40
219.3698271302794
 40
219.3698271302794
 40
219.3698271302794
 40
219.3698271302794
 10
753.4552457829973
 20
1210.620547476413
 30
0.0
 10
753.3238390255829
 20
1210.616353560824
 30
0.0
 10
752.9596357705283
 20
1210.604729822904
 30
0.0
 10
752.1478477928534
 20
1210.43252890961
 30
0.0
 10
751.0617884576184
 20
1209.997235777544
 30
0.0
 10
749.8311820441404
 20
1209.272744565824
 30
0.0
 10
748.3975668073688
 20
1208.279422362822
 30
0.0
 10
746.7215163206823
 20
1207.085270073586
 30
0.0
 10
744.9088691096341
 20
1205.695416788768
 30
0.0
 10
740.4397903294869
 20
1202.076173073745
 30
0.0
 10
734.0897678384321
 20
1195.962713828806
 30
0.0
 10
726.3778808094667
 20
1186.957151910274
 30
0.0
 10
719.9174878976626
 20
1178.338721493389
 30
0.0
 10
715.195551380094
 20
1171.468595195276
 30
0.0
 10
710.4225386136267
 20
1164.242112285644
 30
0.0
 10
704.3938136893371
 20
1154.779127901398
 30
0.0
 10
696.0052767844625
 20
1141.293019834575
 30
0.0
 10
685.3334691518547
 20
1126.840222985438
 30
0.0
 10
673.1220241444507
 20
1113.403529964691
 30
0.0
 10
660.0774105940484
 20
1102.714346216276
 30
0.0
 10
646.9197299744226
 20
1095.091041859145
 30
0.0
 10
635.9736124200625
 20
1090.85869288146
 30
0.0
 10
627.6041790241754
 20
1088.53738349028
 30
0.0
 10
622.1476841397659
 20
1087.731475279893
 30
0.0
 10
618.4881942410634
 20
1086.835205919987
 30
0.0
 10
615.7443000171494
 20
1085.378180973601
 30
0.0
 10
612.4153588102611
 20
1082.642486067195
 30
0.0
 10
608.6203348631593
 20
1079.472446302374
 30
0.0
 10
605.3663688079374
 20
1076.648951481587
 30
0.0
 10
603.7763706542005
 20
1075.419650844431
 30
0.0
 10
603.2725919265447
 20
1074.64689674494
 30
0.0
 10
602.9663451911763
 20
1073.747805014909
 30
0.0
 10
603.0294440590151
 20
1070.061098115215
 30
0.0
 10
602.9357262859218
 20
1066.660474708175
 30
0.0
 10
602.8541894367759
 20
1063.701845746033
 30
0.0
 11
753.4552457829973
 21
1210.620547476413
 31
0.0
 11
753.0618119325891
 21
1210.599588370509
 31
0.0
 11
752.3764812773043
 21
1210.467284175669
 31
0.0
 11
751.085991459423
 21
1209.969887793682
 31
0.0
 11
749.8619087846728
 21
1209.271235359682
 31
0.0
 11
748.633526876497
 21
1208.439851123439
 31
0.0
 11
746.7327877074827
 21
1207.076548540185
 31
0.0
 11
744.8654178837282
 21
1205.648428036524
 31
0.0
 11
743.1858624186466
 21
1204.288510745679
 31
0.0
 11
733.9422174314586
 21
1195.522371105684
 31
0.0
 11
726.4497093291002
 21
1186.849413030208
 31
0.0
 11
719.6164273981085
 21
1177.796119273272
 31
0.0
 11
714.2247113044414
 21
1169.984502527774
 31
0.0
 11
711.9239191015281
 21
1166.504733640795
 31
0.0
 11
705.2786174851462
 21
1156.133498174184
 31
0.0
 11
695.9911882345446
 21
1141.689874016675
 31
0.0
 11
685.1680045982366
 21
1127.128767472064
 31
0.0
 11
672.6123840826076
 21
1113.531358139784
 31
0.0
 11
658.8685608730875
 21
1102.406127528036
 31
0.0
 11
646.5843170263179
 21
1095.331882653356
 31
0.0
 11
633.9466807450103
 21
1090.384724330911
 31
0.0
 11
626.828599362133
 21
1088.50870933303
 31
0.0
 11
621.8584556626761
 21
1087.600682790868
 31
0.0
 11
617.8711715129821
 21
1086.446755464987
 31
0.0
 11
616.103224244845
 21
1085.509973125354
 31
0.0
 11
613.6219774544466
 21
1083.630996484912
 31
0.0
 11
607.6653107700126
 21
1078.632759666961
 31
0.0
 11
604.643409400855
 21
1076.097083342649
 31
0.0
 11
603.7165632209217
 21
1075.266307768074
 31
0.0
 11
603.288060877223
 21
1074.607199256398
 31
0.0
 11
603.0626889971795
 21
1073.945556195589
 31
0.0
 11
602.983148458236
 21
1072.616081750106
 31
0.0
 11
602.8541894367759
 21
1063.701845746033
 31
0.0
  0
CIRCLE
  5
29A4
330
A
100
AcDbEntity
  8
HIDDEN
100
AcDbCircle
 10
1501.796193240221
 20
1984.585876744915
 30
0.0
 40
21.95328793119563
  0
CIRCLE
  5
29A5
330
A
100
AcDbEntity
  8
HIDDEN
100
AcDbCircle
 10
1501.796193240221
 20
1984.585876744915
 30
0.0
 40
21.9528310166648
  0
CIRCLE
  5
29A6
330
A
100
AcDbEntity
  8
HIDDEN
100
AcDbCircle
 10
1501.796193240221
 20
1984.585876744915
 30
0.0
 40
175.0166891811284
  0
LINE
  5
29C7
330
A
100
AcDbEntity
  8
MODEL
100
AcDbLine
 10
1418.020576971166
 20
1060.701845746031
 30
0.0
 11
1406.42080768605
 21
1060.701845746031
 31
0.0
  0
LINE
  5
29C8
330
A
100
AcDbEntity
  8
MODEL
100
AcDbLine
 10
1423.230609180054
 20
1059.701845746031
 30
0.0
 11
1420.256644948659
 21
1059.701845746031
 31
0.0
  0
LINE
  5
29C9
330
A
100
AcDbEntity
  8
MODEL
100
AcDbLine
 10
1406.42080768605
 20
1060.701845746031
 30
0.0
 11
1400.153382942412
 21
1060.701845746031
 31
0.0
  0
ARC
  5
29CA
330
A
100
AcDbEntity
  8
MODEL
100
AcDbCircle
 10
1400.153382942412
 20
1064.701845746031
 30
0.0
 40
4.0
100
AcDbArc
 50
212.2734764520976
 51
270.0
  0
LINE
  5
29CB
330
A
100
AcDbEntity
  8
MODEL
100
AcDbLine
 10
1645.879471906324
 20
1135.701845746031
 30
0.0
 11
1347.443696460851
 21
1135.701845746031
 31
0.0
  0
ARC
  5
29CC
330
A
100
AcDbEntity
  8
MODEL
100
AcDbCircle
 10
1347.443696460742
 20
1139.701845746031
 30
0.0
 40
4.0
100
AcDbArc
 50
197.5910840899982
 51
270.0000000020844
  0
ARC
  5
29CD
330
A
100
AcDbEntity
  8
MODEL
100
AcDbCircle
 10
1629.602058419315
 20
1229.1594266258
 30
0.0
 40
300.0
100
AcDbArc
 50
184.3624081115998
 51
197.5910839611547
  0
LINE
  5
29CE
330
A
100
AcDbEntity
  8
MODEL
100
AcDbLine
 10
1592.898907068736
 20
1060.701845746031
 30
0.0
 11
1604.498676353845
 21
1060.701845746031
 31
0.0
  0
LINE
  5
29CF
330
A
100
AcDbEntity
  8
MODEL
100
AcDbLine
 10
1587.688874859848
 20
1059.701845746031
 30
0.0
 11
1590.662839091235
 21
1059.701845746031
 31
0.0
  0
LINE
  5
29D0
330
A
100
AcDbEntity
  8
MODEL
100
AcDbLine
 10
1604.498676353845
 20
1060.701845746031
 30
0.0
 11
1610.766101097489
 21
1060.701845746031
 31
0.0
  0
ARC
  5
29D1
330
A
100
AcDbEntity
  8
MODEL
100
AcDbCircle
 10
1610.766101097489
 20
1064.701845746031
 30
0.0
 40
4.0
100
AcDbArc
 50
270.0
 51
327.7265235478844
  0
LINE
  5
29D2
330
A
100
AcDbEntity
  8
MODEL
100
AcDbLine
 10
1658.446714550734
 20
1135.701845746031
 30
0.0
 11
1663.475787579043
 21
1135.701845746031
 31
0.0
  0
ARC
  5
29D3
330
A
100
AcDbEntity
  8
MODEL
100
AcDbCircle
 10
1663.475787579152
 20
1139.701845746031
 30
0.0
 40
4.0
100
AcDbArc
 50
269.9999999979156
 51
342.4089159099812
  0
ARC
  5
29D4
330
A
100
AcDbEntity
  8
MODEL
100
AcDbCircle
 10
1381.317425620587
 20
1229.1594266258
 30
0.0
 40
300.0
100
AcDbArc
 50
342.4089160388453
 51
355.6375918883999
  0
LINE
  5
29D5
330
A
100
AcDbEntity
  8
HIDDEN
100
AcDbLine
 10
1527.333078376633
 20
1063.701845746031
 30
0.0
 11
1483.533093635419
 21
1063.701845746031
 31
0.0
  0
LINE
  5
29D6
330
A
100
AcDbEntity
  8
MODEL
100
AcDbLine
 10
1423.230609180054
 20
1059.701845746031
 30
0.0
 11
1589.175856975537
 21
1059.701845746031
 31
0.0
  0
LINE
  5
29D7
330
A
100
AcDbEntity
  8
MODEL
100
AcDbLine
 10
1332.887555655079
 20
1210.620547476412
 30
0.0
 11
1678.16014042095
 21
1210.620547476412
 31
0.0
  0
LINE
  5
29D8
330
A
100
AcDbEntity
  8
MODEL
100
AcDbLine
 10
1658.446714550698
 20
1135.701845746031
 30
0.0
 11
1645.87947190632
 21
1135.701845746031
 31
0.0
  0
ARC
  5
29D9
330
A
100
AcDbEntity
  8
MODEL
100
AcDbCircle
 10
1590.662839091235
 20
1062.701845746031
 30
0.0
 40
3.0
100
AcDbArc
 50
270.0
 51
318.1896851042205
  0
ARC
  5
29DA
330
A
100
AcDbEntity
  8
MODEL
100
AcDbCircle
 10
1394.315769765327
 20
1201.395861950825
 30
0.0
 40
260.0
100
AcDbArc
 50
327.7265235480281
 51
345.3644764003981
  0
ARC
  5
29DB
330
A
100
AcDbEntity
  8
MODEL
100
AcDbCircle
 10
1420.256644948659
 20
1062.701845746031
 30
0.0
 40
3.0
100
AcDbArc
 50
221.8103148957795
 51
270.0
  0
LINE
  5
29DC
330
A
100
AcDbEntity
  8
HIDDEN
100
AcDbLine
 10
1461.244013515235
 20
1088.160506269142
 30
0.0
 11
1549.675470524661
 21
1088.160506269142
 31
0.0
  0
LINE
  5
29DD
330
A
100
AcDbEntity
  8
HIDDEN
100
AcDbLine
 10
1472.03447599612
 20
1084.244235350872
 30
0.0
 11
1538.885008043774
 21
1084.244235350872
 31
0.0
  0
SPLINE
  5
29DE
330
A
100
AcDbEntity
  8
HIDDEN
100
AcDbSpline
210
0.0
220
0.0
230
1.0
 70
  1064
 71
     3
 72
    39
 73
    35
 74
    33
 42
0.000000001
 43
0.0000000001
 44
0.0
 40
0.0
 40
0.0
 40
0.0
 40
0.0
 40
0.393991724236915
 40
1.09197632796784
 40
2.475004574559141
 40
3.884434820494421
 40
5.367715596547238
 40
7.706818698621737
 40
10.05769050109069
 40
12.21877393266459
 40
24.95809011670991
 40
36.41923663190841
 40
47.76189371910863
 40
57.25357210668778
 40
61.42519484463761
 40
73.74276598007569
 40
90.91467970243973
 40
109.0576432924589
 40
127.5652943341784
 40
145.2475858310146
 40
159.4231841405688
 40
172.994633077435
 40
180.3557820940992
 40
185.4081914791867
 40
189.5590929672753
 40
191.55989248116
 40
194.6723093636158
 40
202.4481854735958
 40
206.392997548536
 40
207.6376789923469
 40
208.4238331049227
 40
209.1228066553734
 40
210.4546583732939
 40
219.3698271302802
 40
219.3698271302802
 40
219.3698271302802
 40
219.3698271302802
 10
1332.932037289198
 20
1210.620547476412
 30
0.0
 10
1333.063444046612
 20
1210.616353560822
 30
0.0
 10
1333.427647301667
 20
1210.604729822902
 30
0.0
 10
1334.239435279342
 20
1210.43252890961
 30
0.0
 10
1335.325494614576
 20
1209.997235777541
 30
0.0
 10
1336.556101028055
 20
1209.272744565823
 30
0.0
 10
1337.989716264826
 20
1208.279422362819
 30
0.0
 10
1339.665766751514
 20
1207.085270073585
 30
0.0
 10
1341.478413962561
 20
1205.695416788766
 30
0.0
 10
1345.947492742711
 20
1202.076173073746
 30
0.0
 10
1352.297515233761
 20
1195.962713828804
 30
0.0
 10
1360.00940226273
 20
1186.957151910272
 30
0.0
 10
1366.469795174532
 20
1178.338721493387
 30
0.0
 10
1371.191731692102
 20
1171.468595195275
 30
0.0
 10
1375.964744458568
 20
1164.242112285641
 30
0.0
 10
1381.993469382858
 20
1154.779127901396
 30
0.0
 10
1390.382006287733
 20
1141.293019834574
 30
0.0
 10
1401.053813920341
 20
1126.840222985436
 30
0.0
 10
1413.265258927744
 20
1113.403529964689
 30
0.0
 10
1426.309872478148
 20
1102.714346216275
 30
0.0
 10
1439.467553097772
 20
1095.091041859142
 30
0.0
 10
1450.413670652133
 20
1090.858692881458
 30
0.0
 10
1458.78310404802
 20
1088.537383490278
 30
0.0
 10
1464.239598932429
 20
1087.731475279893
 30
0.0
 10
1467.899088831132
 20
1086.835205919985
 30
0.0
 10
1470.642983055046
 20
1085.3781809736
 30
0.0
 10
1473.971924261934
 20
1082.642486067192
 30
0.0
 10
1477.766948209039
 20
1079.472446302375
 30
0.0
 10
1481.020914264256
 20
1076.648951481584
 30
0.0
 10
1482.610912417996
 20
1075.41965084443
 30
0.0
 10
1483.114691145649
 20
1074.646896744938
 30
0.0
 10
1483.420937881021
 20
1073.747805014908
 30
0.0
 10
1483.357839013176
 20
1070.061098115212
 30
0.0
 10
1483.451556786271
 20
1066.660474708172
 30
0.0
 10
1483.533093635419
 20
1063.701845746031
 30
0.0
 11
1332.932037289198
 21
1210.620547476412
 31
0.0
 11
1333.325471139606
 21
1210.599588370507
 31
0.0
 11
1334.010801794891
 21
1210.467284175668
 31
0.0
 11
1335.301291612772
 21
1209.96988779368
 31
0.0
 11
1336.525374287522
 21
1209.27123535968
 31
0.0
 11
1337.753756195698
 21
1208.439851123437
 31
0.0
 11
1339.654495364713
 21
1207.076548540183
 31
0.0
 11
1341.521865188467
 21
1205.648428036522
 31
0.0
 11
1343.201420653549
 21
1204.288510745678
 31
0.0
 11
1352.445065640737
 21
1195.522371105682
 31
0.0
 11
1359.937573743095
 21
1186.849413030207
 31
0.0
 11
1366.770855674087
 21
1177.79611927327
 31
0.0
 11
1372.162571767754
 21
1169.984502527773
 31
0.0
 11
1374.463363970667
 21
1166.504733640793
 31
0.0
 11
1381.108665587049
 21
1156.133498174182
 31
0.0
 11
1390.396094837651
 21
1141.689874016673
 31
0.0
 11
1401.219278473959
 21
1127.128767472062
 31
0.0
 11
1413.774898989588
 21
1113.531358139782
 31
0.0
 11
1427.518722199108
 21
1102.406127528035
 31
0.0
 11
1439.802966045877
 21
1095.331882653354
 31
0.0
 11
1452.440602327185
 21
1090.384724330909
 31
0.0
 11
1459.558683710062
 21
1088.508709333028
 31
0.0
 11
1464.528827409519
 21
1087.600682790867
 31
0.0
 11
1468.516111559213
 21
1086.446755464986
 31
0.0
 11
1470.28405882735
 21
1085.509973125353
 31
0.0
 11
1472.765305617749
 21
1083.63099648491
 31
0.0
 11
1478.721972302183
 21
1078.63275966696
 31
0.0
 11
1481.74387367134
 21
1076.097083342647
 31
0.0
 11
1482.670719851274
 21
1075.266307768073
 31
0.0
 11
1483.099222194972
 21
1074.607199256396
 31
0.0
 11
1483.324594075016
 21
1073.945556195588
 31
0.0
 11
1483.404134613959
 21
1072.616081750105
 31
0.0
 11
1483.533093635419
 21
1063.701845746031
 31
0.0
  0
SPLINE
  5
29DF
330
A
100
AcDbEntity
  8
MODEL
100
AcDbSpline
210
0.0
220
0.0
230
1.0
 70
     8
 71
     3
 72
     8
 73
     4
 74
     0
 42
0.000000001
 43
0.0000000001
 40
0.3255751023742854
 40
0.3255751023742854
 40
0.3255751023742854
 40
0.3255751023742854
 40
1.000000916608586
 40
1.000000916608586
 40
1.000000916608586
 40
1.000000916608586
 10
1333.325471125322
 20
1210.599588371883
 30
0.0
 10
1331.363598799609
 20
1210.81551285106
 30
0.0
 10
1330.248263000347
 20
1209.406394785166
 30
0.0
 10
1330.471196475026
 20
1206.339973686103
 30
0.0
  0
SPLINE
  5
29E0
330
A
100
AcDbEntity
  8
MODEL
100
AcDbSpline
210
0.0
220
0.0
230
1.0
 70
     8
 71
     3
 72
     8
 73
     4
 74
     0
 42
0.000000001
 43
0.0000000001
 40
0.3631972698678186
 40
0.3631972698678186
 40
0.3631972698678186
 40
0.3631972698678186
 40
1.000000916608586
 40
1.000000916608586
 40
1.000000916608586
 40
1.000000916608586
 10
1677.914347897771
 20
1210.620547476412
 30
0.0
 10
1679.676156518724
 20
1210.653143090199
 30
0.0
 10
1680.658784919323
 20
1209.23533756045
 30
0.0
 10
1680.448287564887
 20
1206.339973686303
 30
0.0
  0
SPLINE
  5
29E1
330
A
100
AcDbEntity
  8
HIDDEN
100
AcDbSpline
210
0.0
220
0.0
230
1.0
 70
  1064
 71
     3
 72
    39
 73
    35
 74
    33
 42
0.000000001
 43
0.0000000001
 44
0.0
 40
0.0
 40
0.0
 40
0.0
 40
0.0
 40
0.3939917242370936
 40
1.091976327967968
 40
2.475004574558942
 40
3.88443482049566
 40
5.367715596547535
 40
7.706818698621504
 40
10.05769050109101
 40
12.21877393266509
 40
24.95809011671024
 40
36.41923663190875
 40
47.76189371910897
 40
57.25357210668824
 40
61.42519484463713
 40
73.74276598007528
 40
90.9146797024402
 40
109.0576432924592
 40
127.5652943341787
 40
145.247585831015
 40
159.4231841405695
 40
172.9946330774353
 40
180.3557820940993
 40
185.408191479187
 40
189.5590929672754
 40
191.5598924811601
 40
194.6723093636161
 40
202.4481854735959
 40
206.3929975485361
 40
207.637678992347
 40
208.4238331049228
 40
209.1228066553735
 40
210.4546583732941
 40
219.3698271302803
 40
219.3698271302803
 40
219.3698271302803
 40
219.3698271302803
 10
1677.987446499924
 20
1210.620547476412
 30
0.0
 10
1677.85603974251
 20
1210.616353560823
 30
0.0
 10
1677.491836487455
 20
1210.604729822903
 30
0.0
 10
1676.68004850978
 20
1210.432528909609
 30
0.0
 10
1675.593989174545
 20
1209.997235777542
 30
0.0
 10
1674.363382761067
 20
1209.272744565823
 30
0.0
 10
1672.929767524295
 20
1208.279422362818
 30
0.0
 10
1671.253717037608
 20
1207.085270073586
 30
0.0
 10
1669.441069826561
 20
1205.695416788766
 30
0.0
 10
1664.971991046411
 20
1202.076173073746
 30
0.0
 10
1658.62196855536
 20
1195.962713828804
 30
0.0
 10
1650.910081526393
 20
1186.957151910272
 30
0.0
 10
1644.44968861459
 20
1178.338721493387
 30
0.0
 10
1639.72775209702
 20
1171.468595195275
 30
0.0
 10
1634.954739330554
 20
1164.242112285643
 30
0.0
 10
1628.926014406264
 20
1154.779127901397
 30
0.0
 10
1620.537477501389
 20
1141.293019834574
 30
0.0
 10
1609.865669868781
 20
1126.840222985437
 30
0.0
 10
1597.654224861378
 20
1113.403529964689
 30
0.0
 10
1584.609611310975
 20
1102.714346216275
 30
0.0
 10
1571.451930691349
 20
1095.091041859144
 30
0.0
 10
1560.505813136989
 20
1090.858692881458
 30
0.0
 10
1552.136379741102
 20
1088.537383490278
 30
0.0
 10
1546.679884856693
 20
1087.731475279893
 30
0.0
 10
1543.02039495799
 20
1086.835205919986
 30
0.0
 10
1540.276500734076
 20
1085.3781809736
 30
0.0
 10
1536.947559527188
 20
1082.642486067192
 30
0.0
 10
1533.152535580084
 20
1079.472446302375
 30
0.0
 10
1529.898569524866
 20
1076.648951481583
 30
0.0
 10
1528.308571371126
 20
1075.41965084443
 30
0.0
 10
1527.804792643472
 20
1074.646896744938
 30
0.0
 10
1527.498545908102
 20
1073.747805014909
 30
0.0
 10
1527.561644775944
 20
1070.061098115212
 30
0.0
 10
1527.467927002849
 20
1066.660474708172
 30
0.0
 10
1527.386390153702
 20
1063.701845746031
 30
0.0
 11
1677.987446499924
 21
1210.620547476412
 31
0.0
 11
1677.594012649516
 21
1210.599588370508
 31
0.0
 11
1676.908681994231
 21
1210.467284175668
 31
0.0
 11
1675.61819217635
 21
1209.969887793681
 31
0.0
 11
1674.394109501599
 21
1209.27123535968
 31
0.0
 11
1673.165727593424
 21
1208.439851123437
 31
0.0
 11
1671.264988424409
 21
1207.076548540184
 31
0.0
 11
1669.397618600655
 21
1205.648428036522
 31
0.0
 11
1667.718063135573
 21
1204.288510745678
 31
0.0
 11
1658.474418148385
 21
1195.522371105682
 31
0.0
 11
1650.981910046027
 21
1186.849413030207
 31
0.0
 11
1644.148628115035
 21
1177.79611927327
 31
0.0
 11
1638.756912021368
 21
1169.984502527773
 31
0.0
 11
1636.456119818455
 21
1166.504733640794
 31
0.0
 11
1629.810818202073
 21
1156.133498174183
 31
0.0
 11
1620.523388951471
 21
1141.689874016673
 31
0.0
 11
1609.700205315163
 21
1127.128767472062
 31
0.0
 11
1597.144584799534
 21
1113.531358139782
 31
0.0
 11
1583.400761590014
 21
1102.406127528035
 31
0.0
 11
1571.116517743244
 21
1095.331882653355
 31
0.0
 11
1558.478881461937
 21
1090.384724330909
 31
0.0
 11
1551.36080007906
 21
1088.508709333028
 31
0.0
 11
1546.390656379603
 21
1087.600682790867
 31
0.0
 11
1542.403372229909
 21
1086.446755464986
 31
0.0
 11
1540.635424961772
 21
1085.509973125353
 31
0.0
 11
1538.154178171373
 21
1083.63099648491
 31
0.0
 11
1532.197511486939
 21
1078.63275966696
 31
0.0
 11
1529.175610117782
 21
1076.097083342647
 31
0.0
 11
1528.248763937848
 21
1075.266307768073
 31
0.0
 11
1527.82026159415
 21
1074.607199256396
 31
0.0
 11
1527.594889714106
 21
1073.945556195588
 31
0.0
 11
1527.515349175163
 21
1072.616081750105
 31
0.0
 11
1527.386390153702
 21
1063.701845746031
 31
0.0
  0
ARC
  5
29E2
330
A
100
AcDbEntity
  8
MODEL
100
AcDbCircle
 10
1616.603714274574
 20
1201.395861950825
 30
0.0
 40
260.0
100
AcDbArc
 50
194.6355235996018
 51
212.2734764519718
  0
LINE
  5
29EE
330
A
100
AcDbEntity
  8
Dim
  6
Continuous
100
AcDbLine
 10
430.0192773672952
 20
1058.855991948883
 30
0.0
 11
430.0192773672952
 21
882.8326489344679
 31
0.0
  0
LINE
  5
29EF
330
A
100
AcDbEntity
  8
Dim
  6
Continuous
100
AcDbLine
 10
368.8861379528103
 20
1134.938621419067
 30
0.0
 11
368.8861379528103
 21
819.2194446926075
 31
0.0
  0
LINE
  5
29F2
330
A
100
AcDbEntity
  8
Dim
  6
Continuous
100
AcDbLine
 10
465.9299571812485
 20
1058.855991948883
 30
0.0
 11
394.1085975533415
 21
1058.855991948883
 31
0.0
  0
LINE
  5
29F3
330
A
100
AcDbEntity
  8
Dim
  6
Continuous
100
AcDbLine
 10
404.796817766764
 20
1134.938621419067
 30
0.0
 11
332.9754581388565
 21
1134.938621419067
 31
0.0
  0
CIRCLE
  5
2A30
102
{ACAD_REACTORS
330
2A33
102
}
330
A
100
AcDbEntity
  8
MODEL
100
AcDbCircle
 10
1501.79619324022
 20
1984.585876744915
 30
0.0
 40
145.220118445468
  0
LINE
  5
2A35
330
A
100
AcDbEntity
  8
Dim
  6
Continuous
100
AcDbLine
 10
1418.257483172609
 20
2251.972980042095
 30
0.0
 11
1418.257483172609
 21
2104.941535336426
 31
0.0
  0
LINE
  5
2A37
330
A
100
AcDbEntity
  8
Dim
  6
Continuous
100
AcDbLine
 10
1498.079741071212
 20
2015.600894056426
 30
0.0
 11
1498.079741071212
 21
2181.852866332689
 31
0.0
  0
LINE
  5
2A3A
330
A
100
AcDbEntity
  8
Dim
  6
Continuous
100
AcDbLine
 10
1662.823883780384
 20
2107.044930660857
 30
0.0
 11
1736.49853818844
 21
2107.044930660857
 31
0.0
  0
LINE
  5
2A3B
330
A
100
AcDbEntity
  8
Dim
  6
Continuous
100
AcDbLine
 10
1535.936198919604
 20
2021.116138340087
 30
0.0
 11
1662.823883780384
 21
2107.044930660857
 31
0.0
  0
CIRCLE
  5
2A3C
330
A
100
AcDbEntity
  8
MODEL
  6
Continuous
100
AcDbCircle
 10
1501.79619324022
 20
1984.585876744915
 30
0.0
 40
50.0
  0
TEXT
  5
2AC4
330
A
100
AcDbEntity
  8
template
  6
Continuous
100
AcDbText
 10
79.76765049962778
 20
331.0740906284432
 30
0.0
 40
16.28841145833333
  1
品名
  7
ＭＳ ゴシック
100
AcDbText
  0
TEXT
  5
2AC5
330
A
100
AcDbEntity
  8
template
  6
Continuous
100
AcDbText
 10
81.09056199671262
 20
245.7433627541718
 30
0.0
 40
16.28841145833333
  1
仕様
  7
ＭＳ ゴシック
100
AcDbText
  0
LINE
  5
2AC6
330
A
100
AcDbEntity
  8
template
390
1D
100
AcDbLine
 10
2025.0
 20
2901.438879710319
 30
0.0
 11
75.00000000000023
 21
2901.438879710319
 31
0.0
  0
LINE
  5
2AC7
330
A
100
AcDbEntity
  8
template
390
1D
100
AcDbLine
 10
75.00000000000023
 20
2901.438879710319
 30
0.0
 11
75.00000000000023
 21
101.4388797103188
 31
0.0
  0
LINE
  5
2AC8
330
A
100
AcDbEntity
  8
template
390
1D
100
AcDbLine
 10
75.00000000000023
 20
101.4388797103188
 30
0.0
 11
2025.0
 21
101.4388797103188
 31
0.0
  0
LINE
  5
2AC9
330
A
100
AcDbEntity
  8
template
390
1D
100
AcDbLine
 10
2025.0
 20
101.4388797103188
 30
0.0
 11
2025.0
 21
2901.438879710319
 31
0.0
  0
TEXT
  5
2ACA
330
A
100
AcDbEntity
  8
template
  6
Continuous
100
AcDbText
 10
1299.891621841401
 20
130.6075926152904
 30
0.0
 40
24.4326171875
  1
大洋金物株式会社 ティーフォルム事業部
  7
ＭＳ ゴシック
100
AcDbText
  0
TEXT
  5
2ACB
330
A
100
AcDbEntity
  8
template
  6
Continuous
100
AcDbText
 10
1830.895893578021
 20
209.9997140417478
 30
0.0
 40
24.4326171875
  1
1:10
  7
ＭＳ ゴシック
100
AcDbText
  0
TEXT
  5
2ACC
330
A
100
AcDbEntity
  8
template
  6
Continuous
100
AcDbText
 10
1780.255798633156
 20
245.7433627541718
 30
0.0
 40
16.28841145833333
  1
縮尺
  7
ＭＳ ゴシック
100
AcDbText
  0
TEXT
  5
2ACD
330
A
100
AcDbEntity
  8
template
  6
Continuous
100
AcDbText
 10
1528.84232513984
 20
245.9088539922598
 30
0.0
 40
16.28841145833333
  1
容量
  7
ＭＳ ゴシック
100
AcDbText
  0
TEXT
  5
2ACE
330
A
100
AcDbEntity
  8
template
  6
Continuous
100
AcDbText
 10
1276.767650499887
 20
331.2395818665312
 30
0.0
 40
16.28841145833333
  1
品番
  7
ＭＳ ゴシック
100
AcDbText
  0
TEXT
  5
2ACF
330
A
100
AcDbEntity
  8
template
  6
Continuous
100
AcDbText
 10
1277.511597265569
 20
246.156836247487
 30
0.0
 40
16.28841145833333
  1
重量
  7
ＭＳ ゴシック
100
AcDbText
  0
TEXT
  5
2AD0
330
A
100
AcDbEntity
  8
template
  6
Continuous
100
AcDbText
 10
1331.503908189335
 20
294.9997140417478
 30
0.0
 40
24.4326171875
  1
ADF70-0708-N01
  7
ＭＳ ゴシック
100
AcDbText
  0
TEXT
  5
2AD1
330
A
100
AcDbEntity
  8
template
  6
Continuous
100
AcDbText
 10
132.8980066748601
 20
293.7688411332304
 30
0.0
 40
24.4326171875
  1
手洗器 -CATALANO, Sfera-
  7
ＭＳ ゴシック
100
AcDbText
  0
TEXT
  5
2AD2
330
A
100
AcDbEntity
  8
template
  6
Continuous
100
AcDbText
 10
131.0404311777987
 20
208.2643474589667
 30
0.0
 40
24.4326171875
  1
カウンター置き、半埋め込み/オーバーフロー無し/
  7
ＭＳ ゴシック
100
AcDbText
  0
TEXT
  5
2AD3
330
A
100
AcDbEntity
  8
template
  6
Continuous
100
AcDbText
 10
132.3954225148821
 20
166.5507048429857
 30
0.0
 40
24.4326171875
  1
陶器/ホワイト
  7
ＭＳ ゴシック
100
AcDbText
  0
TEXT
  5
2AD4
330
A
100
AcDbEntity
  8
template
  6
Continuous
100
AcDbText
 10
1330.631260160802
 20
209.9997140417478
 30
0.0
 40
24.4326171875
  1
5.5kg
  7
ＭＳ ゴシック
100
AcDbText
  0
TEXT
  5
2AD5
330
A
100
AcDbEntity
  8
template
  6
Continuous
100
AcDbText
 10
1580.623382829084
 20
209.9997140417478
 30
0.0
 40
24.4326171875
  1
5L
  7
ＭＳ ゴシック
100
AcDbText
  0
INSERT
  5
2AD6
330
A
100
AcDbEntity
  8
レイヤー 1
100
AcDbBlockReference
  2
block 2
 10
1873.559250554905
 20
30.23897196054438
 30
0.0
 41
0.7619999999999999
 42
0.7619999999999999
 43
0.7619999999999999
  0
TEXT
  5
2AD7
330
A
100
AcDbEntity
  8
template
  6
Continuous
100
AcDbText
 10
77.55311240664163
 20
63.09867926793395
 30
0.0
 40
23.0
  1
20210927
  7
ＭＳ ゴシック
100
AcDbText
  0
TEXT
  5
2AD8
330
A
100
AcDbEntity
  8
template
  6
Continuous
100
AcDbText
 10
197.197979231701
 20
63.09867926793395
 30
0.0
 40
23.0
  1
N
  7
ＭＳ ゴシック
100
AcDbText
  0
LINE
  5
2AD9
330
A
100
AcDbEntity
  8
PRINT BORDER
100
AcDbLine
 10
0.0
 20
0.0
 30
0.0
 11
0.0
 21
2970.0
 31
0.0
  0
LINE
  5
2ADA
330
A
100
AcDbEntity
  8
PRINT BORDER
100
AcDbLine
 10
0.0
 20
2970.0
 30
0.0
 11
2100.0
 21
2970.0
 31
0.0
  0
LINE
  5
2ADB
330
A
100
AcDbEntity
  8
PRINT BORDER
100
AcDbLine
 10
2100.0
 20
2970.0
 30
0.0
 11
2100.0
 21
0.0
 31
0.0
  0
LINE
  5
2ADC
330
A
100
AcDbEntity
  8
PRINT BORDER
100
AcDbLine
 10
2100.0
 20
0.0
 30
0.0
 11
0.0
 21
0.0
 31
0.0
  0
TEXT
  5
2ADD
330
A
100
AcDbEntity
  8
Dim
  6
Continuous
100
AcDbText
 10
1176.592089520911
 20
1579.213202996086
 30
34.99521132346015
 40
24.0
  1
※陶器製品には寸法公差があります。
  7
ＭＳ ゴシック
100
AcDbText
  0
TEXT
  5
2ADE
330
A
100
AcDbEntity
  8
Dim
  6
Continuous
100
AcDbText
 10
1179.515935963327
 20
1529.732510695925
 30
34.99521132346015
 40
24.0
  1
  洗面器の収め方をご確認の上、必ず現物を合わせて
  7
ＭＳ ゴシック
100
AcDbText
  0
TEXT
  5
2ADF
330
A
100
AcDbEntity
  8
Dim
  6
Continuous
100
AcDbText
 10
1179.515935963327
 20
1481.284314382444
 30
34.99521132346015
 40
24.0
  1
  カウンターに切込を行ってください。
  7
ＭＳ ゴシック
100
AcDbText
  0
LINE
  5
2AE0
330
A
100
AcDbEntity
  8
Dim
  6
Continuous
100
AcDbLine
 10
1530.523848038015
 20
1210.620547476412
 30
0.0
 11
1507.666413453032
 21
1210.620547476412
 31
0.0
1001
ACAD
1000
DSTYLE
1002
{
1070
     3
1000
<>(深さ)
1070
   172
1070
     1
1070
   179
1070
     0
1070
   271
1070
     0
1070
    43
1040
25.0
1070
    44
1040
0.0
1070
    42
1040
25.0
1002
}
  0
LINE
  5
2AE1
330
A
100
AcDbEntity
  8
Dim
  6
Continuous
100
AcDbLine
 10
1530.523848038015
 20
1085.620547476412
 30
0.0
 11
1507.666413453032
 21
1085.620547476412
 31
0.0
1001
ACAD
1000
DSTYLE
1002
{
1070
     3
1000
<>(深さ)
1070
   172
1070
     1
1070
   179
1070
     0
1070
   271
1070
     0
1070
    43
1040
25.0
1070
    44
1040
0.0
1070
    42
1040
25.0
1002
}
  0
LINE
  5
2AE2
330
A
100
AcDbEntity
  8
Dim
  6
Continuous
100
AcDbLine
 10
1507.666413453032
 20
1210.620547476412
 30
0.0
 11
1507.666413453032
 21
1381.046126990605
 31
0.0
1001
ACAD
1000
DSTYLE
1002
{
1070
     3
1000
<>(深さ)
1070
   172
1070
     1
1070
   179
1070
     0
1070
   271
1070
     0
1070
    43
1040
25.0
1070
    44
1040
0.0
1070
    42
1040
25.0
1002
}
  0
LINE
  5
2AE3
330
A
100
AcDbEntity
  8
Dim
  6
Continuous
100
AcDbLine
 10
1507.666413453032
 20
1201.620547476412
 30
0.0
 11
1507.666413453032
 21
1094.620547476412
 31
0.0
1001
ACAD
1000
DSTYLE
1002
{
1070
     3
1000
<>(深さ)
1070
   172
1070
     1
1070
   179
1070
     0
1070
   271
1070
     0
1070
    43
1040
25.0
1070
    44
1040
0.0
1070
    42
1040
25.0
1002
}
  0
LINE
  5
2AE4
330
A
100
AcDbEntity
  8
Dim
  6
Continuous
100
AcDbLine
 10
1507.666413453032
 20
1201.620547476412
 30
0.0
 11
1507.666413453032
 21
1192.620547476412
 31
0.0
1001
ACAD
1000
DSTYLE
1002
{
1070
     3
1000
<>(深さ)
1070
   172
1070
     1
1070
   179
1070
     0
1070
   271
1070
     0
1070
    43
1040
25.0
1070
    44
1040
0.0
1070
    42
1040
25.0
1002
}
  0
INSERT
  5
2AE5
330
A
100
AcDbEntity
  8
Dim
100
AcDbBlockReference
  2
_DOT
 10
1507.666413453032
 20
1210.620547476412
 30
0.0
 41
9.0
 42
9.0
 43
9.0
 50
90.0
1001
ACAD
1000
DSTYLE
1002
{
1070
     3
1000
<>(深さ)
1070
   172
1070
     1
1070
   179
1070
     0
1070
   271
1070
     0
1070
    43
1040
25.0
1070
    44
1040
0.0
1070
    42
1040
25.0
1002
}
  0
INSERT
  5
2AE6
330
A
100
AcDbEntity
  8
Dim
100
AcDbBlockReference
  2
_DOT
 10
1507.666413453032
 20
1085.620547476412
 30
0.0
 41
9.0
 42
9.0
 43
9.0
 50
270.0
1001
ACAD
1000
DSTYLE
1002
{
1070
     3
1000
<>(深さ)
1070
   172
1070
     1
1070
   179
1070
     0
1070
   271
1070
     0
1070
    43
1040
25.0
1070
    44
1040
0.0
1070
    42
1040
25.0
1002
}
  0
MTEXT
  5
2AE7
330
A
100
AcDbEntity
  8
Dim
  6
Continuous
100
AcDbMText
 10
1483.404633156515
 20
1304.833337233508
 30
0.0
 40
24.4326171875
 41
0.0
 46
0.0
 71
     5
 72
     1
  1
\A1;125(深さ)
  7
ＭＳ ゴシック
 11
0.0
 21
1.0
 31
0.0
 73
     1
 44
1.0
1001
ACAD
1000
DSTYLE
1002
{
1070
     3
1000
<>(深さ)
1070
   172
1070
     1
1070
   179
1070
     0
1070
   271
1070
     0
1070
    43
1040
25.0
1070
    44
1040
0.0
1070
    42
1040
25.0
1002
}
  0
LINE
  5
2AE8
330
A
100
AcDbEntity
  8
Dim
  6
Continuous
100
AcDbLine
 10
755.92754130302
 20
2031.897582459381
 30
0.0
 11
755.92754130302
 21
2281.615497600225
 31
0.0
1001
ACAD
1000
DSTYLE
1002
{
1070
     3
1000
%%C<>
1070
   179
1070
     0
1070
   271
1070
     0
1070
    43
1040
25.0
1070
    44
1040
0.0
1070
    42
1040
25.0
1002
}
  0
LINE
  5
2AE9
330
A
100
AcDbEntity
  8
Dim
  6
Continuous
100
AcDbLine
 10
405.92754130302
 20
2031.897582459381
 30
0.0
 11
405.92754130302
 21
2281.615497600225
 31
0.0
1001
ACAD
1000
DSTYLE
1002
{
1070
     3
1000
%%C<>
1070
   179
1070
     0
1070
   271
1070
     0
1070
    43
1040
25.0
1070
    44
1040
0.0
1070
    42
1040
25.0
1002
}
  0
LINE
  5
2AEA
330
A
100
AcDbEntity
  8
Dim
  6
Continuous
100
AcDbLine
 10
746.92754130302
 20
2281.615497600225
 30
0.0
 11
414.92754130302
 21
2281.615497600225
 31
0.0
1001
ACAD
1000
DSTYLE
1002
{
1070
     3
1000
%%C<>
1070
   179
1070
     0
1070
   271
1070
     0
1070
    43
1040
25.0
1070
    44
1040
0.0
1070
    42
1040
25.0
1002
}
  0
INSERT
  5
2AEB
330
A
100
AcDbEntity
  8
Dim
100
AcDbBlockReference
  2
_DOT
 10
755.92754130302
 20
2281.615497600225
 30
0.0
 41
9.0
 42
9.0
 43
9.0
1001
ACAD
1000
DSTYLE
1002
{
1070
     3
1000
%%C<>
1070
   179
1070
     0
1070
   271
1070
     0
1070
    43
1040
25.0
1070
    44
1040
0.0
1070
    42
1040
25.0
1002
}
  0
INSERT
  5
2AEC
330
A
100
AcDbEntity
  8
Dim
100
AcDbBlockReference
  2
_DOT
 10
405.92754130302
 20
2281.615497600225
 30
0.0
 41
9.0
 42
9.0
 43
9.0
 50
180.0
1001
ACAD
1000
DSTYLE
1002
{
1070
     3
1000
%%C<>
1070
   179
1070
     0
1070
   271
1070
     0
1070
    43
1040
25.0
1070
    44
1040
0.0
1070
    42
1040
25.0
1002
}
  0
MTEXT
  5
2AED
330
A
100
AcDbEntity
  8
Dim
  6
Continuous
100
AcDbMText
 10
580.92754130302
 20
2303.83638902826
 30
0.0
 40
24.4326171875
 41
0.0
 46
0.0
 71
     5
 72
     1
  1
\A1;%%C350
  7
ＭＳ ゴシック
 73
     1
 44
1.0
1001
ACAD
1000
DSTYLE
1002
{
1070
     3
1000
%%C<>
1070
   179
1070
     0
1070
   271
1070
     0
1070
    43
1040
25.0
1070
    44
1040
0.0
1070
    42
1040
25.0
1002
}
  0
LINE
  5
2AEE
330
A
100
AcDbEntity
  8
Dim
  6
Continuous
100
AcDbLine
 10
476.8307598742749
 20
1034.010486865128
 30
0.0
 11
476.8307598742749
 21
979.3390431362159
 31
0.0
1001
ACAD
1000
DSTYLE
1002
{
1070
   179
1070
     0
1070
   271
1070
     0
1070
    43
1040
25.0
1070
    44
1040
0.0
1070
    42
1040
25.0
1002
}
  0
LINE
  5
2AEF
330
A
100
AcDbEntity
  8
Dim
  6
Continuous
100
AcDbLine
 10
691.8307598742749
 20
1034.010486865128
 30
0.0
 11
691.8307598742749
 21
979.3390431362159
 31
0.0
1001
ACAD
1000
DSTYLE
1002
{
1070
   179
1070
     0
1070
   271
1070
     0
1070
    43
1040
25.0
1070
    44
1040
0.0
1070
    42
1040
25.0
1002
}
  0
LINE
  5
2AF0
330
A
100
AcDbEntity
  8
Dim
  6
Continuous
100
AcDbLine
 10
485.8307598742749
 20
979.3390431362159
 30
0.0
 11
682.8307598742749
 21
979.3390431362159
 31
0.0
1001
ACAD
1000
DSTYLE
1002
{
1070
   179
1070
     0
1070
   271
1070
     0
1070
    43
1040
25.0
1070
    44
1040
0.0
1070
    42
1040
25.0
1002
}
  0
INSERT
  5
2AF1
330
A
100
AcDbEntity
  8
Dim
100
AcDbBlockReference
  2
_DOT
 10
476.8307598742749
 20
979.3390431362159
 30
0.0
 41
9.0
 42
9.0
 43
9.0
 50
180.0
1001
ACAD
1000
DSTYLE
1002
{
1070
   179
1070
     0
1070
   271
1070
     0
1070
    43
1040
25.0
1070
    44
1040
0.0
1070
    42
1040
25.0
1002
}
  0
INSERT
  5
2AF2
330
A
100
AcDbEntity
  8
Dim
100
AcDbBlockReference
  2
_DOT
 10
691.8307598742749
 20
979.3390431362159
 30
0.0
 41
9.0
 42
9.0
 43
9.0
1001
ACAD
1000
DSTYLE
1002
{
1070
   179
1070
     0
1070
   271
1070
     0
1070
    43
1040
25.0
1070
    44
1040
0.0
1070
    42
1040
25.0
1002
}
  0
MTEXT
  5
2AF3
330
A
100
AcDbEntity
  8
Dim
  6
Continuous
100
AcDbMText
 10
584.3307598742749
 20
1001.559934564251
 30
0.0
 40
24.4326171875
 41
0.0
 46
0.0
 71
     5
 72
     1
  1
\A1;215
  7
ＭＳ ゴシック
 73
     1
 44
1.0
1001
ACAD
1000
DSTYLE
1002
{
1070
   179
1070
     0
1070
   271
1070
     0
1070
    43
1040
25.0
1070
    44
1040
0.0
1070
    42
1040
25.0
1002
}
  0
LINE
  5
2AF4
330
A
100
AcDbEntity
  8
Dim
  6
Continuous
100
AcDbLine
 10
779.7888771837033
 20
1210.536992806717
 30
0.0
 11
868.5028968290876
 21
1210.536992806717
 31
0.0
1001
ACAD
1000
DSTYLE
1002
{
1070
   179
1070
     0
1070
   271
1070
     0
1070
    43
1040
25.0
1070
    44
1040
0.0
1070
    42
1040
25.0
1002
}
  0
LINE
  5
2AF5
330
A
100
AcDbEntity
  8
Dim
  6
Continuous
100
AcDbLine
 10
721.9452808793521
 20
1060.536992806717
 30
0.0
 11
868.5028968290876
 21
1060.536992806717
 31
0.0
1001
ACAD
1000
DSTYLE
1002
{
1070
   179
1070
     0
1070
   271
1070
     0
1070
    43
1040
25.0
1070
    44
1040
0.0
1070
    42
1040
25.0
1002
}
  0
LINE
  5
2AF6
330
A
100
AcDbEntity
  8
Dim
  6
Continuous
100
AcDbLine
 10
868.5028968290876
 20
1201.536992806717
 30
0.0
 11
868.5028968290876
 21
1069.536992806717
 31
0.0
1001
ACAD
1000
DSTYLE
1002
{
1070
   179
1070
     0
1070
   271
1070
     0
1070
    43
1040
25.0
1070
    44
1040
0.0
1070
    42
1040
25.0
1002
}
  0
INSERT
  5
2AF7
330
A
100
AcDbEntity
  8
Dim
100
AcDbBlockReference
  2
_DOT
 10
868.5028968290876
 20
1210.536992806717
 30
0.0
 41
9.0
 42
9.0
 43
9.0
 50
90.0
1001
ACAD
1000
DSTYLE
1002
{
1070
   179
1070
     0
1070
   271
1070
     0
1070
    43
1040
25.0
1070
    44
1040
0.0
1070
    42
1040
25.0
1002
}
  0
INSERT
  5
2AF8
330
A
100
AcDbEntity
  8
Dim
100
AcDbBlockReference
  2
_DOT
 10
868.5028968290876
 20
1060.536992806717
 30
0.0
 41
9.0
 42
9.0
 43
9.0
 50
270.0
1001
ACAD
1000
DSTYLE
1002
{
1070
   179
1070
     0
1070
   271
1070
     0
1070
    43
1040
25.0
1070
    44
1040
0.0
1070
    42
1040
25.0
1002
}
  0
MTEXT
  5
2AF9
330
A
100
AcDbEntity
  8
Dim
  6
Continuous
100
AcDbMText
 10
846.2820054010522
 20
1135.536992806717
 30
0.0
 40
24.4326171875
 41
0.0
 46
0.0
 71
     5
 72
     1
  1
\A1;150
  7
ＭＳ ゴシック
 11
0.0
 21
1.0
 31
0.0
 73
     1
 44
1.0
1001
ACAD
1000
DSTYLE
1002
{
1070
   179
1070
     0
1070
   271
1070
     0
1070
    43
1040
25.0
1070
    44
1040
0.0
1070
    42
1040
25.0
1002
}
  0
TEXT
  5
2AFA
330
A
100
AcDbEntity
  8
Dim
  6
Continuous
100
AcDbText
 10
414.1808793176439
 20
844.5295154759691
 30
0.0
 40
24.4326171875
  1
カウンター置き
  7
ＭＳ ゴシック
100
AcDbText
  0
TEXT
  5
2AFB
330
A
100
AcDbEntity
  8
Dim
  6
Continuous
100
AcDbText
 10
351.5168572295838
 20
782.3089574002054
 30
0.0
 40
24.4326171875
  1
半埋め込み
  7
ＭＳ ゴシック
100
AcDbText
  0
TEXT
  5
2AFC
330
A
100
AcDbEntity
  8
Dim
  6
Continuous
100
AcDbText
 10
1360.181646807411
 20
2400.05184424868
 30
34.99521132346015
 40
24.0
  1
カウンター切込寸法
  7
ＭＳ ゴシック
100
AcDbText
  0
LINE
  5
2AFD
330
A
100
AcDbEntity
  8
Dim
  6
Continuous
100
AcDbLine
 10
1501.79619310149
 20
954.2482288497847
 30
0.0
 11
1501.79619310149
 21
887.4011141920306
 31
0.0
1001
ACAD
1000
DSTYLE
1002
{
1070
   179
1070
     0
1070
   271
1070
     0
1070
    43
1040
25.0
1070
    44
1040
0.0
1070
    42
1040
25.0
1002
}
  0
LINE
  5
2AFE
330
A
100
AcDbEntity
  8
Dim
  6
Continuous
100
AcDbLine
 10
1676.79619310149
 20
1168.919424785869
 30
0.0
 11
1676.79619310149
 21
887.4011141920306
 31
0.0
1001
ACAD
1000
DSTYLE
1002
{
1070
   179
1070
     0
1070
   271
1070
     0
1070
    43
1040
25.0
1070
    44
1040
0.0
1070
    42
1040
25.0
1002
}
  0
LINE
  5
2AFF
330
A
100
AcDbEntity
  8
Dim
  6
Continuous
100
AcDbLine
 10
1510.79619310149
 20
887.4011141920306
 30
0.0
 11
1667.79619310149
 21
887.4011141920306
 31
0.0
1001
ACAD
1000
DSTYLE
1002
{
1070
   179
1070
     0
1070
   271
1070
     0
1070
    43
1040
25.0
1070
    44
1040
0.0
1070
    42
1040
25.0
1002
}
  0
INSERT
  5
2B00
330
A
100
AcDbEntity
  8
Dim
100
AcDbBlockReference
  2
_DOT
 10
1501.79619310149
 20
887.4011141920306
 30
0.0
 41
9.0
 42
9.0
 43
9.0
 50
180.0
1001
ACAD
1000
DSTYLE
1002
{
1070
   179
1070
     0
1070
   271
1070
     0
1070
    43
1040
25.0
1070
    44
1040
0.0
1070
    42
1040
25.0
1002
}
  0
INSERT
  5
2B01
330
A
100
AcDbEntity
  8
Dim
100
AcDbBlockReference
  2
_DOT
 10
1676.79619310149
 20
887.4011141920306
 30
0.0
 41
9.0
 42
9.0
 43
9.0
1001
ACAD
1000
DSTYLE
1002
{
1070
   179
1070
     0
1070
   271
1070
     0
1070
    43
1040
25.0
1070
    44
1040
0.0
1070
    42
1040
25.0
1002
}
  0
MTEXT
  5
2B02
330
A
100
AcDbEntity
  8
Dim
  6
Continuous
100
AcDbMText
 10
1589.29619310149
 20
909.6220056200661
 30
0.0
 40
24.4326171875
 41
0.0
 46
0.0
 71
     5
 72
     1
  1
\A1;175
  7
ＭＳ ゴシック
 73
     1
 44
1.0
1001
ACAD
1000
DSTYLE
1002
{
1070
   179
1070
     0
1070
   271
1070
     0
1070
    43
1040
25.0
1070
    44
1040
0.0
1070
    42
1040
25.0
1002
}
  0
LINE
  5
2B03
330
A
100
AcDbEntity
  8
Dim
  6
Continuous
100
AcDbLine
 10
1305.767147306618
 20
1210.446178520286
 30
0.0
 11
1246.18542502011
 21
1210.446178520286
 31
0.0
1001
ACAD
1000
DSTYLE
1002
{
1070
   179
1070
     0
1070
   271
1070
     0
1070
    43
1040
25.0
1070
    44
1040
0.0
1070
    42
1040
25.0
1002
}
  0
LINE
  5
2B04
330
A
100
AcDbEntity
  8
Dim
  6
Continuous
100
AcDbLine
 10
1321.761768241476
 20
1135.446178520286
 30
0.0
 11
1246.18542502011
 21
1135.446178520286
 31
0.0
1001
ACAD
1000
DSTYLE
1002
{
1070
   179
1070
     0
1070
   271
1070
     0
1070
    43
1040
25.0
1070
    44
1040
0.0
1070
    42
1040
25.0
1002
}
  0
LINE
  5
2B05
330
A
100
AcDbEntity
  8
Dim
  6
Continuous
100
AcDbLine
 10
1246.18542502011
 20
1201.446178520286
 30
0.0
 11
1246.18542502011
 21
1144.446178520286
 31
0.0
1001
ACAD
1000
DSTYLE
1002
{
1070
   179
1070
     0
1070
   271
1070
     0
1070
    43
1040
25.0
1070
    44
1040
0.0
1070
    42
1040
25.0
1002
}
  0
INSERT
  5
2B06
330
A
100
AcDbEntity
  8
Dim
100
AcDbBlockReference
  2
_DOT
 10
1246.18542502011
 20
1210.446178520286
 30
0.0
 41
9.0
 42
9.0
 43
9.0
 50
90.0
1001
ACAD
1000
DSTYLE
1002
{
1070
   179
1070
     0
1070
   271
1070
     0
1070
    43
1040
25.0
1070
    44
1040
0.0
1070
    42
1040
25.0
1002
}
  0
INSERT
  5
2B07
330
A
100
AcDbEntity
  8
Dim
100
AcDbBlockReference
  2
_DOT
 10
1246.18542502011
 20
1135.446178520286
 30
0.0
 41
9.0
 42
9.0
 43
9.0
 50
270.0
1001
ACAD
1000
DSTYLE
1002
{
1070
   179
1070
     0
1070
   271
1070
     0
1070
    43
1040
25.0
1070
    44
1040
0.0
1070
    42
1040
25.0
1002
}
  0
MTEXT
  5
2B08
330
A
100
AcDbEntity
  8
Dim
  6
Continuous
100
AcDbMText
 10
1223.964533592074
 20
1172.946178520286
 30
0.0
 40
24.4326171875
 41
0.0
 46
0.0
 71
     5
 72
     1
  1
\A1;75
  7
ＭＳ ゴシック
 11
0.0
 21
1.0
 31
0.0
 73
     1
 44
1.0
1001
ACAD
1000
DSTYLE
1002
{
1070
   179
1070
     0
1070
   271
1070
     0
1070
    43
1040
25.0
1070
    44
1040
0.0
1070
    42
1040
25.0
1002
}
  0
LINE
  5
2B09
330
A
100
AcDbEntity
  8
Dim
  6
Continuous
100
AcDbLine
 10
1356.576074794752
 20
1959.585876744915
 30
0.0
 11
1356.576074794752
 21
1697.141553256426
 31
0.0
1001
ACAD
1000
DSTYLE
1002
{
1070
     3
1000
%%c<>
1070
   179
1070
     0
1070
   271
1070
     0
1070
    43
1040
25.0
1070
    44
1040
0.0
1070
    42
1040
25.0
1002
}
  0
LINE
  5
2B0A
330
A
100
AcDbEntity
  8
Dim
  6
Continuous
100
AcDbLine
 10
1647.016311685688
 20
1959.585876744915
 30
0.0
 11
1647.016311685688
 21
1697.141553256426
 31
0.0
1001
ACAD
1000
DSTYLE
1002
{
1070
     3
1000
%%c<>
1070
   179
1070
     0
1070
   271
1070
     0
1070
    43
1040
25.0
1070
    44
1040
0.0
1070
    42
1040
25.0
1002
}
  0
LINE
  5
2B0B
330
A
100
AcDbEntity
  8
Dim
  6
Continuous
100
AcDbLine
 10
1365.576074794752
 20
1697.141553256426
 30
0.0
 11
1638.016311685688
 21
1697.141553256426
 31
0.0
1001
ACAD
1000
DSTYLE
1002
{
1070
     3
1000
%%c<>
1070
   179
1070
     0
1070
   271
1070
     0
1070
    43
1040
25.0
1070
    44
1040
0.0
1070
    42
1040
25.0
1002
}
  0
INSERT
  5
2B0C
330
A
100
AcDbEntity
  8
Dim
100
AcDbBlockReference
  2
_DOT
 10
1356.576074794752
 20
1697.141553256426
 30
0.0
 41
9.0
 42
9.0
 43
9.0
 50
180.0
1001
ACAD
1000
DSTYLE
1002
{
1070
     3
1000
%%c<>
1070
   179
1070
     0
1070
   271
1070
     0
1070
    43
1040
25.0
1070
    44
1040
0.0
1070
    42
1040
25.0
1002
}
  0
INSERT
  5
2B0D
330
A
100
AcDbEntity
  8
Dim
100
AcDbBlockReference
  2
_DOT
 10
1647.016311685688
 20
1697.141553256426
 30
0.0
 41
9.0
 42
9.0
 43
9.0
1001
ACAD
1000
DSTYLE
1002
{
1070
     3
1000
%%c<>
1070
   179
1070
     0
1070
   271
1070
     0
1070
    43
1040
25.0
1070
    44
1040
0.0
1070
    42
1040
25.0
1002
}
  0
MTEXT
  5
2B0E
330
A
100
AcDbEntity
  8
Dim
  6
Continuous
100
AcDbMText
 10
1501.79619324022
 20
1719.362444684461
 30
0.0
 40
24.4326171875
 41
0.0
 46
0.0
 71
     5
 72
     1
  1
\A1;%%C295
  7
ＭＳ ゴシック
 73
     1
 44
1.0
1001
ACAD
1000
DSTYLE
1002
{
1070
     3
1000
%%c<>
1070
   179
1070
     0
1070
   271
1070
     0
1070
    43
1040
25.0
1070
    44
1040
0.0
1070
    42
1040
25.0
1002
}
  0
TEXT
  5
2B0F
330
A
100
AcDbEntity
  8
Dim
  6
Continuous
100
AcDbText
 10
1403.96626071915
 20
2266.658269548814
 30
0.0
 40
24.4326171875
  1
半埋め込み
  7
ＭＳ ゴシック
100
AcDbText
  0
TEXT
  5
2B10
330
A
100
AcDbEntity
  8
Dim
  6
Continuous
100
AcDbText
 10
1482.380472512139
 20
2192.787942548423
 30
0.0
 40
24.4326171875
  1
カウンター置き
  7
ＭＳ ゴシック
100
AcDbText
  0
LINE
  5
2B11
330
A
100
AcDbEntity
  8
Dim
  6
Continuous
100
AcDbLine
 10
1391.806654450419
 20
2079.406348741887
 30
0.0
 11
1406.981852450727
 21
2094.581546742194
 31
0.0
1001
ACAD
1010
0.0
1020
0.0
1030
0.0
  0
LINE
  5
2B12
330
A
100
AcDbEntity
  8
Dim
  6
Continuous
100
AcDbLine
 10
1365.755436186245
 20
2035.394618235574
 30
0.0
 11
1450.987249969513
 21
2120.626432018842
 31
0.0
1001
ACAD
1010
0.0
1020
0.0
1030
0.0
  0
LINE
  5
2B13
330
A
100
AcDbEntity
  8
Dim
  6
Continuous
100
AcDbLine
 10
1358.926400707094
 20
2010.605070514285
 30
0.0
 11
1475.77626468614
 21
2127.454934493331
 31
0.0
1001
ACAD
1010
0.0
1020
0.0
1030
0.0
  0
LINE
  5
2B14
330
A
100
AcDbEntity
  8
Dim
  6
Continuous
100
AcDbLine
 10
1356.693769278975
 20
1990.411926844028
 30
0.0
 11
1495.970931548333
 21
2129.689089113385
 31
0.0
1001
ACAD
1010
0.0
1020
0.0
1030
0.0
  0
LINE
  5
2B15
330
A
100
AcDbEntity
  8
Dim
  6
Continuous
100
AcDbLine
 10
1357.054614376323
 20
1972.812259699237
 30
0.0
 11
1513.56984677404
 21
2129.327492096954
 31
0.0
1001
ACAD
1010
0.0
1020
0.0
1030
0.0
  0
LINE
  5
2B16
330
A
100
AcDbEntity
  8
Dim
  6
Continuous
100
AcDbLine
 10
1359.218326487534
 20
1957.01545956831
 30
0.0
 11
1529.366800182003
 21
2127.163933262778
 31
0.0
1001
ACAD
1010
0.0
1020
0.0
1030
0.0
  0
LINE
  5
2B17
330
A
100
AcDbEntity
  8
Dim
  6
Continuous
100
AcDbLine
 10
1362.774862845282
 20
1942.61148368392
 30
0.0
 11
1543.770105759475
 21
2123.606726598113
 31
0.0
1001
ACAD
1010
0.0
1020
0.0
1030
0.0
  0
LINE
  5
2B18
330
A
100
AcDbEntity
  8
Dim
  6
Continuous
100
AcDbLine
 10
1367.486806560801
 20
1929.3629151573
 30
0.0
 11
1557.01920182478
 21
2118.89531042128
 31
0.0
1001
ACAD
1010
0.0
1020
0.0
1030
0.0
  0
LINE
  5
2B19
330
A
100
AcDbEntity
  8
Dim
  6
Continuous
100
AcDbLine
 10
1373.201380090392
 20
1917.116976444753
 30
0.0
 11
1569.264835802521
 21
2113.180432156882
 31
0.0
1001
ACAD
1010
0.0
1020
0.0
1030
0.0
  0
LINE
  5
2B1A
330
A
100
AcDbEntity
  8
Dim
  6
Continuous
100
AcDbLine
 10
1379.821827851719
 20
1905.776911963942
 30
0.0
 11
1580.605138921675
 21
2106.560223033898
 31
0.0
1001
ACAD
1010
0.0
1020
0.0
1030
0.0
  0
LINE
  5
2B1B
330
A
100
AcDbEntity
  8
Dim
  6
Continuous
100
AcDbLine
 10
1387.284466362173
 20
1895.279038232258
 30
0.0
 11
1591.103583554474
 21
2099.098155424558
 31
0.0
1001
ACAD
1010
0.0
1020
0.0
1030
0.0
  0
LINE
  5
2B1C
330
A
100
AcDbEntity
  8
Dim
  6
Continuous
100
AcDbLine
 10
1395.552335731713
 20
1885.586395359659
 30
0.0
 11
1600.795482054641
 21
2090.829541682587
 31
0.0
1001
ACAD
1010
0.0
1020
0.0
1030
0.0
  0
LINE
  5
2B1D
330
A
100
AcDbEntity
  8
Dim
  6
Continuous
100
AcDbLine
 10
1404.608517567877
 20
1876.682064953685
 30
0.0
 11
1609.700399573094
 21
2081.773946958901
 31
0.0
1001
ACAD
1010
0.0
1020
0.0
1030
0.0
  0
LINE
  5
2B1E
330
A
100
AcDbEntity
  8
Dim
  6
Continuous
100
AcDbLine
 10
1414.454965577016
 20
1868.568000720685
 30
0.0
 11
1617.813918504244
 21
2071.926953647914
 31
0.0
1001
ACAD
1010
0.0
1020
0.0
1030
0.0
  0
LINE
  5
2B1F
330
A
100
AcDbEntity
  8
Dim
  6
Continuous
100
AcDbLine
 10
1425.112072755227
 20
1861.264595656758
 30
0.0
 11
1625.117848343991
 21
2061.270371245522
 31
0.0
1001
ACAD
1010
0.0
1020
0.0
1030
0.0
  0
LINE
  5
2B20
330
A
100
AcDbEntity
  8
Dim
  6
Continuous
100
AcDbLine
 10
1436.621438785734
 20
1854.813449445127
 30
0.0
 11
1631.569154642842
 21
2049.761165302235
 31
0.0
1001
ACAD
1010
0.0
1020
0.0
1030
0.0
  0
LINE
  5
2B21
330
A
100
AcDbEntity
  8
Dim
  6
Continuous
100
AcDbLine
 10
1449.052274296579
 20
1849.283772713834
 30
0.0
 11
1637.098399146324
 21
2037.329897563579
 31
0.0
1001
ACAD
1010
0.0
1020
0.0
1030
0.0
  0
LINE
  5
2B22
330
A
100
AcDbEntity
  8
Dim
  6
Continuous
100
AcDbLine
 10
1462.510601730147
 20
1844.781587905264
 30
0.0
 11
1641.600923522155
 21
2023.871909697272
 31
0.0
1001
ACAD
1010
0.0
1020
0.0
1030
0.0
  0
LINE
  5
2B23
330
A
100
AcDbEntity
  8
Dim
  6
Continuous
100
AcDbLine
 10
1477.160497495555
 20
1841.470971428533
 30
0.0
 11
1644.910556370765
 21
2009.221030303743
 31
0.0
1001
ACAD
1010
0.0
1020
0.0
1030
0.0
  0
LINE
  5
2B24
330
A
100
AcDbEntity
  8
Dim
  6
Continuous
100
AcDbLine
 10
1493.267503343029
 20
1839.617465033869
 30
0.0
 11
1646.76474953596
 21
1993.1147112268
 31
0.0
1001
ACAD
1010
0.0
1020
0.0
1030
0.0
  0
LINE
  5
2B25
330
A
100
AcDbEntity
  8
Dim
  6
Continuous
100
AcDbLine
 10
1511.287437604314
 20
1839.676887053015
 30
0.0
 11
1646.704747536769
 21
1975.09419698547
 31
0.0
1001
ACAD
1010
0.0
1020
0.0
1030
0.0
  0
LINE
  5
2B26
330
A
100
AcDbEntity
  8
Dim
  6
Continuous
100
AcDbLine
 10
1532.143812683178
 20
1842.572749889741
 30
0.0
 11
1643.808767236591
 21
1954.237704443154
 31
0.0
1001
ACAD
1010
0.0
1020
0.0
1030
0.0
  0
LINE
  5
2B27
330
A
100
AcDbEntity
  8
Dim
  6
Continuous
100
AcDbLine
 10
1558.372371872759
 20
1850.840796837183
 30
0.0
 11
1635.541099850504
 21
1928.009524814928
 31
0.0
1001
ACAD
1010
0.0
1020
0.0
1030
0.0
  0
TEXT
  5
2B28
330
A
100
AcDbEntity
  8
Dim
  6
Continuous
100
AcDbText
 10
1671.726273869028
 20
2115.017184504179
 30
0.0
 40
24.4326171875
  1
∅100
  7
ＭＳ ゴシック
100
AcDbText
  0
LINE
  5
2B29
330
A
100
AcDbEntity
  8
Dim
  6
Continuous
100
AcDbLine
 10
1455.382021182301
 20
2003.17764456752
 30
0.0
 11
1483.205437740333
 21
2031.001061125552
 31
0.0
1001
ACAD
1010
0.0
1020
0.0
1030
0.0
  0
LINE
  5
2B2A
330
A
100
AcDbEntity
  8
Dim
  6
Continuous
100
AcDbLine
 10
1452.214190211648
 20
1991.029557475798
 30
0.0
 11
1495.352658148372
 21
2034.168025412521
 31
0.0
1001
ACAD
1010
0.0
1020
0.0
1030
0.0
  0
LINE
  5
2B2B
330
A
100
AcDbEntity
  8
Dim
  6
Continuous
100
AcDbLine
 10
1451.87904951386
 20
1981.71416065694
 30
0.0
 11
1504.667322070487
 21
2034.502433213567
 31
0.0
1001
ACAD
1010
0.0
1020
0.0
1030
0.0
  0
LINE
  5
2B2C
330
A
100
AcDbEntity
  8
Dim
  6
Continuous
100
AcDbLine
 10
1452.968811377897
 20
1973.823666399908
 30
0.0
 11
1512.558681081677
 21
2033.413536103688
 31
0.0
1001
ACAD
1010
0.0
1020
0.0
1030
0.0
  0
LINE
  5
2B2D
330
A
100
AcDbEntity
  8
Dim
  6
Continuous
100
AcDbLine
 10
1455.028379936296
 20
1966.902978837237
 30
0.0
 11
1519.479642583539
 21
2031.354241484481
 31
0.0
1001
ACAD
1010
0.0
1020
0.0
1030
0.0
  0
LINE
  5
2B2E
330
A
100
AcDbEntity
  8
Dim
  6
Continuous
100
AcDbLine
 10
1457.848327996524
 20
1960.742670776397
 30
0.0
 11
1525.639262792259
 21
2028.533605572132
 31
0.0
1001
ACAD
1010
0.0
1020
0.0
1030
0.0
  0
LINE
  5
2B2F
330
A
100
AcDbEntity
  8
Dim
  6
Continuous
100
AcDbLine
 10
1461.31952067411
 20
1955.233607332913
 30
0.0
 11
1531.148302641279
 21
2025.062389300082
 31
0.0
1001
ACAD
1010
0.0
1020
0.0
1030
0.0
  0
LINE
  5
2B30
330
A
100
AcDbEntity
  8
Dim
  6
Continuous
100
AcDbLine
 10
1465.385781071295
 20
1950.31961160903
 30
0.0
 11
1536.062580140151
 21
2020.996410677885
 31
0.0
1001
ACAD
1010
0.0
1020
0.0
1030
0.0
  0
LINE
  5
2B31
330
A
100
AcDbEntity
  8
Dim
  6
Continuous
100
AcDbLine
 10
1470.025172948103
 20
1945.978747364768
 30
0.0
 11
1540.403783452292
 21
2016.357357868957
 31
0.0
1001
ACAD
1010
0.0
1020
0.0
1030
0.0
  0
LINE
  5
2B32
330
A
100
AcDbEntity
  8
Dim
  6
Continuous
100
AcDbLine
 10
1475.245345470756
 20
1942.218663766352
 30
0.0
 11
1544.16382658882
 21
2011.137144884416
 31
0.0
1001
ACAD
1010
0.0
1020
0.0
1030
0.0
  0
LINE
  5
2B33
330
A
100
AcDbEntity
  8
Dim
  6
Continuous
100
AcDbLine
 10
1481.085133302661
 20
1939.078195477188
 30
0.0
 11
1547.304205145919
 21
2005.297267320446
 31
0.0
1001
ACAD
1010
0.0
1020
0.0
1030
0.0
  0
LINE
  5
2B34
330
A
100
AcDbEntity
  8
Dim
  6
Continuous
100
AcDbLine
 10
1487.624167562131
 20
1936.636973615589
 30
0.0
 11
1549.745266097229
 21
1998.758072150687
 31
0.0
1001
ACAD
1010
0.0
1020
0.0
1030
0.0
  0
LINE
  5
2B35
330
A
100
AcDbEntity
  8
Dim
  6
Continuous
100
AcDbLine
 10
1495.015885726292
 20
1935.04843565868
 30
0.0
 11
1551.33331831743
 21
1991.365868249818
 31
0.0
1001
ACAD
1010
0.0
1020
0.0
1030
0.0
  0
LINE
  5
2B36
330
A
100
AcDbEntity
  8
Dim
  6
Continuous
100
AcDbLine
 10
1503.565002761849
 20
1934.617296573168
 30
0.0
 11
1551.76401867733
 21
1982.816312488649
 31
0.0
1001
ACAD
1010
0.0
1020
0.0
1030
0.0
  0
LINE
  5
2B37
330
A
100
AcDbEntity
  8
Dim
  6
Continuous
100
AcDbLine
 10
1514.035936784919
 20
1936.107974475169
 30
0.0
 11
1550.275168288639
 21
1972.347205978889
 31
0.0
1001
ACAD
1010
0.0
1020
0.0
1030
0.0
  0
LINE
  5
2B38
330
A
100
AcDbEntity
  8
Dim
  6
Continuous
100
AcDbLine
 10
1530.686940001619
 20
1943.7787215708
 30
0.0
 11
1542.603501749807
 21
1955.695283318988
 31
0.0
1001
ACAD
1010
0.0
1020
0.0
1030
0.0
  0
LINE
  5
2B39
330
A
100
AcDbEntity
  8
Dim
  6
Continuous
100
AcDbLine
 10
1697.825238896355
 20
1210.446178520286
 30
0.0
 11
1790.435488627793
 21
1210.446178520286
 31
0.0
1001
ACAD
1000
DSTYLE
1002
{
1070
   179
1070
     0
1070
   271
1070
     0
1070
    43
1040
25.0
1070
    44
1040
0.0
1070
    42
1040
25.0
1002
}
  0
LINE
  5
2B3A
330
A
100
AcDbEntity
  8
Dim
  6
Continuous
100
AcDbLine
 10
1552.23512320608
 20
1065.446178520286
 30
0.0
 11
1790.435488627793
 21
1065.446178520286
 31
0.0
1001
ACAD
1000
DSTYLE
1002
{
1070
   179
1070
     0
1070
   271
1070
     0
1070
    43
1040
25.0
1070
    44
1040
0.0
1070
    42
1040
25.0
1002
}
  0
LINE
  5
2B3B
330
A
100
AcDbEntity
  8
Dim
  6
Continuous
100
AcDbLine
 10
1790.435488627793
 20
1201.446178520286
 30
0.0
 11
1790.435488627793
 21
1074.446178520286
 31
0.0
1001
ACAD
1000
DSTYLE
1002
{
1070
   179
1070
     0
1070
   271
1070
     0
1070
    43
1040
25.0
1070
    44
1040
0.0
1070
    42
1040
25.0
1002
}
  0
INSERT
  5
2B3C
330
A
100
AcDbEntity
  8
Dim
100
AcDbBlockReference
  2
_DOT
 10
1790.435488627793
 20
1210.446178520286
 30
0.0
 41
9.0
 42
9.0
 43
9.0
 50
90.0
1001
ACAD
1000
DSTYLE
1002
{
1070
   179
1070
     0
1070
   271
1070
     0
1070
    43
1040
25.0
1070
    44
1040
0.0
1070
    42
1040
25.0
1002
}
  0
INSERT
  5
2B3D
330
A
100
AcDbEntity
  8
Dim
100
AcDbBlockReference
  2
_DOT
 10
1790.435488627793
 20
1065.446178520286
 30
0.0
 41
9.0
 42
9.0
 43
9.0
 50
270.0
1001
ACAD
1000
DSTYLE
1002
{
1070
   179
1070
     0
1070
   271
1070
     0
1070
    43
1040
25.0
1070
    44
1040
0.0
1070
    42
1040
25.0
1002
}
  0
MTEXT
  5
2B3E
330
A
100
AcDbEntity
  8
Dim
  6
Continuous
100
AcDbMText
 10
1768.214597199758
 20
1137.946178520286
 30
0.0
 40
24.4326171875
 41
0.0
 46
0.0
 71
     5
 72
     1
  1
\A1;145
  7
ＭＳ ゴシック
 11
0.0
 21
1.0
 31
0.0
 73
     1
 44
1.0
1001
ACAD
1000
DSTYLE
1002
{
1070
   179
1070
     0
1070
   271
1070
     0
1070
    43
1040
25.0
1070
    44
1040
0.0
1070
    42
1040
25.0
1002
}
  0
LINE
  5
2B3F
330
A
100
AcDbEntity
  8
Dim
  6
Continuous
100
AcDbLine
 10
1394.29619310149
 20
1034.857050281434
 30
0.0
 11
1394.29619310149
 21
979.2482288497847
 31
0.0
1001
ACAD
1000
DSTYLE
1002
{
1070
   179
1070
     0
1070
   271
1070
     0
1070
    43
1040
25.0
1070
    44
1040
0.0
1070
    42
1040
25.0
1002
}
  0
LINE
  5
2B40
330
A
100
AcDbEntity
  8
Dim
  6
Continuous
100
AcDbLine
 10
1609.29619310149
 20
1034.857050281434
 30
0.0
 11
1609.29619310149
 21
979.2482288497847
 31
0.0
1001
ACAD
1000
DSTYLE
1002
{
1070
   179
1070
     0
1070
   271
1070
     0
1070
    43
1040
25.0
1070
    44
1040
0.0
1070
    42
1040
25.0
1002
}
  0
LINE
  5
2B41
330
A
100
AcDbEntity
  8
Dim
  6
Continuous
100
AcDbLine
 10
1403.29619310149
 20
979.2482288497847
 30
0.0
 11
1600.29619310149
 21
979.2482288497847
 31
0.0
1001
ACAD
1000
DSTYLE
1002
{
1070
   179
1070
     0
1070
   271
1070
     0
1070
    43
1040
25.0
1070
    44
1040
0.0
1070
    42
1040
25.0
1002
}
  0
INSERT
  5
2B42
330
A
100
AcDbEntity
  8
Dim
100
AcDbBlockReference
  2
_DOT
 10
1394.29619310149
 20
979.2482288497847
 30
0.0
 41
9.0
 42
9.0
 43
9.0
 50
180.0
1001
ACAD
1000
DSTYLE
1002
{
1070
   179
1070
     0
1070
   271
1070
     0
1070
    43
1040
25.0
1070
    44
1040
0.0
1070
    42
1040
25.0
1002
}
  0
INSERT
  5
2B43
330
A
100
AcDbEntity
  8
Dim
100
AcDbBlockReference
  2
_DOT
 10
1609.29619310149
 20
979.2482288497847
 30
0.0
 41
9.0
 42
9.0
 43
9.0
1001
ACAD
1000
DSTYLE
1002
{
1070
   179
1070
     0
1070
   271
1070
     0
1070
    43
1040
25.0
1070
    44
1040
0.0
1070
    42
1040
25.0
1002
}
  0
MTEXT
  5
2B44
330
A
100
AcDbEntity
  8
Dim
  6
Continuous
100
AcDbMText
 10
1501.79619310149
 20
1001.46912027782
 30
0.0
 40
24.4326171875
 41
0.0
 46
0.0
 71
     5
 72
     1
  1
\A1;215
  7
ＭＳ ゴシック
 73
     1
 44
1.0
1001
ACAD
1000
DSTYLE
1002
{
1070
   179
1070
     0
1070
   271
1070
     0
1070
    43
1040
25.0
1070
    44
1040
0.0
1070
    42
1040
25.0
1002
}
  0
LINE
  5
2B45
330
A
100
AcDbEntity
  8
Dim
  6
Continuous
100
AcDbLine
 10
420.9275411776334
 20
1931.446439506123
 30
0.0
 11
420.9275411776334
 21
1684.661796693095
 31
0.0
1001
ACAD
1000
DSTYLE
1002
{
1070
   179
1070
     0
1070
   271
1070
     0
1070
    43
1040
25.0
1070
    44
1040
0.0
1070
    42
1040
25.0
1002
}
  0
LINE
  5
2B46
330
A
100
AcDbEntity
  8
Dim
  6
Continuous
100
AcDbLine
 10
740.9275411776334
 20
1931.446439506123
 30
0.0
 11
740.9275411776334
 21
1684.661796693095
 31
0.0
1001
ACAD
1000
DSTYLE
1002
{
1070
   179
1070
     0
1070
   271
1070
     0
1070
    43
1040
25.0
1070
    44
1040
0.0
1070
    42
1040
25.0
1002
}
  0
LINE
  5
2B47
330
A
100
AcDbEntity
  8
Dim
  6
Continuous
100
AcDbLine
 10
429.9275411776334
 20
1684.661796693095
 30
0.0
 11
731.9275411776334
 21
1684.661796693095
 31
0.0
1001
ACAD
1000
DSTYLE
1002
{
1070
   179
1070
     0
1070
   271
1070
     0
1070
    43
1040
25.0
1070
    44
1040
0.0
1070
    42
1040
25.0
1002
}
  0
INSERT
  5
2B48
330
A
100
AcDbEntity
  8
Dim
100
AcDbBlockReference
  2
_DOT
 10
420.9275411776334
 20
1684.661796693095
 30
0.0
 41
9.0
 42
9.0
 43
9.0
 50
180.0
1001
ACAD
1000
DSTYLE
1002
{
1070
   179
1070
     0
1070
   271
1070
     0
1070
    43
1040
25.0
1070
    44
1040
0.0
1070
    42
1040
25.0
1002
}
  0
INSERT
  5
2B49
330
A
100
AcDbEntity
  8
Dim
100
AcDbBlockReference
  2
_DOT
 10
740.9275411776334
 20
1684.661796693095
 30
0.0
 41
9.0
 42
9.0
 43
9.0
1001
ACAD
1000
DSTYLE
1002
{
1070
   179
1070
     0
1070
   271
1070
     0
1070
    43
1040
25.0
1070
    44
1040
0.0
1070
    42
1040
25.0
1002
}
  0
MTEXT
  5
2B4A
330
A
100
AcDbEntity
  8
Dim
  6
Continuous
100
AcDbMText
 10
580.9275411776334
 20
1706.882688121131
 30
0.0
 40
24.4326171875
 41
0.0
 46
0.0
 71
     5
 72
     1
  1
\A1;320
  7
ＭＳ ゴシック
 73
     1
 44
1.0
1001
ACAD
1000
DSTYLE
1002
{
1070
   179
1070
     0
1070
   271
1070
     0
1070
    43
1040
25.0
1070
    44
1040
0.0
1070
    42
1040
25.0
1002
}
  0
VIEWPORT
  5
349
330
B
100
AcDbEntity
 67
     1
  8
0
100
AcDbViewport
 10
202.5
 20
128.5
 30
0.0
 40
486.0
 41
308.4
 68
     1
 69
     1
 12
202.5
 22
128.5
 13
0.0
 23
0.0
 14
0.5
 24
0.5
 15
0.0
 25
0.0
 16
0.0
 26
0.0
 36
1.0
 17
0.0
 27
0.0
 37
0.0
 42
50.0
 43
0.0
 44
0.0
 45
308.4
 50
0.0
 51
0.0
 72
   100
 90
   557152
  1

281
     0
 71
     1
 74
     0
110
0.0
120
0.0
130
0.0
111
1.0
121
0.0
131
0.0
112
0.0
122
1.0
132
0.0
 79
     0
146
0.0
170
     0
 61
     5
348
26C
292
     1
282
     1
141
0.0
142
0.0
 63
   256
  0
VIEWPORT
  5
34A
330
B
100
AcDbEntity
 67
     1
  8
0
100
AcDbViewport
 10
202.5
 20
128.5
 30
0.0
 40
324.0
 41
205.6
 68
     2
 69
     2
 12
986.6781359294573
 22
1427.077061889956
 13
0.0
 23
0.0
 14
0.5
 24
0.5
 15
0.0
 25
0.0
 16
0.0
 26
0.0
 36
1.0
 17
0.0
 27
0.0
 37
0.0
 42
50.0
 43
0.0
 44
0.0
 45
2890.021615685494
 50
0.0
 51
0.0
 72
   100
 90
   557152
  1

281
     0
 71
     1
 74
     0
110
0.0
120
0.0
130
0.0
111
1.0
121
0.0
131
0.0
112
0.0
122
1.0
132
0.0
 79
     0
146
0.0
170
     0
 61
     5
348
26C
292
     1
282
     1
141
0.0
142
0.0
 63
   256
  0
ENDSEC
  0
SECTION
  2
OBJECTS
  0
DICTIONARY
  5
19
330
0
100
AcDbDictionary
281
     1
  3
ACAD_COLOR
350
38F
  3
ACAD_DETAILVIEWSTYLE
350
8CF
  3
ACAD_FIELDLIST
350
BA6
  3
ACAD_GROUP
350
1A
  3
ACAD_IMAGE_VARS
350
27B
  3
ACAD_LAYOUT
350
1E
  3
ACAD_MATERIAL
350
263
  3
ACAD_MLEADERSTYLE
350
336
  3
ACAD_MLINESTYLE
350
1B
  3
ACAD_PLOTSETTINGS
350
22
  3
ACAD_PLOTSTYLENAME
350
1F
  3
ACAD_SCALELIST
350
241
  3
ACAD_SECTIONVIEWSTYLE
350
8D0
  3
ACAD_TABLESTYLE
350
278
  3
ACAD_VISUALSTYLE
350
267
  3
ACDB_RECOMPOSE_DATA
350
2B50
  3
AcDbVariableDictionary
350
330
  3
APPDATA
350
27A
  3
DimOffsetDictionary
350
C08
  0
SUN
  5
8C2
330
15
100
AcDbSun
 90
        1
290
     0
 63
     7
421
 16777215
 40
1.0
291
     1
 91
  2455826
 92
 54000000
292
     0
 70
     2
 71
   256
280
     1
  0
DICTIONARY
  5
2E1
330
2
100
AcDbDictionary
280
     1
281
     1
  3
ACAD_LAYERSTATES
360
2E2
  3
ACLYDICTIONARY
360
BFE
  0
DICTIONARY
  5
38F
102
{ACAD_REACTORS
330
19
102
}
330
19
100
AcDbDictionary
281
     1
  0
DICTIONARY
  5
8CF
102
{ACAD_REACTORS
330
19
102
}
330
19
100
AcDbDictionary
281
     1
  0
FIELDLIST
  5
BA6
102
{ACAD_REACTORS
330
19
102
}
330
19
100
AcDbIdSet
 90
        2
330
BDF
330
BDE
100
AcDbFieldList
  0
DICTIONARY
  5
1A
102
{ACAD_REACTORS
330
19
102
}
330
19
100
AcDbDictionary
281
     1
  0
RASTERVARIABLES
  5
27B
102
{ACAD_REACTORS
330
19
102
}
330
19
100
AcDbRasterVariables
 90
        0
 70
     1
 71
     1
 72
     1
  0
DICTIONARY
  5
1E
102
{ACAD_REACTORS
330
19
102
}
330
19
100
AcDbDictionary
281
     1
  3
Layout1
350
21
  3
Model
350
20
  0
DICTIONARY
  5
263
102
{ACAD_REACTORS
330
19
102
}
330
19
100
AcDbDictionary
281
     1
  3
ByBlock
350
265
  3
ByLayer
350
264
  3
Global
350
266
  0
DICTIONARY
  5
336
102
{ACAD_REACTORS
330
19
102
}
330
19
100
AcDbDictionary
281
     1
  3
Standard
350
8D1
  0
DICTIONARY
  5
1B
102
{ACAD_REACTORS
330
19
102
}
330
19
100
AcDbDictionary
281
     1
  3
Standard
350
1C
  0
DICTIONARY
  5
22
102
{ACAD_REACTORS
330
19
102
}
330
19
100
AcDbDictionary
281
     1
  0
ACDBDICTIONARYWDFLT
  5
1F
102
{ACAD_REACTORS
330
19
102
}
330
19
100
AcDbDictionary
281
     1
  3
Normal
350
1D
100
AcDbDictionaryWithDefault
340
1D
  0
DICTIONARY
  5
241
102
{ACAD_REACTORS
330
19
102
}
330
19
100
AcDbDictionary
281
     1
  3
A0
350
242
  3
A1
350
243
  3
A2
350
244
  3
A3
350
245
  3
A4
350
246
  3
A5
350
247
  3
A6
350
248
  3
A7
350
249
  3
A8
350
24A
  3
A9
350
24B
  3
B0
350
24C
  3
B1
350
24D
  3
B2
350
24E
  3
B3
350
24F
  3
B4
350
250
  3
B5
350
251
  3
B6
350
252
  3
B7
350
253
  3
B8
350
254
  3
B9
350
255
  3
C0
350
256
  3
C1
350
257
  3
C2
350
258
  3
C3
350
259
  3
C4
350
25A
  3
C5
350
25B
  3
C6
350
25C
  3
C7
350
25D
  3
C8
350
25E
  3
C9
350
25F
  3
D0
350
260
  3
D1
350
261
  3
D2
350
262
  0
DICTIONARY
  5
8D0
102
{ACAD_REACTORS
330
19
102
}
330
19
100
AcDbDictionary
281
     1
  0
DICTIONARY
  5
278
102
{ACAD_REACTORS
330
19
102
}
330
19
100
AcDbDictionary
281
     1
  3
Standard
350
279
  0
DICTIONARY
  5
267
102
{ACAD_REACTORS
330
19
102
}
330
19
100
AcDbDictionary
281
     1
  3
2dWireframe
350
26C
  3
3D Hidden
350
26E
  3
3dWireframe
350
26D
  3
Basic
350
26F
  3
Brighten
350
273
  3
ColorChange
350
277
  3
Conceptual
350
271
  3
Dim
350
272
  3
EdgeColorOff
350
8BC
  3
Facepattern
350
276
  3
Flat
350
268
  3
FlatWithEdges
350
269
  3
Gouraud
350
26A
  3
GouraudWithEdges
350
26B
  3
Hidden
350
8B9
  3
JitterOff
350
8BA
  3
Linepattern
350
275
  3
OverhangOff
350
8BB
  3
Realistic
350
270
  3
Shaded
350
8C1
  3
Shaded with edges
350
8C0
  3
Shades of Gray
350
8BD
  3
Sketchy
350
8BE
  3
Thicken
350
274
  3
Wireframe
350
8B8
  3
X-Ray
350
8BF
  0
XRECORD
  5
2B50
102
{ACAD_REACTORS
330
19
102
}
330
19
100
AcDbXrecord
280
     1
 90
        1
330
279
  0
DICTIONARY
  5
330
102
{ACAD_REACTORS
330
19
102
}
330
19
100
AcDbDictionary
281
     1
  3
CANNOSCALE
350
331
  3
CMLEADERSTYLE
350
8DA
  3
CTABLESTYLE
350
335
  3
HPTRANSPARENCY
350
C07
  3
XCLIPFRAME
350
64A
  0
DICTIONARY
  5
27A
102
{ACAD_REACTORS
330
19
102
}
330
19
100
AcDbDictionary
281
     1
  0
DICTIONARY
  5
C08
102
{ACAD_REACTORS
330
19
102
}
330
19
100
AcDbDictionary
281
     1
  3
DIMRAILANGLE
350
C0B
  3
DIMRAILFIRSTOFFSET
350
C09
  3
DIMRAILOFFSET
350
C0A
  3
DIMRAILSENABLED
350
C0C
  0
DICTIONARY
  5
2E2
102
{ACAD_REACTORS
330
2E1
102
}
330
2E1
100
AcDbDictionary
281
     1
  0
DICTIONARY
  5
BFE
102
{ACAD_REACTORS
330
2E1
102
}
330
2E1
100
AcDbDictionary
281
     1
1001
ACAD
1000
<All
  0
LAYOUT
  5
21
102
{ACAD_REACTORS
330
1E
102
}
330
1E
100
AcDbPlotSettings
  1

  2
none_device
  4
ISO_A3_(420.00_x_297.00_MM)
  6

 40
7.5
 41
20.0
 42
7.5
 43
20.0
 44
420.0
 45
297.0
 46
0.0
 47
0.0
 48
0.0
 49
0.0
140
0.0
141
0.0
142
1.0
143
1.0
 70
     0
 72
     1
 73
     0
 74
     0
  7

 75
     0
 76
     0
 77
     2
 78
   300
147
1.0
148
0.0
149
0.0
100
AcDbLayout
  1
Layout1
 70
     0
 71
     0
 10
0.0
 20
0.0
 11
0.0
 21
0.0
 12
0.0
 22
0.0
 32
0.0
 14
0.0
 24
0.0
 34
0.0
 15
0.0
 25
0.0
 35
0.0
146
0.0
 13
0.0
 23
0.0
 33
0.0
 16
0.0
 26
0.0
 36
0.0
 17
0.0
 27
0.0
 37
0.0
 76
     0
330
B
331
349
  0
LAYOUT
  5
20
102
{ACAD_REACTORS
330
1E
102
}
330
1E
100
AcDbPlotSettings
  1

  2
none_device
  4
ISO_A3_(420.00_x_297.00_MM)
  6

 40
7.5
 41
20.0
 42
7.5
 43
20.0
 44
420.0
 45
297.0
 46
0.0
 47
0.0
 48
0.0
 49
0.0
140
0.0
141
0.0
142
1.0
143
1.0
 70
  1024
 72
     1
 73
     0
 74
     0
  7

 75
     0
 76
     0
 77
     2
 78
   300
147
1.0
148
0.0
149
0.0
100
AcDbLayout
  1
Model
 70
     0
 71
     1
 10
0.0
 20
0.0
 11
2100.0
 21
2970.0
 12
0.0
 22
0.0
 32
0.0
 14
0.0
 24
0.0
 34
0.0
 15
2100.0
 25
2970.0
 35
34.99521132346015
146
0.0
 13
0.0
 23
0.0
 33
0.0
 16
0.0
 26
0.0
 36
0.0
 17
0.0
 27
0.0
 37
0.0
 76
     0
330
A
331
15
  0
MATERIAL
  5
265
102
{ACAD_REACTORS
330
263
102
}
330
263
100
AcDbMaterial
  1
ByBlock
 72
     1
 94
      127
  0
MATERIAL
  5
264
102
{ACAD_REACTORS
330
263
102
}
330
263
100
AcDbMaterial
  1
ByLayer
 72
     1
 94
      127
  0
MATERIAL
  5
266
102
{ACAD_REACTORS
330
263
102
}
330
263
100
AcDbMaterial
  1
Global
 72
     1
 94
      127
  0
MLEADERSTYLE
  5
8D1
102
{ACAD_REACTORS
330
336
102
}
330
336
100
AcDbMLeaderStyle
170
     2
171
     1
172
     0
 90
        2
 40
0.0
 41
0.0
173
     1
 91
-1056964608
340
11
 92
       -2
290
     1
 42
2.0
291
     1
 43
8.0
  3
Standard
341
0
 44
4.0
300

342
17
174
     1
178
     6
175
     1
176
     0
 93
-1056964608
 45
4.0
292
     0
297
     0
 46
4.0
343
0
 94
-1056964608
 47
1.0
 49
1.0
140
1.0
293
     1
141
0.0
294
     1
177
     0
142
1.0
295
     0
296
     0
143
3.75
1001
ACAD_MLEADERVER
1070
     2
  0
MLINESTYLE
  5
1C
102
{ACAD_REACTORS
330
1B
102
}
330
1B
100
AcDbMlineStyle
  2
Standard
 70
     0
  3

 62
     0
 51
90.0
 52
90.0
 71
     2
 49
0.5
 62
   256
  6
BYLAYER
 49
-0.5
 62
   256
  6
BYLAYER
  0
ACDBPLACEHOLDER
  5
1D
102
{ACAD_REACTORS
330
1F
102
}
330
1F
  0
SCALE
  5
242
102
{ACAD_REACTORS
330
241
102
}
330
241
100
AcDbScale
 70
     0
300
1:1
140
1.0
141
1.0
290
     1
  0
SCALE
  5
243
102
{ACAD_REACTORS
330
241
102
}
330
241
100
AcDbScale
 70
     0
300
1:2
140
1.0
141
2.0
290
     0
  0
SCALE
  5
244
102
{ACAD_REACTORS
330
241
102
}
330
241
100
AcDbScale
 70
     0
300
1:4
140
1.0
141
4.0
290
     0
  0
SCALE
  5
245
102
{ACAD_REACTORS
330
241
102
}
330
241
100
AcDbScale
 70
     0
300
1:5
140
1.0
141
5.0
290
     0
  0
SCALE
  5
246
102
{ACAD_REACTORS
330
241
102
}
330
241
100
AcDbScale
 70
     0
300
1:8
140
1.0
141
8.0
290
     0
  0
SCALE
  5
247
102
{ACAD_REACTORS
330
241
102
}
330
241
100
AcDbScale
 70
     0
300
1:10
140
1.0
141
10.0
290
     0
  0
SCALE
  5
248
102
{ACAD_REACTORS
330
241
102
}
330
241
100
AcDbScale
 70
     0
300
1:16
140
1.0
141
16.0
290
     0
  0
SCALE
  5
249
102
{ACAD_REACTORS
330
241
102
}
330
241
100
AcDbScale
 70
     0
300
1:20
140
1.0
141
20.0
290
     0
  0
SCALE
  5
24A
102
{ACAD_REACTORS
330
241
102
}
330
241
100
AcDbScale
 70
     0
300
1:30
140
1.0
141
30.0
290
     0
  0
SCALE
  5
24B
102
{ACAD_REACTORS
330
241
102
}
330
241
100
AcDbScale
 70
     0
300
1:40
140
1.0
141
40.0
290
     0
  0
SCALE
  5
24C
102
{ACAD_REACTORS
330
241
102
}
330
241
100
AcDbScale
 70
     0
300
1:50
140
1.0
141
50.0
290
     0
  0
SCALE
  5
24D
102
{ACAD_REACTORS
330
241
102
}
330
241
100
AcDbScale
 70
     0
300
1:100
140
1.0
141
100.0
290
     0
  0
SCALE
  5
24E
102
{ACAD_REACTORS
330
241
102
}
330
241
100
AcDbScale
 70
     0
300
2:1
140
2.0
141
1.0
290
     0
  0
SCALE
  5
24F
102
{ACAD_REACTORS
330
241
102
}
330
241
100
AcDbScale
 70
     0
300
4:1
140
4.0
141
1.0
290
     0
  0
SCALE
  5
250
102
{ACAD_REACTORS
330
241
102
}
330
241
100
AcDbScale
 70
     0
300
8:1
140
8.0
141
1.0
290
     0
  0
SCALE
  5
251
102
{ACAD_REACTORS
330
241
102
}
330
241
100
AcDbScale
 70
     0
300
10:1
140
10.0
141
1.0
290
     0
  0
SCALE
  5
252
102
{ACAD_REACTORS
330
241
102
}
330
241
100
AcDbScale
 70
     0
300
100:1
140
100.0
141
1.0
290
     0
  0
SCALE
  5
253
102
{ACAD_REACTORS
330
241
102
}
330
241
100
AcDbScale
 70
     0
300
1/128" = 1'-0"
140
0.0078125
141
12.0
290
     0
  0
SCALE
  5
254
102
{ACAD_REACTORS
330
241
102
}
330
241
100
AcDbScale
 70
     0
300
1/64" = 1'-0"
140
0.015625
141
12.0
290
     0
  0
SCALE
  5
255
102
{ACAD_REACTORS
330
241
102
}
330
241
100
AcDbScale
 70
     0
300
1/32" = 1'-0"
140
0.03125
141
12.0
290
     0
  0
SCALE
  5
256
102
{ACAD_REACTORS
330
241
102
}
330
241
100
AcDbScale
 70
     0
300
1/16" = 1'-0"
140
0.0625
141
12.0
290
     0
  0
SCALE
  5
257
102
{ACAD_REACTORS
330
241
102
}
330
241
100
AcDbScale
 70
     0
300
3/32" = 1'-0"
140
0.09375
141
12.0
290
     0
  0
SCALE
  5
258
102
{ACAD_REACTORS
330
241
102
}
330
241
100
AcDbScale
 70
     0
300
1/8" = 1'-0"
140
0.125
141
12.0
290
     0
  0
SCALE
  5
259
102
{ACAD_REACTORS
330
241
102
}
330
241
100
AcDbScale
 70
     0
300
3/16" = 1'-0"
140
0.1875
141
12.0
290
     0
  0
SCALE
  5
25A
102
{ACAD_REACTORS
330
241
102
}
330
241
100
AcDbScale
 70
     0
300
1/4" = 1'-0"
140
0.25
141
12.0
290
     0
  0
SCALE
  5
25B
102
{ACAD_REACTORS
330
241
102
}
330
241
100
AcDbScale
 70
     0
300
3/8" = 1'-0"
140
0.375
141
12.0
290
     0
  0
SCALE
  5
25C
102
{ACAD_REACTORS
330
241
102
}
330
241
100
AcDbScale
 70
     0
300
1/2" = 1'-0"
140
0.5
141
12.0
290
     0
  0
SCALE
  5
25D
102
{ACAD_REACTORS
330
241
102
}
330
241
100
AcDbScale
 70
     0
300
3/4" = 1'-0"
140
0.75
141
12.0
290
     0
  0
SCALE
  5
25E
102
{ACAD_REACTORS
330
241
102
}
330
241
100
AcDbScale
 70
     0
300
1" = 1'-0"
140
1.0
141
12.0
290
     0
  0
SCALE
  5
25F
102
{ACAD_REACTORS
330
241
102
}
330
241
100
AcDbScale
 70
     0
300
1-1/2" = 1'-0"
140
1.5
141
12.0
290
     0
  0
SCALE
  5
260
102
{ACAD_REACTORS
330
241
102
}
330
241
100
AcDbScale
 70
     0
300
3" = 1'-0"
140
3.0
141
12.0
290
     0
  0
SCALE
  5
261
102
{ACAD_REACTORS
330
241
102
}
330
241
100
AcDbScale
 70
     0
300
6" = 1'-0"
140
6.0
141
12.0
290
     0
  0
SCALE
  5
262
102
{ACAD_REACTORS
330
241
102
}
330
241
100
AcDbScale
 70
     0
300
1'-0" = 1'-0"
140
12.0
141
12.0
290
     0
  0
TABLESTYLE
  5
279
102
{ACAD_REACTORS
330
278
102
}
102
{ACAD_XDICTIONARY
360
2B4E
102
}
330
278
100
AcDbTableStyle
  3
Standard
 70
     0
 71
     0
 40
0.06
 41
0.06
280
     0
281
     0
  7
Standard
140
4.5
170
     2
 62
     0
 63
   257
283
     0
 90
        4
 91
        0
  1

274
    -2
284
     1
 64
     0
275
    -2
285
     1
 65
     0
276
    -2
286
     1
 66
     0
277
    -2
287
     1
 67
     0
278
    -2
288
     1
 68
     0
279
    -2
289
     1
 69
     0
  7
Standard
140
6.0
170
     5
 62
     0
 63
   257
283
     0
 90
        4
 91
        0
  1

274
    -2
284
     1
 64
     0
275
    -2
285
     1
 65
     0
276
    -2
286
     1
 66
     0
277
    -2
287
     1
 67
     0
278
    -2
288
     1
 68
     0
279
    -2
289
     1
 69
     0
  7
Standard
140
4.5
170
     5
 62
     0
 63
   257
283
     0
 90
        4
 91
        0
  1

274
    -2
284
     1
 64
     0
275
    -2
285
     1
 65
     0
276
    -2
286
     1
 66
     0
277
    -2
287
     1
 67
     0
278
    -2
288
     1
 68
     0
279
    -2
289
     1
 69
     0
  0
VISUALSTYLE
  5
26C
102
{ACAD_REACTORS
330
267
102
}
330
267
100
AcDbVisualStyle
  2
2dWireframe
 70
     4
 71
     0
 72
     2
 73
     0
 90
        0
 40
-0.6
 41
-30.0
 62
     5
 63
     7
421
 16777215
 74
     1
 91
        4
 64
     7
 65
   257
 75
     1
175
     1
 42
1.0
 92
        0
 66
   257
 43
1.0
 76
     1
 77
     6
 78
     2
 67
     7
 79
     5
170
     0
171
     0
290
     0
174
     0
 93
        1
 44
0.0
173
     0
291
     0
 45
0.0
  0
VISUALSTYLE
  5
26E
102
{ACAD_REACTORS
330
267
102
}
330
267
100
AcDbVisualStyle
  2
3D Hidden
 70
     6
 71
     1
 72
     2
 73
     2
 90
        0
 40
-0.6
 41
-30.0
 62
     5
 63
     7
421
 16777215
 74
     2
 91
        2
 64
     7
 65
   257
 75
     2
175
     1
 42
40.0
 92
        0
 66
   257
 43
1.0
 76
     1
 77
     6
 78
     2
 67
     7
 79
     3
170
     0
171
     0
290
     0
174
     0
 93
        1
 44
0.0
173
     0
291
     0
 45
0.0
  0
VISUALSTYLE
  5
26D
102
{ACAD_REACTORS
330
267
102
}
330
267
100
AcDbVisualStyle
  2
3dWireframe
 70
     5
 71
     0
 72
     2
 73
     0
 90
        0
 40
-0.6
 41
-30.0
 62
     5
 63
     7
421
 16777215
 74
     1
 91
        4
 64
     7
 65
   257
 75
     1
175
     1
 42
1.0
 92
        0
 66
   257
 43
1.0
 76
     1
 77
     6
 78
     2
 67
     7
 79
     5
170
     0
171
     0
290
     0
174
     0
 93
        1
 44
0.0
173
     0
291
     0
 45
0.0
  0
VISUALSTYLE
  5
26F
102
{ACAD_REACTORS
330
267
102
}
330
267
100
AcDbVisualStyle
  2
Basic
 70
     7
 71
     1
 72
     0
 73
     1
 90
        0
 40
-0.6
 41
-30.0
 62
     5
 63
     7
421
 16777215
 74
     0
 91
        4
 64
     7
 65
   257
 75
     1
175
     1
 42
1.0
 92
        8
 66
     7
 43
1.0
 76
     1
 77
     6
 78
     2
 67
     7
 79
     5
170
     0
171
     0
290
     0
174
     0
 93
        1
 44
0.0
173
     0
291
     1
 45
0.0
  0
VISUALSTYLE
  5
273
102
{ACAD_REACTORS
330
267
102
}
330
267
100
AcDbVisualStyle
  2
Brighten
 70
    12
 71
     2
 72
     2
 73
     0
 90
        0
 40
-0.6
 41
-30.0
 62
     5
 63
     7
421
 16777215
 74
     1
 91
        4
 64
     7
 65
   257
 75
     1
175
     1
 42
1.0
 92
        8
 66
     7
 43
1.0
 76
     1
 77
     6
 78
     2
 67
     7
 79
     5
170
     0
171
     0
290
     0
174
     0
 93
        1
 44
50.0
173
     0
291
     1
 45
0.0
  0
VISUALSTYLE
  5
277
102
{ACAD_REACTORS
330
267
102
}
330
267
100
AcDbVisualStyle
  2
ColorChange
 70
    16
 71
     2
 72
     2
 73
     3
 90
        0
 40
-0.6
 41
-30.0
 62
     5
 63
     8
421
  8421504
 74
     1
 91
        4
 64
     7
 65
   257
 75
     1
175
     1
 42
1.0
 92
        8
 66
     8
424
  8421504
 43
1.0
 76
     1
 77
     6
 78
     2
 67
     7
 79
     5
170
     0
171
     0
290
     0
174
     0
 93
        1
 44
0.0
173
     0
291
     1
 45
0.0
  0
VISUALSTYLE
  5
271
102
{ACAD_REACTORS
330
267
102
}
330
267
100
AcDbVisualStyle
  2
Conceptual
 70
     9
 71
     3
 72
     2
 73
     0
 90
        0
 40
-0.6
 41
-30.0
 62
     5
 63
     7
421
 16777215
 74
     2
 91
        2
 64
     7
 65
   257
 75
     1
175
     1
 42
40.0
 92
        8
 66
     7
 43
1.0
 76
     1
 77
     6
 78
     2
 67
     7
 79
     3
170
     0
171
     0
290
     0
174
     0
 93
        1
 44
0.0
173
     0
291
     0
 45
0.0
  0
VISUALSTYLE
  5
272
102
{ACAD_REACTORS
330
267
102
}
330
267
100
AcDbVisualStyle
  2
Dim
 70
    11
 71
     2
 72
     2
 73
     0
 90
        0
 40
-0.6
 41
-30.0
 62
     5
 63
     7
421
 16777215
 74
     1
 91
        4
 64
     7
 65
   257
 75
     1
175
     1
 42
1.0
 92
        8
 66
     7
 43
1.0
 76
     1
 77
     6
 78
     2
 67
     7
 79
     5
170
     0
171
     0
290
     0
174
     0
 93
        1
 44
-50.0
173
     0
291
     1
 45
0.0
  0
VISUALSTYLE
  5
8BC
102
{ACAD_REACTORS
330
267
102
}
330
267
100
AcDbVisualStyle
  2
EdgeColorOff
 70
    22
 71
     2
 72
     2
 73
     0
 90
        0
 40
0.6
 41
30.0
 62
     5
 63
     7
421
 16777215
 74
     1
 91
        4
 64
     7
 65
   257
 75
     1
175
     1
 42
1.0
 92
        8
 66
     7
 43
1.0
 76
     1
 77
     6
 78
     2
 67
     7
 79
     5
170
     0
171
     0
290
     0
174
     0
 93
        1
 44
0.0
173
     0
291
     1
 45
0.0
  0
VISUALSTYLE
  5
276
102
{ACAD_REACTORS
330
267
102
}
330
267
100
AcDbVisualStyle
  2
Facepattern
 70
    15
 71
     2
 72
     2
 73
     0
 90
        0
 40
-0.6
 41
-30.0
 62
     5
 63
     7
421
 16777215
 74
     1
 91
        4
 64
     7
 65
   257
 75
     1
175
     1
 42
1.0
 92
        8
 66
     7
 43
1.0
 76
     1
 77
     6
 78
     2
 67
     7
 79
     5
170
     0
171
     0
290
     0
174
     0
 93
        1
 44
0.0
173
     0
291
     1
 45
0.0
  0
VISUALSTYLE
  5
268
102
{ACAD_REACTORS
330
267
102
}
330
267
100
AcDbVisualStyle
  2
Flat
 70
     0
 71
     2
 72
     1
 73
     1
 90
        2
 40
-0.6
 41
30.0
 62
     5
 63
     7
421
 16777215
 74
     0
 91
        4
 64
     7
 65
   257
 75
     1
175
     1
 42
1.0
 92
        8
 66
     7
 43
1.0
 76
     1
 77
     6
 78
     2
 67
     7
 79
     5
170
     0
171
     0
290
     0
174
     0
 93
       13
 44
0.0
173
     0
291
     1
 45
0.0
  0
VISUALSTYLE
  5
269
102
{ACAD_REACTORS
330
267
102
}
330
267
100
AcDbVisualStyle
  2
FlatWithEdges
 70
     1
 71
     2
 72
     1
 73
     1
 90
        2
 40
-0.6
 41
30.0
 62
     5
 63
     7
421
 16777215
 74
     1
 91
        4
 64
     7
 65
   257
 75
     1
175
     1
 42
1.0
 92
        0
 66
   257
 43
1.0
 76
     1
 77
     6
 78
     2
 67
     7
 79
     5
170
     0
171
     0
290
     0
174
     0
 93
       13
 44
0.0
173
     0
291
     1
 45
0.0
  0
VISUALSTYLE
  5
26A
102
{ACAD_REACTORS
330
267
102
}
330
267
100
AcDbVisualStyle
  2
Gouraud
 70
     2
 71
     2
 72
     2
 73
     1
 90
        2
 40
-0.6
 41
30.0
 62
     5
 63
     7
421
 16777215
 74
     0
 91
        4
 64
     7
 65
   257
 75
     1
175
     1
 42
1.0
 92
        0
 66
     7
 43
1.0
 76
     1
 77
     6
 78
     2
 67
     7
 79
     5
170
     0
171
     0
290
     0
174
     0
 93
       13
 44
0.0
173
     0
291
     1
 45
0.0
  0
VISUALSTYLE
  5
26B
102
{ACAD_REACTORS
330
267
102
}
330
267
100
AcDbVisualStyle
  2
GouraudWithEdges
 70
     3
 71
     2
 72
     2
 73
     1
 90
        2
 40
-0.6
 41
30.0
 62
     5
 63
     7
421
 16777215
 74
     1
 91
        4
 64
     7
 65
   257
 75
     1
175
     1
 42
1.0
 92
        0
 66
   257
 43
1.0
 76
     1
 77
     6
 78
     2
 67
     7
 79
     5
170
     0
171
     0
290
     0
174
     0
 93
       13
 44
0.0
173
     0
291
     1
 45
0.0
  0
VISUALSTYLE
  5
8B9
102
{ACAD_REACTORS
330
267
102
}
330
267
100
AcDbVisualStyle
  2
Hidden
 70
     6
 71
     1
 72
     2
 73
     2
 90
        0
 40
0.6
 41
30.0
 62
     5
 63
     7
421
 16777215
 74
     2
 91
        2
 64
     7
 65
   257
 75
     2
175
     1
 42
40.0
 92
        0
 66
   257
 43
1.0
 76
     1
 77
     6
 78
     2
 67
     7
 79
     3
170
     0
171
     0
290
     0
174
     0
 93
        1
 44
0.0
173
     0
291
     0
 45
0.0
  0
VISUALSTYLE
  5
8BA
102
{ACAD_REACTORS
330
267
102
}
330
267
100
AcDbVisualStyle
  2
JitterOff
 70
    20
 71
     2
 72
     2
 73
     0
 90
        0
 40
0.6
 41
30.0
 62
     5
 63
     7
421
 16777215
 74
     1
 91
        4
 64
     7
 65
   257
 75
     1
175
     1
 42
1.0
 92
       10
 66
     7
 43
1.0
 76
     1
 77
     6
 78
     2
 67
     7
 79
     5
170
     0
171
     0
290
     0
174
     0
 93
        1
 44
0.0
173
     0
291
     1
 45
0.0
  0
VISUALSTYLE
  5
275
102
{ACAD_REACTORS
330
267
102
}
330
267
100
AcDbVisualStyle
  2
Linepattern
 70
    14
 71
     2
 72
     2
 73
     0
 90
        0
 40
-0.6
 41
-30.0
 62
     5
 63
     7
421
 16777215
 74
     1
 91
        4
 64
     7
 65
   257
 75
     7
175
     7
 42
1.0
 92
        8
 66
     7
 43
1.0
 76
     1
 77
     6
 78
     2
 67
     7
 79
     5
170
     0
171
     0
290
     0
174
     0
 93
        1
 44
0.0
173
     0
291
     1
 45
0.0
  0
VISUALSTYLE
  5
8BB
102
{ACAD_REACTORS
330
267
102
}
330
267
100
AcDbVisualStyle
  2
OverhangOff
 70
    21
 71
     2
 72
     2
 73
     0
 90
        0
 40
0.6
 41
30.0
 62
     5
 63
     7
421
 16777215
 74
     1
 91
        4
 64
     7
 65
   257
 75
     1
175
     1
 42
1.0
 92
        9
 66
     7
 43
1.0
 76
     1
 77
     6
 78
     2
 67
     7
 79
     5
170
     0
171
     0
290
     0
174
     0
 93
        1
 44
0.0
173
     0
291
     1
 45
0.0
  0
VISUALSTYLE
  5
270
102
{ACAD_REACTORS
330
267
102
}
330
267
100
AcDbVisualStyle
  2
Realistic
 70
     8
 71
     2
 72
     2
 73
     0
 90
        0
 40
-0.6
 41
-30.0
 62
     5
 63
     7
421
 16777215
 74
     1
 91
        0
 64
     7
 65
   257
 75
     1
175
     1
 42
1.0
 92
        8
 66
     8
424
  7895160
 43
1.0
 76
     1
 77
     6
 78
     2
 67
     7
 79
     5
170
     0
171
     0
290
     0
174
     0
 93
       13
 44
0.0
173
     0
291
     0
 45
0.0
  0
VISUALSTYLE
  5
8C1
102
{ACAD_REACTORS
330
267
102
}
330
267
100
AcDbVisualStyle
  2
Shaded
 70
    27
 71
     2
 72
     2
 73
     1
 90
        2
 40
0.6
 41
30.0
 62
     5
 63
     7
421
 16777215
 74
     0
 91
        4
 64
     7
 65
   257
 75
     1
175
     1
 42
1.0
 92
        8
 66
   257
 43
1.0
 76
     1
 77
     6
 78
     2
 67
     8
425
  7895160
 79
     3
170
     0
171
     0
290
     0
174
     0
 93
        5
 44
0.0
173
     0
291
     0
 45
0.0
  0
VISUALSTYLE
  5
8C0
102
{ACAD_REACTORS
330
267
102
}
330
267
100
AcDbVisualStyle
  2
Shaded with edges
 70
    26
 71
     2
 72
     2
 73
     1
 90
        2
 40
0.6
 41
30.0
 62
     5
 63
     7
421
 16777215
 74
     1
 91
       10
 64
     7
 65
   257
 75
     2
175
     1
 42
1.0
 92
        8
 66
   257
 43
1.0
 76
     1
 77
     6
 78
     2
 67
     7
 79
     3
170
     0
171
     0
290
     0
174
     0
 93
        5
 44
0.0
173
     0
291
     0
 45
0.0
  0
VISUALSTYLE
  5
8BD
102
{ACAD_REACTORS
330
267
102
}
330
267
100
AcDbVisualStyle
  2
Shades of Gray
 70
    23
 71
     2
 72
     2
 73
     3
 90
        0
 40
0.6
 41
30.0
 62
     5
 63
     7
421
 16777215
 74
     2
 91
        2
 64
     7
 65
     7
 75
     1
175
     1
 42
40.0
 92
        8
 66
     7
 43
1.0
 76
     1
 77
     6
 78
     2
 67
     7
 79
     3
170
     0
171
     0
290
     0
174
     0
 93
        1
 44
0.0
173
     0
291
     0
 45
0.0
  0
VISUALSTYLE
  5
8BE
102
{ACAD_REACTORS
330
267
102
}
330
267
100
AcDbVisualStyle
  2
Sketchy
 70
    24
 71
     1
 72
     2
 73
     2
 90
        0
 40
0.6
 41
30.0
 62
     5
 63
     7
421
 16777215
 74
     2
 91
        2
 64
     7
 65
     7
 75
     1
175
     1
 42
40.0
 92
       11
 66
     7
 43
1.0
 76
     1
 77
     6
 78
     2
 67
     7
 79
     6
170
     0
171
     0
290
     0
174
     0
 93
        1
 44
0.0
173
     0
291
     0
 45
0.0
  0
VISUALSTYLE
  5
274
102
{ACAD_REACTORS
330
267
102
}
330
267
100
AcDbVisualStyle
  2
Thicken
 70
    13
 71
     2
 72
     2
 73
     0
 90
        0
 40
-0.6
 41
-30.0
 62
     5
 63
     7
421
 16777215
 74
     1
 91
        4
 64
     7
 65
   257
 75
     1
175
     1
 42
1.0
 92
       12
 66
     7
 43
1.0
 76
     1
 77
     6
 78
     2
 67
     7
 79
     5
170
     0
171
     0
290
     0
174
     0
 93
        1
 44
0.0
173
     0
291
     1
 45
0.0
  0
VISUALSTYLE
  5
8B8
102
{ACAD_REACTORS
330
267
102
}
330
267
100
AcDbVisualStyle
  2
Wireframe
 70
     5
 71
     0
 72
     2
 73
     0
 90
        0
 40
0.6
 41
30.0
 62
     5
 63
     7
421
 16777215
 74
     1
 91
        4
 64
     7
 65
   257
 75
     1
175
     1
 42
1.0
 92
        0
 66
   257
 43
1.0
 76
     1
 77
     6
 78
     2
 67
     7
 79
     3
170
     0
171
     0
290
     0
174
     0
 93
        1
 44
0.0
173
     0
291
     0
 45
0.0
  0
VISUALSTYLE
  5
8BF
102
{ACAD_REACTORS
330
267
102
}
330
267
100
AcDbVisualStyle
  2
X-Ray
 70
    25
 71
     2
 72
     2
 73
     1
 90
        1
 40
0.5
 41
30.0
 62
     5
 63
     7
421
 16777215
 74
     1
 91
        0
 64
     7
 65
   257
 75
     1
175
     1
 42
1.0
 92
        8
 66
     7
 43
1.0
 76
     1
 77
     6
 78
     2
 67
     7
 79
     3
170
     0
171
     0
290
     0
174
     0
 93
       13
 44
0.0
173
     0
291
     0
 45
0.0
  0
DICTIONARYVAR
  5
331
102
{ACAD_REACTORS
330
330
102
}
330
330
100
DictionaryVariables
280
     0
  1
1:1
  0
DICTIONARYVAR
  5
8DA
102
{ACAD_REACTORS
330
330
102
}
330
330
100
DictionaryVariables
280
     0
  1
Standard
  0
DICTIONARYVAR
  5
335
102
{ACAD_REACTORS
330
330
102
}
330
330
100
DictionaryVariables
280
     0
  1
Standard
  0
DICTIONARYVAR
  5
C07
102
{ACAD_REACTORS
330
330
102
}
330
330
100
DictionaryVariables
280
     0
  1
ByLayer
  0
DICTIONARYVAR
  5
64A
102
{ACAD_REACTORS
330
330
102
}
330
330
100
DictionaryVariables
280
     0
  1
0
  0
DICTIONARYVAR
  5
C0B
102
{ACAD_REACTORS
330
C08
102
}
330
C08
100
DictionaryVariables
280
     0
  1
0.261799
  0
DICTIONARYVAR
  5
C09
102
{ACAD_REACTORS
330
C08
102
}
330
C08
100
DictionaryVariables
280
     0
  1
0.400000
  0
DICTIONARYVAR
  5
C0A
102
{ACAD_REACTORS
330
C08
102
}
330
C08
100
DictionaryVariables
280
     0
  1
0.250000
  0
DICTIONARYVAR
  5
C0C
102
{ACAD_REACTORS
330
C08
102
}
330
C08
100
DictionaryVariables
280
     0
  1
1
  0
DICTIONARY
  5
2B4E
330
279
100
AcDbDictionary
280
     1
281
     1
  3
ACAD_ROUNDTRIP_2008_TABLESTYLE_CELLSTYLEMAP
360
2B4F
  0
CELLSTYLEMAP
  5
2B4F
102
{ACAD_REACTORS
330
2B4E
102
}
330
2B4E
100
AcDbCellStyleMap
 90
        3
300
CELLSTYLE
  1
TABLEFORMAT_BEGIN
 90
        5
170
     1
 91
        0
 92
    32768
 62
   257
 93
        1
300
CONTENTFORMAT
  1
CONTENTFORMAT_BEGIN
 90
        0
 91
        0
 92
        4
 93
        0
300

 40
0.0
140
1.0
 94
        5
 62
     0
340
17
144
6.0
309
CONTENTFORMAT_END
171
     1
301
MARGIN
  1
CELLMARGIN_BEGIN
 40
0.06
 40
0.06
 40
0.06
 40
0.06
 40
0.18
 40
0.18
309
CELLMARGIN_END
 94
        6
 95
        1
302
GRIDFORMAT
  1
GRIDFORMAT_BEGIN
 90
        0
 91
        1
 62
     0
 92
       -2
340
0
 93
        0
 40
0.045
309
GRIDFORMAT_END
 95
        2
302
GRIDFORMAT
  1
GRIDFORMAT_BEGIN
 90
        0
 91
        1
 62
     0
 92
       -2
340
0
 93
        0
 40
0.045
309
GRIDFORMAT_END
 95
        4
302
GRIDFORMAT
  1
GRIDFORMAT_BEGIN
 90
        0
 91
        1
 62
     0
 92
       -2
340
0
 93
        0
 40
0.045
309
GRIDFORMAT_END
 95
        8
302
GRIDFORMAT
  1
GRIDFORMAT_BEGIN
 90
        0
 91
        1
 62
     0
 92
       -2
340
0
 93
        0
 40
0.045
309
GRIDFORMAT_END
 95
       16
302
GRIDFORMAT
  1
GRIDFORMAT_BEGIN
 90
        0
 91
        1
 62
     0
 92
       -2
340
0
 93
        0
 40
0.045
309
GRIDFORMAT_END
 95
       32
302
GRIDFORMAT
  1
GRIDFORMAT_BEGIN
 90
        0
 91
        1
 62
     0
 92
       -2
340
0
 93
        0
 40
0.045
309
GRIDFORMAT_END
309
TABLEFORMAT_END
  1
CELLSTYLE_BEGIN
 90
        1
 91
        1
300
_TITLE
309
CELLSTYLE_END
300
CELLSTYLE
  1
TABLEFORMAT_BEGIN
 90
        5
170
     1
 91
        0
 92
        0
 62
   257
 93
        1
300
CONTENTFORMAT
  1
CONTENTFORMAT_BEGIN
 90
        0
 91
        0
 92
        4
 93
        0
300

 40
0.0
140
1.0
 94
        5
 62
     0
340
17
144
4.5
309
CONTENTFORMAT_END
171
     1
301
MARGIN
  1
CELLMARGIN_BEGIN
 40
0.06
 40
0.06
 40
0.06
 40
0.06
 40
0.18
 40
0.18
309
CELLMARGIN_END
 94
        6
 95
        1
302
GRIDFORMAT
  1
GRIDFORMAT_BEGIN
 90
        0
 91
        1
 62
     0
 92
       -2
340
0
 93
        0
 40
0.045
309
GRIDFORMAT_END
 95
        2
302
GRIDFORMAT
  1
GRIDFORMAT_BEGIN
 90
        0
 91
        1
 62
     0
 92
       -2
340
0
 93
        0
 40
0.045
309
GRIDFORMAT_END
 95
        4
302
GRIDFORMAT
  1
GRIDFORMAT_BEGIN
 90
        0
 91
        1
 62
     0
 92
       -2
340
0
 93
        0
 40
0.045
309
GRIDFORMAT_END
 95
        8
302
GRIDFORMAT
  1
GRIDFORMAT_BEGIN
 90
        0
 91
        1
 62
     0
 92
       -2
340
0
 93
        0
 40
0.045
309
GRIDFORMAT_END
 95
       16
302
GRIDFORMAT
  1
GRIDFORMAT_BEGIN
 90
        0
 91
        1
 62
     0
 92
       -2
340
0
 93
        0
 40
0.045
309
GRIDFORMAT_END
 95
       32
302
GRIDFORMAT
  1
GRIDFORMAT_BEGIN
 90
        0
 91
        1
 62
     0
 92
       -2
340
0
 93
        0
 40
0.045
309
GRIDFORMAT_END
309
TABLEFORMAT_END
  1
CELLSTYLE_BEGIN
 90
        2
 91
        1
300
_HEADER
309
CELLSTYLE_END
300
CELLSTYLE
  1
TABLEFORMAT_BEGIN
 90
        5
170
     1
 91
        0
 92
        0
 62
   257
 93
        1
300
CONTENTFORMAT
  1
CONTENTFORMAT_BEGIN
 90
        0
 91
        0
 92
        4
 93
        0
300

 40
0.0
140
1.0
 94
        2
 62
     0
340
17
144
4.5
309
CONTENTFORMAT_END
171
     1
301
MARGIN
  1
CELLMARGIN_BEGIN
 40
0.06
 40
0.06
 40
0.06
 40
0.06
 40
0.18
 40
0.18
309
CELLMARGIN_END
 94
        6
 95
        1
302
GRIDFORMAT
  1
GRIDFORMAT_BEGIN
 90
        0
 91
        1
 62
     0
 92
       -2
340
0
 93
        0
 40
0.045
309
GRIDFORMAT_END
 95
        2
302
GRIDFORMAT
  1
GRIDFORMAT_BEGIN
 90
        0
 91
        1
 62
     0
 92
       -2
340
0
 93
        0
 40
0.045
309
GRIDFORMAT_END
 95
        4
302
GRIDFORMAT
  1
GRIDFORMAT_BEGIN
 90
        0
 91
        1
 62
     0
 92
       -2
340
0
 93
        0
 40
0.045
309
GRIDFORMAT_END
 95
        8
302
GRIDFORMAT
  1
GRIDFORMAT_BEGIN
 90
        0
 91
        1
 62
     0
 92
       -2
340
0
 93
        0
 40
0.045
309
GRIDFORMAT_END
 95
       16
302
GRIDFORMAT
  1
GRIDFORMAT_BEGIN
 90
        0
 91
        1
 62
     0
 92
       -2
340
0
 93
        0
 40
0.045
309
GRIDFORMAT_END
 95
       32
302
GRIDFORMAT
  1
GRIDFORMAT_BEGIN
 90
        0
 91
        1
 62
     0
 92
       -2
340
0
 93
        0
 40
0.045
309
GRIDFORMAT_END
309
TABLEFORMAT_END
  1
CELLSTYLE_BEGIN
 90
        3
 91
        2
300
_DATA
309
CELLSTYLE_END
  0
ENDSEC
  0
EOF
