  0
SECTION
  2
HEADER
  9
$ACADVER
  1
AC1021
  9
$ACADMAINTVER
 70
    25
  9
$DWGCODEPAGE
  3
ANSI_932
  9
$LASTSAVEDBY
  1
Shimosaki
  9
$INSBASE
 10
0.0
 20
0.0
 30
0.0
  9
$EXTMIN
 10
19.99999999965712
 20
27.29576779829503
 30
0.0
  9
$EXTMAX
 10
994.999999999898
 20
1443.973030389223
 30
0.0
  9
$LIMMIN
 10
0.0
 20
0.0
  9
$LIMMAX
 10
1014.999999999657
 20
1463.973030389223
  9
$ORTHOMODE
 70
     1
  9
$REGENMODE
 70
     1
  9
$FILLMODE
 70
     1
  9
$QTEXTMODE
 70
     0
  9
$MIRRTEXT
 70
     1
  9
$LTSCALE
 40
50.8
  9
$ATTMODE
 70
     1
  9
$TEXTSIZE
 40
2.5
  9
$TRACEWID
 40
1.0
  9
$TEXTSTYLE
  7
ＭＳ ゴシック
  9
$CLAYER
  8
MODEL
  9
$CELTYPE
  6
Continuous
  9
$CECOLOR
 62
   256
  9
$CELTSCALE
 40
1.0
  9
$DISPSILH
 70
     0
  9
$DIMSCALE
 40
1.0
  9
$DIMASZ
 40
6.0
  9
$DIMEXO
 40
25.0
  9
$DIMDLI
 40
0.9999999999999999
  9
$DIMRND
 40
0.0
  9
$DIMDLE
 40
0.0
  9
$DIMEXE
 40
0.0
  9
$DIMTP
 40
0.0
  9
$DIMTM
 40
0.0
  9
$DIMTXT
 40
12.0
  9
$DIMCEN
 40
0.0
  9
$DIMTSZ
 40
0.0
  9
$DIMTOL
 70
     0
  9
$DIMLIM
 70
     0
  9
$DIMTIH
 70
     0
  9
$DIMTOH
 70
     0
  9
$DIMSE1
 70
     0
  9
$DIMSE2
 70
     0
  9
$DIMTAD
 70
     1
  9
$DIMZIN
 70
    11
  9
$DIMBLK
  1
DOT
  9
$DIMASO
 70
     1
  9
$DIMSHO
 70
     1
  9
$DIMPOST
  1
<>
  9
$DIMAPOST
  1
[]
  9
$DIMALT
 70
     0
  9
$DIMALTD
 70
     1
  9
$DIMALTF
 40
1.0
  9
$DIMLFAC
 40
1.0
  9
$DIMTOFL
 70
     0
  9
$DIMTVP
 40
0.0
  9
$DIMTIX
 70
     1
  9
$DIMSOXD
 70
     0
  9
$DIMSAH
 70
     0
  9
$DIMBLK1
  1

  9
$DIMBLK2
  1

  9
$DIMSTYLE
  2
tfrom線あり
  9
$DIMCLRD
 70
     0
  9
$DIMCLRE
 70
     0
  9
$DIMCLRT
 70
     0
  9
$DIMTFAC
 40
1.0
  9
$DIMGAP
 40
10.0
  9
$DIMJUST
 70
     0
  9
$DIMSD1
 70
     0
  9
$DIMSD2
 70
     0
  9
$DIMTOLJ
 70
     1
  9
$DIMTZIN
 70
    11
  9
$DIMALTZ
 70
    11
  9
$DIMALTTZ
 70
    11
  9
$DIMUPT
 70
     0
  9
$DIMDEC
 70
     0
  9
$DIMTDEC
 70
     1
  9
$DIMALTU
 70
     2
  9
$DIMALTTD
 70
     2
  9
$DIMTXSTY
  7
ＭＳ ゴシック
  9
$DIMAUNIT
 70
     0
  9
$DIMADEC
 70
     2
  9
$DIMALTRND
 40
0.0
  9
$DIMAZIN
 70
     0
  9
$DIMDSEP
 70
    46
  9
$DIMATFIT
 70
     0
  9
$DIMFRAC
 70
     2
  9
$DIMLDRBLK
  1
DOT
  9
$DIMLUNIT
 70
     2
  9
$DIMLWD
 70
    -2
  9
$DIMLWE
 70
    -2
  9
$DIMTMOVE
 70
     0
  9
$DIMFXL
 40
1.0
  9
$DIMFXLON
 70
     0
  9
$DIMJOGANG
 40
0.7853981633974483
  9
$DIMTFILL
 70
     0
  9
$DIMTFILLCLR
 70
     0
  9
$DIMARCSYM
 70
     0
  9
$DIMLTYPE
  6

  9
$DIMLTEX1
  6

  9
$DIMLTEX2
  6

  9
$LUNITS
 70
     2
  9
$LUPREC
 70
     0
  9
$SKETCHINC
 40
0.1
  9
$FILLETRAD
 40
0.0
  9
$AUNITS
 70
     0
  9
$AUPREC
 70
     0
  9
$MENU
  1
acad
  9
$ELEVATION
 40
0.0
  9
$PELEVATION
 40
0.0
  9
$THICKNESS
 40
0.0
  9
$LIMCHECK
 70
     0
  9
$CHAMFERA
 40
0.0
  9
$CHAMFERB
 40
0.0
  9
$CHAMFERC
 40
0.0
  9
$CHAMFERD
 40
0.0
  9
$SKPOLY
 70
     0
  9
$TDCREATE
 40
2447893.375
  9
$TDUCREATE
 40
0.0
  9
$TDUPDATE
 40
2457183.548939283
  9
$TDUUPDATE
 40
2457183.173939283
  9
$TDINDWG
 40
0.0769974884
  9
$TDUSRTIMER
 40
2457183.173929167
  9
$USRTIMER
 70
     1
  9
$ANGBASE
 50
0.0
  9
$ANGDIR
 70
     0
  9
$PDMODE
 70
     1
  9
$PDSIZE
 40
-2.0
  9
$PLINEWID
 40
0.0
  9
$SPLFRAME
 70
     0
  9
$SPLINETYPE
 70
     6
  9
$SPLINESEGS
 70
     8
  9
$HANDSEED
  5
F05
  9
$SURFTAB1
 70
     6
  9
$SURFTAB2
 70
     6
  9
$SURFTYPE
 70
     6
  9
$SURFU
 70
     6
  9
$SURFV
 70
     6
  9
$UCSBASE
  2

  9
$UCSNAME
  2

  9
$UCSORG
 10
0.0
 20
0.0
 30
0.0
  9
$UCSXDIR
 10
1.0
 20
0.0
 30
0.0
  9
$UCSYDIR
 10
0.0
 20
1.0
 30
0.0
  9
$UCSORTHOREF
  2

  9
$UCSORTHOVIEW
 70
     0
  9
$UCSORGTOP
 10
0.0
 20
0.0
 30
0.0
  9
$UCSORGBOTTOM
 10
0.0
 20
0.0
 30
0.0
  9
$UCSORGLEFT
 10
0.0
 20
0.0
 30
0.0
  9
$UCSORGRIGHT
 10
0.0
 20
0.0
 30
0.0
  9
$UCSORGFRONT
 10
0.0
 20
0.0
 30
0.0
  9
$UCSORGBACK
 10
0.0
 20
0.0
 30
0.0
  9
$PUCSBASE
  2

  9
$PUCSNAME
  2

  9
$PUCSORG
 10
0.0
 20
0.0
 30
0.0
  9
$PUCSXDIR
 10
1.0
 20
0.0
 30
0.0
  9
$PUCSYDIR
 10
0.0
 20
1.0
 30
0.0
  9
$PUCSORTHOREF
  2

  9
$PUCSORTHOVIEW
 70
     0
  9
$PUCSORGTOP
 10
0.0
 20
0.0
 30
0.0
  9
$PUCSORGBOTTOM
 10
0.0
 20
0.0
 30
0.0
  9
$PUCSORGLEFT
 10
0.0
 20
0.0
 30
0.0
  9
$PUCSORGRIGHT
 10
0.0
 20
0.0
 30
0.0
  9
$PUCSORGFRONT
 10
0.0
 20
0.0
 30
0.0
  9
$PUCSORGBACK
 10
0.0
 20
0.0
 30
0.0
  9
$USERI1
 70
     0
  9
$USERI2
 70
     0
  9
$USERI3
 70
     0
  9
$USERI4
 70
     0
  9
$USERI5
 70
     0
  9
$USERR1
 40
0.0
  9
$USERR2
 40
0.0
  9
$USERR3
 40
0.0
  9
$USERR4
 40
0.0
  9
$USERR5
 40
0.0
  9
$WORLDVIEW
 70
     1
  9
$SHADEDGE
 70
     3
  9
$SHADEDIF
 70
    70
  9
$TILEMODE
 70
     1
  9
$MAXACTVP
 70
    64
  9
$PINSBASE
 10
0.0
 20
0.0
 30
0.0
  9
$PLIMCHECK
 70
     0
  9
$PEXTMIN
 10
0.0
 20
0.0
 30
0.0
  9
$PEXTMAX
 10
0.0
 20
0.0
 30
0.0
  9
$PLIMMIN
 10
-7.5
 20
-20.0
  9
$PLIMMAX
 10
412.5
 20
277.0
  9
$UNITMODE
 70
     0
  9
$VISRETAIN
 70
     0
  9
$PLINEGEN
 70
     1
  9
$PSLTSCALE
 70
     0
  9
$TREEDEPTH
 70
  3020
  9
$CMLSTYLE
  2
Standard
  9
$CMLJUST
 70
     0
  9
$CMLSCALE
 40
1.0
  9
$PROXYGRAPHICS
 70
     0
  9
$MEASUREMENT
 70
     1
  9
$CELWEIGHT
370
     0
  9
$ENDCAPS
280
     0
  9
$JOINSTYLE
280
     0
  9
$LWDISPLAY
290
     1
  9
$INSUNITS
 70
     4
  9
$HYPERLINKBASE
  1

  9
$STYLESHEET
  1

  9
$XEDIT
290
     1
  9
$CEPSNTYPE
380
     0
  9
$PSTYLEMODE
290
     1
  9
$FINGERPRINTGUID
  2

  9
$VERSIONGUID
  2

  9
$EXTNAMES
290
     1
  9
$PSVPSCALE
 40
0.0
  9
$OLESTARTUP
290
     0
  9
$SORTENTS
280
   127
  9
$INDEXCTL
280
     0
  9
$HIDETEXT
280
     1
  9
$XCLIPFRAME
290
     0
  9
$HALOGAP
280
     0
  9
$OBSCOLOR
 70
   257
  9
$OBSLTYPE
280
     0
  9
$INTERSECTIONDISPLAY
280
     0
  9
$INTERSECTIONCOLOR
 70
   257
  9
$DIMASSOC
280
     2
  9
$PROJECTNAME
  1

  9
$CAMERADISPLAY
290
     0
  9
$LENSLENGTH
 40
50.0
  9
$CAMERAHEIGHT
 40
0.0
  9
$STEPSPERSEC
 40
2.0
  9
$STEPSIZE
 40
6.0
  9
$3DDWFPREC
 40
2.0
  9
$PSOLWIDTH
 40
0.25
  9
$PSOLHEIGHT
 40
4.0
  9
$LOFTANG1
 40
1.570796326794897
  9
$LOFTANG2
 40
1.570796326794897
  9
$LOFTMAG1
 40
0.0
  9
$LOFTMAG2
 40
0.0
  9
$LOFTPARAM
 70
     7
  9
$LOFTNORMALS
280
     1
  9
$LATITUDE
 40
37.795
  9
$LONGITUDE
 40
-122.394
  9
$NORTHDIRECTION
 40
0.0
  9
$TIMEZONE
 70
 -8000
  9
$LIGHTGLYPHDISPLAY
280
     1
  9
$TILEMODELIGHTSYNCH
280
     1
  9
$SOLIDHIST
280
     1
  9
$SHOWHIST
280
     1
  9
$DWFFRAME
280
     2
  9
$DGNFRAME
280
     2
  9
$REALWORLDSCALE
290
     1
  9
$INTERFERECOLOR
 62
   256
  9
$CSHADOW
280
     0
  9
$SHADOWPLANELOCATION
 40
0.0
  0
ENDSEC
  0
SECTION
  2
CLASSES
  0
CLASS
  1
LWPOLYLINE
  2
AcDbPolyline
  3
ObjectDBX Classes
 90
        0
 91
        1
280
     0
281
     1
  0
CLASS
  1
IMAGE
  2
AcDbRasterImage
  3
ISM
 90
      127
 91
        7
280
     0
281
     1
  0
CLASS
  1
OLE2FRAME
  2
AcDbOle2Frame
  3
ObjectDBX Classes
 90
        0
 91
        1
280
     0
281
     1
  0
CLASS
  1
HATCH
  2
AcDbHatch
  3
ObjectDBX Classes
 90
        0
 91
        1
280
     0
281
     1
  0
CLASS
  1
DICTIONARYVAR
  2
AcDbDictionaryVar
  3
ObjectDBX Classes
 90
        0
 91
        6
280
     0
281
     0
  0
CLASS
  1
RASTERVARIABLES
  2
AcDbRasterVariables
  3
ISM
 90
        0
 91
        9
280
     0
281
     0
  0
CLASS
  1
IMAGEDEF
  2
AcDbRasterImageDef
  3
ISM
 90
        0
 91
        6
280
     0
281
     0
  0
CLASS
  1
IMAGEDEF_REACTOR
  2
AcDbRasterImageDefReactor
  3
ISM
 90
        1
 91
        6
280
     0
281
     0
  0
CLASS
  1
IDBUFFER
  2
AcDbIdBuffer
  3
ObjectDBX Classes
 90
        0
 91
        6
280
     0
281
     0
  0
CLASS
  1
SPATIAL_FILTER
  2
AcDbSpatialFilter
  3
ObjectDBX Classes
 90
        0
 91
        6
280
     0
281
     0
  0
CLASS
  1
XRECORD
  2
AcDbXrecord
  3
ObjectDBX Classes
 90
        0
 91
        1
280
     0
281
     0
  0
CLASS
  1
SORTENTSTABLE
  2
AcDbSortentsTable
  3
ObjectDBX Classes
 90
        0
 91
        6
280
     0
281
     0
  0
CLASS
  1
LAYER_INDEX
  2
AcDbLayerIndex
  3
ObjectDBX Classes
 90
        0
 91
        6
280
     0
281
     0
  0
CLASS
  1
SPATIAL_INDEX
  2
AcDbSpatialIndex
  3
AutoCAD 2000
 90
        0
 91
        6
280
     0
281
     0
  0
CLASS
  1
OBJECT_PTR
  2
CAseDLPNTableRecord
  3
ASE-LPNTableRecord
 90
        1
 91
        6
280
     0
281
     0
  0
CLASS
  1
LAYOUT
  2
AcDbLayout
  3
ObjectDBX Classes
 90
        0
 91
        1
280
     0
281
     0
  0
CLASS
  1
PLOTSETTINGS
  2
AcDbPlotSettings
  3
ObjectDBX Classes
 90
        0
 91
        6
280
     0
281
     0
  0
CLASS
  1
ACDBDICTIONARYWDFLT
  2
AcDbDictionaryWithDefault
  3
ObjectDBX Classes
 90
        0
 91
        9
280
     0
281
     0
  0
CLASS
  1
ACDBPLACEHOLDER
  2
AcDbPlaceHolder
  3
ObjectDBX Classes
 90
        0
 91
        1
280
     0
281
     0
  0
CLASS
  1
SCALE
  2
AcDbScale
  3
ObjectDBX Classes
 90
     1153
 91
        9
280
     0
281
     0
  0
CLASS
  1
MATERIAL
  2
AcDbMaterial
  3
ObjectDBX Classes
 90
     1153
 91
        9
280
     0
281
     0
  0
CLASS
  1
VISUALSTYLE
  2
AcDbVisualStyle
  3
ObjectDBX Classes
 90
     4095
 91
        9
280
     0
281
     0
  0
CLASS
  1
TABLESTYLE
  2
AcDbTableStyle
  3
ObjectDBX Classes
 90
     4095
 91
        9
280
     0
281
     0
  0
CLASS
  1
DIMASSOC
  2
AcDbDimAssoc
  3
"AcDbDimAssoc|Product Desc:     AcDim ARX App For Dimension|Company:          Autodesk, Inc.|WEB Address:      www.autodesk.com"
 90
        0
 91
        6
280
     0
281
     0
  0
CLASS
  1
CELLSTYLEMAP
  2
AcDbCellStyleMap
  3
ObjectDBX Classes
 90
     1152
 91
        6
280
     0
281
     0
  0
CLASS
  1
SUN
  2
AcDbSun
  3
SCENEOE
 90
     1153
 91
        9
280
     0
281
     0
  0
ENDSEC
  0
SECTION
  2
TABLES
  0
TABLE
  2
VPORT
  5
7
330
0
100
AcDbSymbolTable
 70
     1
  0
VPORT
  5
15
330
7
100
AcDbSymbolTableRecord
100
AcDbViewportTableRecord
  2
*ACTIVE
 70
     0
 10
0.0
 20
0.0
 11
1.0
 21
1.0
 12
364.2400438212333
 22
597.9382762289355
 13
0.0
 23
0.0
 14
1.0
 24
1.0
 15
0.0
 25
0.0
 16
0.0
 26
0.0
 36
1.0
 17
0.0
 27
0.0
 37
0.0
 40
865.6346271793263
 41
2.582022471910112
 42
50.0
 43
0.0
 44
0.0
 50
0.0
 51
0.0
 71
    16
 72
  2000
 73
     1
 74
     1
 75
     0
 76
     0
 77
     0
 78
     0
281
     0
 65
     0
110
0.0
120
0.0
130
0.0
111
1.0
121
0.0
131
0.0
112
0.0
122
1.0
132
0.0
 79
     0
146
0.0
348
26C
 60
     3
 61
     5
292
     1
282
     1
141
0.0
142
0.0
 63
   256
361
D83
  0
ENDTAB
  0
TABLE
  2
LTYPE
  5
4
330
0
100
AcDbSymbolTable
 70
    26
  0
LTYPE
  5
11
330
4
100
AcDbSymbolTableRecord
100
AcDbLinetypeTableRecord
  2
ByBlock
 70
     0
  3

 72
    65
 73
     0
 40
0.0
  0
LTYPE
  5
12
330
4
100
AcDbSymbolTableRecord
100
AcDbLinetypeTableRecord
  2
ByLayer
 70
     0
  3

 72
    65
 73
     0
 40
0.0
  0
LTYPE
  5
13
330
4
100
AcDbSymbolTableRecord
100
AcDbLinetypeTableRecord
  2
Continuous
 70
     0
  3
Solid line
 72
    65
 73
     0
 40
0.0
  0
LTYPE
  5
3A
330
4
100
AcDbSymbolTableRecord
100
AcDbLinetypeTableRecord
  2
STYLE_01
 70
     0
  3

 72
    65
 73
     2
 40
0.2460629921259842
 49
0.1230314960629921
 74
     0
 49
-0.1230314960629921
 74
     0
  0
LTYPE
  5
3B
330
4
100
AcDbSymbolTableRecord
100
AcDbLinetypeTableRecord
  2
STYLE_02
 70
     0
  3

 72
    65
 73
     2
 40
0.6944250000000001
 49
0.48607
 74
     0
 49
-0.2083550000000001
 74
     0
  0
LTYPE
  5
3C
330
4
100
AcDbSymbolTableRecord
100
AcDbLinetypeTableRecord
  2
STYLE_03
 70
     0
  3

 72
    65
 73
     2
 40
1.25
 49
1.04164
 74
     0
 49
-0.2083599999999999
 74
     0
  0
LTYPE
  5
3D
330
4
100
AcDbSymbolTableRecord
100
AcDbLinetypeTableRecord
  2
STYLE_04
 70
     0
  3

 72
    65
 73
     2
 40
1.52771
 49
1.319425
 74
     0
 49
-0.208285
 74
     0
  0
LTYPE
  5
3E
330
4
100
AcDbSymbolTableRecord
100
AcDbLinetypeTableRecord
  2
STYLE_05
 70
     0
  3

 72
    65
 73
     2
 40
0.20828
 49
0.069425
 74
     0
 49
-0.138855
 74
     0
  0
LTYPE
  5
3F
330
4
100
AcDbSymbolTableRecord
100
AcDbLinetypeTableRecord
  2
STYLE_06
 70
     0
  3

 72
    65
 73
     4
 40
1.04164
 49
0.625
 74
     0
 49
-0.20828
 74
     0
 49
0.06943
 74
     0
 49
-0.13893
 74
     0
  0
LTYPE
  5
40
330
4
100
AcDbSymbolTableRecord
100
AcDbLinetypeTableRecord
  2
STYLE_07
 70
     0
  3

 72
    65
 73
     6
 40
1.875
 49
0.625
 74
     0
 49
-0.20828
 74
     0
 49
0.6250000000000001
 74
     0
 49
-0.2083599999999999
 74
     0
 49
0.06943
 74
     0
 49
-0.1389299999999999
 74
     0
  0
LTYPE
  5
41
330
4
100
AcDbSymbolTableRecord
100
AcDbLinetypeTableRecord
  2
STYLE_08
 70
     0
  3

 72
    65
 73
     6
 40
1.25
 49
0.625
 74
     0
 49
-0.20828
 74
     0
 49
0.06943
 74
     0
 49
-0.13893
 74
     0
 49
0.0694299999999999
 74
     0
 49
-0.13893
 74
     0
  0
LTYPE
  5
42
330
4
100
AcDbSymbolTableRecord
100
AcDbLinetypeTableRecord
  2
STYLE_09
 70
     0
  3

 72
    65
 73
     4
 40
5.0
 49
3.75
 74
     0
 49
-0.2777849999999998
 74
     0
 49
0.6944300000000003
 74
     0
 49
-0.2777849999999998
 74
     0
  0
LTYPE
  5
43
330
4
100
AcDbSymbolTableRecord
100
AcDbLinetypeTableRecord
  2
STYLE_10
 70
     0
  3

 72
    65
 73
     6
 40
5.9375
 49
3.75
 74
     0
 49
-0.2777849999999998
 74
     0
 49
0.6944300000000003
 74
     0
 49
-0.2777849999999998
 74
     0
 49
0.625
 74
     0
 49
-0.3125
 74
     0
  0
LTYPE
  5
44
330
4
100
AcDbSymbolTableRecord
100
AcDbLinetypeTableRecord
  2
STYLE_11
 70
     0
  3

 72
    65
 73
     2
 40
0.0694444881889764
 49
0.0347222440944882
 74
     0
 49
-0.0347222440944882
 74
     0
  0
LTYPE
  5
45
330
4
100
AcDbSymbolTableRecord
100
AcDbLinetypeTableRecord
  2
STYLE_12
 70
     0
  3

 72
    65
 73
     2
 40
0.3937007874015748
 49
0.1968503937007874
 74
     0
 49
-0.1968503937007874
 74
     0
  0
LTYPE
  5
46
330
4
100
AcDbSymbolTableRecord
100
AcDbLinetypeTableRecord
  2
STYLE_13
 70
     0
  3

 72
    65
 73
     2
 40
0.5905511811023622
 49
0.2952755905511811
 74
     0
 49
-0.2952755905511811
 74
     0
  0
LTYPE
  5
47
330
4
100
AcDbSymbolTableRecord
100
AcDbLinetypeTableRecord
  2
STYLE_14
 70
     0
  3

 72
    65
 73
     2
 40
1.968503937007874
 49
0.9842519685039369
 74
     0
 49
-0.9842519685039369
 74
     0
  0
LTYPE
  5
48
330
4
100
AcDbSymbolTableRecord
100
AcDbLinetypeTableRecord
  2
STYLE_15
 70
     0
  3

 72
    65
 73
     2
 40
0.1875
 49
0.125
 74
     0
 49
-0.0625
 74
     0
  0
LTYPE
  5
49
330
4
100
AcDbSymbolTableRecord
100
AcDbLinetypeTableRecord
  2
STYLE_16
 70
     0
  3

 72
    65
 73
     2
 40
0.3690944881889764
 49
0.2460629921259843
 74
     0
 49
-0.1230314960629922
 74
     0
  0
LTYPE
  5
858
330
4
100
AcDbSymbolTableRecord
100
AcDbLinetypeTableRecord
  2
AI-Linetype-1
 70
     0
  3
Adobe Illustrator Linetype No. 1
 72
    65
 73
     2
 40
0.7055560208305538
 49
0.3527780104152769
 74
     0
 49
-0.3527780104152769
 74
     0
  0
LTYPE
  5
859
330
4
100
AcDbSymbolTableRecord
100
AcDbLinetypeTableRecord
  2
AI-Linetype-2
 70
     0
  3
Adobe Illustrator Linetype No. 2
 72
    65
 73
     2
 40
0.7055560208305538
 49
0.3527780104152769
 74
     0
 49
-0.3527780104152769
 74
     0
  0
LTYPE
  5
85A
330
4
100
AcDbSymbolTableRecord
100
AcDbLinetypeTableRecord
  2
AI-Linetype-3
 70
     0
  3
Adobe Illustrator Linetype No. 3
 72
    65
 73
     2
 40
0.7055560208305538
 49
0.3527780104152769
 74
     0
 49
-0.3527780104152769
 74
     0
  0
LTYPE
  5
85B
330
4
100
AcDbSymbolTableRecord
100
AcDbLinetypeTableRecord
  2
AI-Linetype-4
 70
     0
  3
Adobe Illustrator Linetype No. 4
 72
    65
 73
     2
 40
0.7055560208305538
 49
0.3527780104152769
 74
     0
 49
-0.3527780104152769
 74
     0
  0
LTYPE
  5
85C
330
4
100
AcDbSymbolTableRecord
100
AcDbLinetypeTableRecord
  2
AI-Linetype-5
 70
     0
  3
Adobe Illustrator Linetype No. 5
 72
    65
 73
     2
 40
0.7055560208305538
 49
0.3527780104152769
 74
     0
 49
-0.3527780104152769
 74
     0
  0
LTYPE
  5
85D
330
4
100
AcDbSymbolTableRecord
100
AcDbLinetypeTableRecord
  2
AI-Linetype-6
 70
     0
  3
Adobe Illustrator Linetype No. 6
 72
    65
 73
     2
 40
0.7055560208305538
 49
0.3527780104152769
 74
     0
 49
-0.3527780104152769
 74
     0
  0
LTYPE
  5
85E
330
4
100
AcDbSymbolTableRecord
100
AcDbLinetypeTableRecord
  2
AI-Linetype-7
 70
     0
  3
Adobe Illustrator Linetype No. 7
 72
    65
 73
     2
 40
0.7055560208305538
 49
0.3527780104152769
 74
     0
 49
-0.3527780104152769
 74
     0
  0
LTYPE
  5
85F
330
4
100
AcDbSymbolTableRecord
100
AcDbLinetypeTableRecord
  2
AI-Linetype-8
 70
     0
  3
Adobe Illustrator Linetype No. 8
 72
    65
 73
     2
 40
0.7055560208305538
 49
0.3527780104152769
 74
     0
 49
-0.3527780104152769
 74
     0
  0
LTYPE
  5
860
330
4
100
AcDbSymbolTableRecord
100
AcDbLinetypeTableRecord
  2
AI-Linetype-9
 70
     0
  3
Adobe Illustrator Linetype No. 9
 72
    65
 73
     2
 40
0.7055560208305538
 49
0.3527780104152769
 74
     0
 49
-0.3527780104152769
 74
     0
  0
ENDTAB
  0
TABLE
  2
LAYER
  5
2
102
{ACAD_XDICTIONARY
360
2E1
102
}
330
0
100
AcDbSymbolTable
 70
     9
  0
LAYER
  5
14
330
2
100
AcDbSymbolTableRecord
100
AcDbLayerTableRecord
  2
0
 70
     0
 62
     7
  6
Continuous
370
    -3
390
1D
347
266
  0
LAYER
  5
4A
330
2
100
AcDbSymbolTableRecord
100
AcDbLayerTableRecord
  2
Defpoints
 70
     0
 62
     7
  6
Continuous
290
     0
370
    -3
390
1D
347
266
  0
LAYER
  5
4B
330
2
100
AcDbSymbolTableRecord
100
AcDbLayerTableRecord
  2
template
 70
     0
 62
     7
  6
Continuous
370
    -3
390
1D
347
266
  0
LAYER
  5
4C
330
2
100
AcDbSymbolTableRecord
100
AcDbLayerTableRecord
  2
notes
 70
     0
 62
     7
  6
Continuous
370
    -3
390
1D
347
266
  0
LAYER
  5
4D
330
2
100
AcDbSymbolTableRecord
100
AcDbLayerTableRecord
  2
MODEL
 70
     0
 62
     7
  6
Continuous
370
    -3
390
1D
347
266
  0
LAYER
  5
380
330
2
100
AcDbSymbolTableRecord
100
AcDbLayerTableRecord
  2
QUOTE
 70
     0
 62
    -1
  6
Continuous
370
    -3
390
1D
347
266
  0
LAYER
  5
382
330
2
100
AcDbSymbolTableRecord
100
AcDbLayerTableRecord
  2
SPESSA
 70
     0
 62
     4
  6
Continuous
370
    -3
390
1D
347
266
  0
LAYER
  5
667
330
2
100
AcDbSymbolTableRecord
100
AcDbLayerTableRecord
  2
レイヤー 1
 70
     0
 62
     7
  6
Continuous
370
    -3
390
1D
347
266
  0
LAYER
  5
7AB
330
2
100
AcDbSymbolTableRecord
100
AcDbLayerTableRecord
  2
MEMO
 70
     0
 62
    -1
  6
Continuous
370
    -3
390
1D
347
266
1001
AcAecLayerStandard
1000

1000

  0
ENDTAB
  0
TABLE
  2
STYLE
  5
3
330
0
100
AcDbSymbolTable
 70
     4
  0
STYLE
  5
17
330
3
100
AcDbSymbolTableRecord
100
AcDbTextStyleTableRecord
  2
Standard
 70
     0
 40
0.0
 41
1.0
 50
0.0
 71
     0
 42
2.5
  3
txt
  4
BIGFONT.SHX
  0
STYLE
  5
39
330
3
100
AcDbSymbolTableRecord
100
AcDbTextStyleTableRecord
  2
ＭＳ ゴシック
 70
     0
 40
0.0
 41
1.0
 50
0.0
 71
     0
 42
2.5
  3
msgothic.ttc
  4
ＭＳ ゴシック
1001
ACAD
1000
ＭＳ ゴシック
1071
        0
  0
STYLE
  5
384
330
3
100
AcDbSymbolTableRecord
100
AcDbTextStyleTableRecord
  2
ARIAL
 70
     0
 40
0.0
 41
1.0
 50
0.0
 71
     0
 42
12.0
  3
ARIAL.TTF
  4

1001
ACAD
1000
Arial
1071
       34
  0
STYLE
  5
385
330
3
100
AcDbSymbolTableRecord
100
AcDbTextStyleTableRecord
  2
ROMANS
 70
     0
 40
0.0
 41
1.0
 50
0.0
 71
     0
 42
5.0
  3
romans.shx
  4

  0
ENDTAB
  0
TABLE
  2
VIEW
  5
5
330
0
100
AcDbSymbolTable
 70
     0
  0
ENDTAB
  0
TABLE
  2
UCS
  5
6
330
0
100
AcDbSymbolTable
 70
     0
  0
ENDTAB
  0
TABLE
  2
APPID
  5
8
330
0
100
AcDbSymbolTable
 70
     2
  0
APPID
  5
16
330
8
100
AcDbSymbolTableRecord
100
AcDbRegAppTableRecord
  2
ACAD
 70
     0
  0
APPID
  5
7AC
330
8
100
AcDbSymbolTableRecord
100
AcDbRegAppTableRecord
  2
AcAecLayerStandard
 70
     0
  0
ENDTAB
  0
TABLE
  2
DIMSTYLE
  5
9
330
0
100
AcDbSymbolTable
 70
     5
100
AcDbDimStyleTable
  0
DIMSTYLE
105
18
330
9
100
AcDbSymbolTableRecord
100
AcDbDimStyleTableRecord
  2
Standard
 70
     0
178
     0
340
17
  0
DIMSTYLE
105
56
330
9
100
AcDbSymbolTableRecord
100
AcDbDimStyleTableRecord
  2
tform線あり
 70
     0
  3
<>
  4
[]
 41
9.999389648437498
 42
25.0
 43
0.9999999999999999
 44
0.0
 73
     0
 74
     0
 77
     1
 78
    11
140
24.4326171875
141
0.0
143
1.0
146
0.8
147
0.4999999999999999
171
     1
172
     1
174
     1
178
     0
179
     2
271
     1
272
     1
276
     2
284
    11
285
    11
286
    11
289
     0
340
39
341
4E
342
4E
  0
DIMSTYLE
105
57
330
9
100
AcDbSymbolTableRecord
100
AcDbDimStyleTableRecord
  2
tfrom線あり
 70
     0
  3
<>
  4
[]
 41
6.0
 42
25.0
 43
0.9999999999999999
 44
0.0
 73
     0
 74
     0
 77
     1
 78
    11
140
12.0
141
0.0
143
1.0
147
10.0
171
     1
174
     1
178
     0
179
     2
271
     0
272
     1
276
     2
284
    11
285
    11
286
    11
289
     0
340
39
341
4E
342
4E
  0
DIMSTYLE
105
5C
330
9
100
AcDbSymbolTableRecord
100
AcDbDimStyleTableRecord
  2
JIS
 70
     0
  3
<>
  4
[]
 41
9.0
 42
0.0
 43
6.99999999999994
 44
19.9999999999962
 73
     0
 74
     0
 77
     1
 78
    11
140
24.4326171875
141
0.0
143
1.0
147
10.0
171
     1
174
     1
178
     0
179
     2
271
     1
272
     1
276
     2
284
    11
285
    11
286
    11
289
     0
340
39
341
4E
342
4E
  0
DIMSTYLE
105
383
330
9
100
AcDbSymbolTableRecord
100
AcDbDimStyleTableRecord
  2
ARIAL
 70
     0
 41
10.0
 42
3.0
 43
0.5
 44
3.0
 73
     0
 74
     0
 77
     1
 78
     8
140
12.0
141
0.0
146
0.5
147
4.0
171
     1
172
     1
178
     0
271
     1
289
     0
340
384
  0
ENDTAB
  0
TABLE
  2
BLOCK_RECORD
  5
1
330
0
100
AcDbSymbolTable
 70
    58
  0
BLOCK_RECORD
  5
A
330
1
100
AcDbSymbolTableRecord
100
AcDbBlockTableRecord
  2
*MODEL_SPACE
340
20
 70
     0
280
     1
281
     0
  0
BLOCK_RECORD
  5
B
330
1
100
AcDbSymbolTableRecord
100
AcDbBlockTableRecord
  2
*PAPER_SPACE
340
21
 70
     0
280
     1
281
     0
  0
BLOCK_RECORD
  5
4E
330
1
100
AcDbSymbolTableRecord
100
AcDbBlockTableRecord
  2
_DOT
340
0
102
{BLKREFS
331
2A1
331
2A2
331
2B0
331
2B1
331
2CA
331
2CB
331
2D9
331
2DA
331
2EC
331
2ED
331
2FB
331
2FC
331
30A
331
30B
331
319
331
31A
331
328
331
329
331
48B
331
48C
331
53C
331
53D
331
554
331
555
331
58A
331
58B
331
5C7
331
5C8
331
5D5
331
5D6
331
65A
331
65B
331
D8D
331
D8E
331
D9A
331
D9B
331
DAB
331
DAC
331
E50
331
E4F
331
E60
331
E5F
331
E6F
331
E6E
331
EA6
331
EA5
331
EB5
331
EB4
331
EC4
331
EC3
331
ED3
331
ED2
331
EE3
331
EE2
102
}
 70
     0
280
     1
281
     0
  0
BLOCK_RECORD
  5
58
330
1
100
AcDbSymbolTableRecord
100
AcDbBlockTableRecord
  2
VW_FILLEDARROW
340
0
102
{BLKREFS
331
283
331
284
102
}
 70
     0
280
     1
281
     0
  0
BLOCK_RECORD
  5
23
330
1
100
AcDbSymbolTableRecord
100
AcDbBlockTableRecord
  2
グループ
340
0
 70
     0
280
     1
281
     0
  0
BLOCK_RECORD
  5
24
330
1
100
AcDbSymbolTableRecord
100
AcDbBlockTableRecord
  2
*D3
340
0
 70
     0
280
     1
281
     0
  0
BLOCK_RECORD
  5
25
330
1
100
AcDbSymbolTableRecord
100
AcDbBlockTableRecord
  2
*D4
340
0
 70
     0
280
     1
281
     0
  0
BLOCK_RECORD
  5
26
330
1
100
AcDbSymbolTableRecord
100
AcDbBlockTableRecord
  2
*D5
340
0
 70
     0
280
     1
281
     0
  0
BLOCK_RECORD
  5
27
330
1
100
AcDbSymbolTableRecord
100
AcDbBlockTableRecord
  2
*D6
340
0
 70
     0
280
     1
281
     0
  0
BLOCK_RECORD
  5
28
330
1
100
AcDbSymbolTableRecord
100
AcDbBlockTableRecord
  2
*D7
340
0
 70
     0
280
     1
281
     0
  0
BLOCK_RECORD
  5
29
330
1
100
AcDbSymbolTableRecord
100
AcDbBlockTableRecord
  2
*D8
340
0
 70
     0
280
     1
281
     0
  0
BLOCK_RECORD
  5
2A
330
1
100
AcDbSymbolTableRecord
100
AcDbBlockTableRecord
  2
*D9
340
0
 70
     0
280
     1
281
     0
  0
BLOCK_RECORD
  5
2B
330
1
100
AcDbSymbolTableRecord
100
AcDbBlockTableRecord
  2
*D10
340
0
 70
     0
280
     1
281
     0
  0
BLOCK_RECORD
  5
2C
330
1
100
AcDbSymbolTableRecord
100
AcDbBlockTableRecord
  2
*D11
340
0
 70
     0
280
     1
281
     0
  0
BLOCK_RECORD
  5
2D
330
1
100
AcDbSymbolTableRecord
100
AcDbBlockTableRecord
  2
*D12
340
0
 70
     0
280
     1
281
     0
  0
BLOCK_RECORD
  5
2E
330
1
100
AcDbSymbolTableRecord
100
AcDbBlockTableRecord
  2
*D13
340
0
 70
     0
280
     1
281
     0
  0
BLOCK_RECORD
  5
2F
330
1
100
AcDbSymbolTableRecord
100
AcDbBlockTableRecord
  2
*D14
340
0
 70
     0
280
     1
281
     0
  0
BLOCK_RECORD
  5
30
330
1
100
AcDbSymbolTableRecord
100
AcDbBlockTableRecord
  2
*D15
340
0
 70
     0
280
     1
281
     0
  0
BLOCK_RECORD
  5
31
330
1
100
AcDbSymbolTableRecord
100
AcDbBlockTableRecord
  2
*D16
340
0
 70
     0
280
     1
281
     0
  0
BLOCK_RECORD
  5
32
330
1
100
AcDbSymbolTableRecord
100
AcDbBlockTableRecord
  2
*D17
340
0
 70
     0
280
     1
281
     0
  0
BLOCK_RECORD
  5
33
330
1
100
AcDbSymbolTableRecord
100
AcDbBlockTableRecord
  2
*D18
340
0
 70
     0
280
     1
281
     0
  0
BLOCK_RECORD
  5
34
330
1
100
AcDbSymbolTableRecord
100
AcDbBlockTableRecord
  2
*D19
340
0
 70
     0
280
     1
281
     0
  0
BLOCK_RECORD
  5
35
330
1
100
AcDbSymbolTableRecord
100
AcDbBlockTableRecord
  2
*D20
340
0
 70
     0
280
     1
281
     0
  0
BLOCK_RECORD
  5
36
330
1
100
AcDbSymbolTableRecord
100
AcDbBlockTableRecord
  2
*D21
340
0
 70
     0
280
     1
281
     0
  0
BLOCK_RECORD
  5
37
330
1
100
AcDbSymbolTableRecord
100
AcDbBlockTableRecord
  2
*D22
340
0
 70
     0
280
     1
281
     0
  0
BLOCK_RECORD
  5
38
330
1
100
AcDbSymbolTableRecord
100
AcDbBlockTableRecord
  2
*D23
340
0
 70
     0
280
     1
281
     0
  0
BLOCK_RECORD
  5
27F
330
1
100
AcDbSymbolTableRecord
100
AcDbBlockTableRecord
  2
*D24
340
0
 70
     0
280
     1
281
     0
  0
BLOCK_RECORD
  5
29D
330
1
100
AcDbSymbolTableRecord
100
AcDbBlockTableRecord
  2
*D25
340
0
 70
     0
280
     1
281
     0
  0
BLOCK_RECORD
  5
2AC
330
1
100
AcDbSymbolTableRecord
100
AcDbBlockTableRecord
  2
*D26
340
0
 70
     0
280
     1
281
     0
  0
BLOCK_RECORD
  5
2C6
330
1
100
AcDbSymbolTableRecord
100
AcDbBlockTableRecord
  2
*D27
340
0
 70
     0
280
     1
281
     0
  0
BLOCK_RECORD
  5
2D5
330
1
100
AcDbSymbolTableRecord
100
AcDbBlockTableRecord
  2
*D28
340
0
 70
     0
280
     1
281
     0
  0
BLOCK_RECORD
  5
2E8
330
1
100
AcDbSymbolTableRecord
100
AcDbBlockTableRecord
  2
*D29
340
0
 70
     0
280
     1
281
     0
  0
BLOCK_RECORD
  5
2F7
330
1
100
AcDbSymbolTableRecord
100
AcDbBlockTableRecord
  2
*D30
340
0
 70
     0
280
     1
281
     0
  0
BLOCK_RECORD
  5
306
330
1
100
AcDbSymbolTableRecord
100
AcDbBlockTableRecord
  2
*D31
340
0
 70
     0
280
     1
281
     0
  0
BLOCK_RECORD
  5
315
330
1
100
AcDbSymbolTableRecord
100
AcDbBlockTableRecord
  2
*D32
340
0
 70
     0
280
     1
281
     0
  0
BLOCK_RECORD
  5
324
330
1
100
AcDbSymbolTableRecord
100
AcDbBlockTableRecord
  2
*D33
340
0
 70
     0
280
     1
281
     0
  0
BLOCK_RECORD
  5
33E
330
1
100
AcDbSymbolTableRecord
100
AcDbBlockTableRecord
  2
backbolt
340
0
 70
     4
280
     1
281
     0
  0
BLOCK_RECORD
  5
487
330
1
100
AcDbSymbolTableRecord
100
AcDbBlockTableRecord
  2
*D35
340
0
 70
     0
280
     1
281
     0
  0
BLOCK_RECORD
  5
538
330
1
100
AcDbSymbolTableRecord
100
AcDbBlockTableRecord
  2
*D36
340
0
 70
     0
280
     1
281
     0
  0
BLOCK_RECORD
  5
550
330
1
100
AcDbSymbolTableRecord
100
AcDbBlockTableRecord
  2
*D37
340
0
 70
     0
280
     1
281
     0
  0
BLOCK_RECORD
  5
586
330
1
100
AcDbSymbolTableRecord
100
AcDbBlockTableRecord
  2
*D38
340
0
 70
     0
280
     1
281
     0
  0
BLOCK_RECORD
  5
5C2
330
1
100
AcDbSymbolTableRecord
100
AcDbBlockTableRecord
  2
*D39
340
0
 70
     0
280
     1
281
     0
  0
BLOCK_RECORD
  5
5D0
330
1
100
AcDbSymbolTableRecord
100
AcDbBlockTableRecord
  2
*D40
340
0
 70
     0
280
     1
281
     0
  0
BLOCK_RECORD
  5
656
330
1
100
AcDbSymbolTableRecord
100
AcDbBlockTableRecord
  2
*D41
340
0
 70
     0
280
     1
281
     0
  0
BLOCK_RECORD
  5
68A
330
1
100
AcDbSymbolTableRecord
100
AcDbBlockTableRecord
  2
名称未設定-1
340
0
102
{BLKREFS
331
6B5
102
}
 70
     1
280
     1
281
     0
  0
BLOCK_RECORD
  5
68D
330
1
100
AcDbSymbolTableRecord
100
AcDbBlockTableRecord
  2
block 2
340
0
102
{BLKREFS
331
68C
102
}
 70
     0
280
     1
281
     0
  0
BLOCK_RECORD
  5
690
330
1
100
AcDbSymbolTableRecord
100
AcDbBlockTableRecord
  2
block 3
340
0
102
{BLKREFS
331
68F
102
}
 70
     0
280
     1
281
     0
  0
BLOCK_RECORD
  5
693
330
1
100
AcDbSymbolTableRecord
100
AcDbBlockTableRecord
  2
block 4
340
0
102
{BLKREFS
331
692
102
}
 70
     0
280
     1
281
     0
  0
BLOCK_RECORD
  5
6A2
330
1
100
AcDbSymbolTableRecord
100
AcDbBlockTableRecord
  2
block 5
340
0
102
{BLKREFS
331
6A1
102
}
 70
     0
280
     1
281
     0
  0
BLOCK_RECORD
  5
D87
330
1
100
AcDbSymbolTableRecord
100
AcDbBlockTableRecord
  2
*D47
340
0
 70
     0
280
     1
281
     0
  0
BLOCK_RECORD
  5
D94
330
1
100
AcDbSymbolTableRecord
100
AcDbBlockTableRecord
  2
*D48
340
0
 70
     0
280
     1
281
     0
  0
BLOCK_RECORD
  5
DA5
330
1
100
AcDbSymbolTableRecord
100
AcDbBlockTableRecord
  2
*D49
340
0
 70
     0
280
     1
281
     0
  0
BLOCK_RECORD
  5
E49
330
1
100
AcDbSymbolTableRecord
100
AcDbBlockTableRecord
  2
*D50
340
0
 70
     0
280
     1
281
     0
  0
BLOCK_RECORD
  5
E58
330
1
100
AcDbSymbolTableRecord
100
AcDbBlockTableRecord
  2
*D51
340
0
 70
     0
280
     1
281
     0
  0
BLOCK_RECORD
  5
E68
330
1
100
AcDbSymbolTableRecord
100
AcDbBlockTableRecord
  2
*D52
340
0
 70
     0
280
     1
281
     0
  0
BLOCK_RECORD
  5
E9F
330
1
100
AcDbSymbolTableRecord
100
AcDbBlockTableRecord
  2
*D53
340
0
 70
     0
280
     1
281
     0
  0
BLOCK_RECORD
  5
EAE
330
1
100
AcDbSymbolTableRecord
100
AcDbBlockTableRecord
  2
*D54
340
0
 70
     0
280
     1
281
     0
  0
BLOCK_RECORD
  5
EBD
330
1
100
AcDbSymbolTableRecord
100
AcDbBlockTableRecord
  2
*D55
340
0
 70
     0
280
     1
281
     0
  0
BLOCK_RECORD
  5
ECC
330
1
100
AcDbSymbolTableRecord
100
AcDbBlockTableRecord
  2
*D56
340
0
 70
     0
280
     1
281
     0
  0
BLOCK_RECORD
  5
EDC
330
1
100
AcDbSymbolTableRecord
100
AcDbBlockTableRecord
  2
*D57
340
0
 70
     0
280
     1
281
     0
  0
ENDTAB
  0
ENDSEC
  0
SECTION
  2
BLOCKS
  0
BLOCK
  5
D
330
A
100
AcDbEntity
  8
0
390
1D
100
AcDbBlockBegin
  2
*MODEL_SPACE
 70
     0
 10
0.0
 20
0.0
 30
0.0
  3
*MODEL_SPACE
  1
*MODEL_SPACE
  0
ENDBLK
  5
E
330
A
100
AcDbEntity
  8
0
390
1D
100
AcDbBlockEnd
  0
BLOCK
  5
F
330
B
100
AcDbEntity
 67
     1
  8
0
390
1D
100
AcDbBlockBegin
  2
*PAPER_SPACE
 70
     0
 10
0.0
 20
0.0
 30
0.0
  3
*PAPER_SPACE
  1
*PAPER_SPACE
  0
ENDBLK
  5
10
330
B
100
AcDbEntity
 67
     1
  8
0
390
1D
100
AcDbBlockEnd
  0
BLOCK
  5
5B7
330
4E
100
AcDbEntity
  8
0
390
1D
100
AcDbBlockBegin
  2
_DOT
 70
     0
 10
0.0
 20
0.0
 30
0.0
  3
_DOT
  1
_DOT
  0
POLYLINE
  5
5B9
330
4E
100
AcDbEntity
  8
0
  6
ByBlock
 62
     0
370
    -2
390
1D
100
AcDb2dPolyline
 66
     1
 10
0.0
 20
0.0
 30
0.0
 70
     1
 40
0.5
 41
0.5
  0
VERTEX
  5
5BA
330
5B9
100
AcDbEntity
  8
0
  6
ByBlock
 62
     0
370
    -2
390
1D
100
AcDbVertex
100
AcDb2dVertex
 10
-0.25
 20
0.0
 30
0.0
 42
1.0
  0
VERTEX
  5
5BB
330
5B9
100
AcDbEntity
  8
0
  6
ByBlock
 62
     0
370
    -2
390
1D
100
AcDbVertex
100
AcDb2dVertex
 10
0.25
 20
0.0
 30
0.0
 42
1.0
  0
SEQEND
  5
5BC
330
5B9
100
AcDbEntity
  8
0
390
1D
  0
LINE
  5
5BD
330
4E
100
AcDbEntity
  8
0
  6
ByBlock
 62
     0
370
    -2
390
1D
100
AcDbLine
 10
-0.5
 20
0.0
 30
0.0
 11
-1.0
 21
0.0
 31
0.0
  0
ENDBLK
  5
5BE
330
4E
100
AcDbEntity
  8
0
390
1D
100
AcDbBlockEnd
  0
BLOCK
  5
59
330
58
100
AcDbEntity
  8
0
  6
ByBlock
 62
     0
370
    -2
390
1D
100
AcDbBlockBegin
  2
VW_FILLEDARROW
 70
     0
 10
0.0
 20
0.0
 30
0.0
  3
VW_FILLEDARROW
  1
VW_FILLEDARROW
  0
SOLID
  5
5A
330
58
100
AcDbEntity
  8
0
 62
     0
370
    -2
390
1D
100
AcDbTrace
 10
0.0
 20
0.0
 30
0.0
 11
-0.9921874999999999
 21
-0.2658558393652545
 31
0.0
 12
-0.9921874999999999
 22
0.2658558393652548
 32
0.0
 13
-0.9921874999999999
 23
0.2658558393652548
 33
0.0
  0
ENDBLK
  5
5B
330
58
100
AcDbEntity
  8
0
390
1D
100
AcDbBlockEnd
  0
BLOCK
  5
5D
330
23
100
AcDbEntity
  8
template
390
1D
100
AcDbBlockBegin
  2
グループ
 70
     0
 10
0.0
 20
0.0
 30
0.0
  3
グループ
  1
グループ
  0
LWPOLYLINE
  5
5E
330
23
100
AcDbEntity
  8
0
  6
Continuous
 62
     7
370
    15
390
1D
100
AcDbPolyline
 90
        8
 70
   129
 43
0.0
 10
-1244.108640120857
 20
-1323.428245250032
 10
-1244.108640120857
 20
-1329.425633943608
 10
-1253.60983703886
 20
-1329.425633943608
 10
-1253.60983703886
 20
-1353.876597207117
 10
-1261.965214300643
 20
-1353.876597207117
 10
-1261.965214300643
 20
-1329.425633943608
 10
-1271.298171246953
 20
-1329.425633943608
 10
-1271.298171246953
 20
-1323.428245250032
  0
LWPOLYLINE
  5
5F
330
23
100
AcDbEntity
  8
0
  6
Continuous
 62
     7
370
    15
390
1D
100
AcDbPolyline
 90
      101
 70
   128
 43
0.0
 10
-1231.3803482903
 20
-1324.156493742969
 10
-1231.364998261517
 20
-1324.152132986284
 42
-0.0222221607816454
 10
-1231.074993684844
 20
-1324.083508521039
 10
-1231.059199920854
 20
-1324.080505097943
 42
-0.0146883565588116
 10
-1230.796497215626
 20
-1324.038501910993
 42
-0.0127458844189694
 10
-1230.53185824848
 20
-1324.010964942921
 10
-1230.46940317016
 20
-1324.006071520332
 42
-0.019809901856783
 10
-1230.078554060685
 20
-1323.990986362935
 10
-1230.02674259124
 20
-1323.991040138601
 42
-0.0147617382761896
 10
-1229.53211913026
 20
-1324.006160163846
 10
-1229.45942767539
 20
-1324.010532770733
 42
-0.0162624549004472
 10
-1229.069274045926
 20
-1324.046765646005
 10
-1228.947741654677
 20
-1324.062052205001
 42
-0.0080020874671254
 10
-1228.802162623575
 20
-1324.08273505227
 10
-1228.76384315297
 20
-1324.088806330083
 42
-0.0053821929667848
 10
-1228.695359047666
 20
-1324.100413853903
 10
-1229.421764746864
 20
-1326.281342309617
 42
0.0108667757409203
 10
-1229.489081817002
 20
-1326.268155194396
 10
-1229.526549840184
 20
-1326.261657451802
 42
0.0170663203304902
 10
-1229.669766627098
 20
-1326.241827854511
 10
-1229.737641959783
 20
-1326.234780683923
 42
0.0220162375273616
 10
-1230.018021367637
 20
-1326.218098323153
 10
-1230.095876934688
 20
-1326.216898955887
 42
0.028260691578143
 10
-1230.431513258268
 20
-1326.230702232855
 10
-1230.475426532042
 20
-1326.235002222859
 42
0.0169677213687783
 10
-1230.721351026999
 20
-1326.267539272411
 42
0.0190576269869568
 10
-1230.964258989579
 20
-1326.317686144517
 10
-1230.97051817769
 20
-1326.319229118627
 42
0.0213685642844018
 10
-1231.220902662171
 20
-1326.392429403732
 10
-1231.226392557084
 20
-1326.394292399791
 42
0.0237595297590923
 10
-1231.479887441982
 20
-1326.493976921686
 10
-1231.484989516013
 20
-1326.496268697164
 42
0.0261857468811143
 10
-1231.737160292242
 20
-1326.625805034539
 10
-1231.747586481329
 20
-1326.631870509007
 42
0.0272553062022395
 10
-1231.984016256568
 20
-1326.787242714952
 10
-1232.018779270078
 20
-1326.812903863044
 42
0.0325996893177331
 10
-1232.168934613729
 20
-1326.939651736015
 10
-1232.192644042856
 20
-1326.962469764532
 42
0.0138050960647912
 10
-1232.284527199062
 20
-1327.05591942608
 42
0.012528010380517
 10
-1232.371369731894
 20
-1327.154082752678
 10
-1232.395050176804
 20
-1327.182241250867
 42
0.0205218024736916
 10
-1232.520150252318
 20
-1327.344034565096
 10
-1232.542616592805
 20
-1327.375694294923
 42
0.0163110129580568
 10
-1232.698326972056
 20
-1327.611024729993
 10
-1232.701050868107
 20
-1327.615448491979
 42
0.0131897341893856
 10
-1232.84785138901
 20
-1327.868580584338
 10
-1232.84955148438
 20
-1327.871698823479
 42
0.0107895576061557
 10
-1232.98732818659
 20
-1328.137914033113
 10
-1232.988061076115
 20
-1328.13940826576
 42
0.0091371507215152
 10
-1233.116541024764
 20
-1328.413933463518
 10
-1233.146286656174
 20
-1328.480639970679
 42
0.0135418326351698
 10
-1233.318000595246
 20
-1328.895577755948
 10
-1233.35160540368
 20
-1328.983443898229
 42
0.009283454241138
 10
-1233.522834463601
 20
-1329.457342396534
 10
-1233.548451591321
 20
-1329.532583466333
 42
0.0054261043582822
 10
-1233.656089739612
 20
-1329.860347439393
 10
-1233.673615725796
 20
-1329.915735601645
 42
0.0008225090812459
 10
-1233.742285777619
 20
-1330.134004359772
 10
-1234.726974909553
 20
-1333.158895653029
 10
-1231.494351069479
 20
-1333.158895653029
 10
-1231.998543499332
 20
-1335.063373951381
 10
-1235.254599781315
 20
-1335.063373951381
 10
-1241.083748813669
 20
-1353.876597017386
 10
-1242.908846423979
 20
-1353.876597017386
 10
-1237.074168388478
 20
-1335.063373951381
 10
-1239.479284757519
 20
-1335.063373951381
 10
-1238.975092327666
 20
-1333.158895653029
 10
-1236.546543516715
 20
-1333.158895653029
 10
-1235.686388598527
 20
-1330.52248265233
 42
-0.0005863560637245
 10
-1235.649653920309
 20
-1330.405656231993
 10
-1235.573566086663
 20
-1330.164663932653
 42
-0.0087522378927391
 10
-1235.374097943205
 20
-1329.569387845504
 10
-1235.281833667791
 20
-1329.30924767699
 42
-0.0077400953830365
 10
-1235.023900008661
 20
-1328.616242999445
 10
-1235.008135037084
 20
-1328.575812116063
 42
-0.0082369946330122
 10
-1234.761050566471
 20
-1327.971733049863
 42
-0.0085725238362991
 10
-1234.493804470467
 20
-1327.376307010573
 10
-1234.392174869458
 20
-1327.159885908587
 42
-0.01681094105959
 10
-1234.10523044073
 20
-1326.598678382486
 10
-1233.979387050305
 20
-1326.37171434955
 42
-0.0007817726861311
 10
-1233.925102700215
 20
-1326.274170104458
 10
-1233.924974394192
 20
-1326.273940395712
 42
-0.0036626142150549
 10
-1233.870086530176
 20
-1326.177342515753
 42
-0.0080221150682612
 10
-1233.812962274772
 20
-1326.082063281005
 10
-1233.782262323408
 20
-1326.032672331878
 42
-0.0202139325576914
 10
-1233.654606583602
 20
-1325.844690731197
 10
-1233.600539118414
 20
-1325.771611866956
 42
-0.0249323791798201
 10
-1233.341376324696
 20
-1325.455566624802
 10
-1233.317236510568
 20
-1325.428952351889
 42
-0.024213212153515
 10
-1232.977555769026
 20
-1325.089068865685
 10
-1232.929644196275
 20
-1325.045559729499
 42
-0.0251017527860491
 10
-1232.645662495634
 20
-1324.812566983734
 10
-1232.644217018821
 20
-1324.811497726155
 42
-0.0130868069036369
 10
-1232.345956368863
 20
-1324.602717257613
 10
-1232.34439454972
 20
-1324.601683817337
 42
-0.029032952639024
 10
-1232.033283408327
 20
-1324.420858315708
 10
-1232.003437846337
 20
-1324.405755932867
 42
-0.0160250190044351
 10
-1231.737533432577
 20
-1324.281739822655
 42
-0.0267600374780754
 10
-1231.462257355109
 20
-1324.180991502107
 10
-1231.435521435587
 20
-1324.172798943281
 42
-0.0049981587669581
 10
-1231.3803482903
 20
-1324.156493742969
 42
-0.0049981587669581
  0
LWPOLYLINE
  5
60
330
23
100
AcDbEntity
  8
0
  6
Continuous
 62
     7
370
    15
390
1D
100
AcDbPolyline
 90
      118
 70
   128
 43
0.0
 10
-1211.565980725853
 20
-1333.232878980856
 10
-1209.690858801354
 20
-1333.232878980856
 10
-1210.528897706954
 20
-1335.914445507256
 42
-0.0010587229244061
 10
-1210.497441891375
 20
-1335.877540973893
 10
-1210.43924780075
 20
-1335.809558717725
 42
-0.0071874740404519
 10
-1210.288872582653
 20
-1335.638918025697
 10
-1210.147149809389
 20
-1335.482681884383
 42
-0.0148118053511008
 10
-1209.697020516677
 20
-1335.01506803837
 10
-1209.609798181779
 20
-1334.92967071752
 42
-0.0086273358692726
 10
-1209.274249380766
 20
-1334.6122950835
 10
-1209.230415664541
 20
-1334.572245439167
 42
-0.0103138323116311
 10
-1208.972391962307
 20
-1334.346082301828
 10
-1208.926617555981
 20
-1334.307600254569
 42
-0.0060206748565749
 10
-1208.753769491868
 20
-1334.165805603814
 10
-1208.751738360982
 20
-1334.164179898182
 42
-0.006706902728874
 10
-1208.579445546319
 20
-1334.030029264387
 10
-1208.576896780394
 20
-1334.028099094513
 42
-0.0076184352046491
 10
-1208.405991514522
 20
-1333.902724219268
 42
-0.0089652861668049
 10
-1208.231030551786
 20
-1333.783090958935
 10
-1208.194678831644
 20
-1333.759179745454
 42
-0.0156916245936735
 10
-1207.998719334482
 20
-1333.638917258978
 42
-0.0023299011065315
 10
-1207.798457290515
 20
-1333.525739319445
 10
-1207.783073158123
 20
-1333.517139324373
 42
-0.0107669341487528
 10
-1207.548836333022
 20
-1333.392739191024
 10
-1207.526571531947
 20
-1333.381522441073
 42
-0.0078058045895614
 10
-1207.24298141399
 20
-1333.244160985433
 10
-1207.233074326285
 20
-1333.239551857567
 42
-0.0181829330471406
 10
-1206.922764921672
 20
-1333.108688116472
 10
-1206.868709479103
 20
-1333.088172996528
 42
-0.0208411536028144
 10
-1206.519624511652
 20
-1332.972082534034
 10
-1206.505268411523
 20
-1332.96796408908
 42
-0.0222799817135557
 10
-1206.176548617607
 20
-1332.88932252294
 10
-1206.167659654368
 20
-1332.887610512355
 42
-0.0215509523880223
 10
-1205.851188686091
 20
-1332.840694823821
 10
-1205.808706725044
 20
-1332.836257297031
 42
-0.0182545924877534
 10
-1205.574597945736
 20
-1332.820413471639
 10
-1205.535196929388
 20
-1332.81918892656
 42
-0.0072962856535618
 10
-1205.379274049699
 20
-1332.816619598038
 10
-1205.350174379128
 20
-1332.816564762634
 42
-0.0059227516310098
 10
-1205.252424879982
 20
-1332.817538474425
 10
-1205.223182662489
 20
-1332.818176241028
 42
-0.0011833111898336
 10
-1205.183931378778
 20
-1332.819125245338
 10
-1205.979317974385
 20
-1335.357859190437
 42
0.0143932051529253
 10
-1206.005719356735
 20
-1335.347660220392
 10
-1206.012991329153
 20
-1335.345089001534
 42
0.0234388603486522
 10
-1206.054822195085
 20
-1335.332469765819
 10
-1206.063503857998
 20
-1335.330288803814
 42
0.01991627429653
 10
-1206.123792692077
 20
-1335.317672068479
 10
-1206.144606629884
 20
-1335.31417486905
 42
0.0293643550671274
 10
-1206.247681488645
 20
-1335.303024823397
 10
-1206.272366669363
 20
-1335.301813206379
 42
0.0214606686868748
 10
-1206.425507585312
 20
-1335.300874645961
 10
-1206.434879496134
 20
-1335.301219557506
 42
0.0167564054186671
 10
-1206.606399687245
 20
-1335.313296599874
 10
-1206.614859480002
 20
-1335.314177940301
 42
0.0137677553248957
 10
-1206.802212793272
 20
-1335.338927248845
 10
-1206.809564532774
 20
-1335.340105168812
 42
0.0118497261480479
 10
-1207.010062296871
 20
-1335.377122519
 10
-1207.016212304123
 20
-1335.378409381721
 42
0.0106421143890938
 10
-1207.227093191414
 20
-1335.427241757298
 10
-1207.232001999797
 20
-1335.428489099981
 42
0.0099746379703691
 10
-1207.450460468955
 20
-1335.488663628295
 10
-1207.512008509129
 20
-1335.506945506927
 42
0.0191613675862463
 10
-1207.847992971646
 20
-1335.620922887214
 10
-1207.936052744389
 20
-1335.654609797537
 42
0.020527408014296
 10
-1208.321359516291
 20
-1335.820438205364
 10
-1208.379008798273
 20
-1335.848106169937
 42
0.018125691219412
 10
-1208.63728573894
 20
-1335.983789988914
 10
-1208.690241122255
 20
-1336.01410760213
 42
0.0140709242408015
 10
-1208.835196056882
 20
-1336.102602275564
 10
-1208.861444925495
 20
-1336.119659094275
 42
0.0086667884386897
 10
-1208.950371087043
 20
-1336.179661762162
 42
0.0036408192032243
 10
-1209.037804325084
 20
-1336.24184261996
 10
-1209.073031199545
 20
-1336.267283565867
 42
0.0052260781273742
 10
-1209.229259896939
 20
-1336.382615952503
 10
-1209.245466753196
 20
-1336.394844063119
 42
0.0050024435889951
 10
-1209.431470096248
 20
-1336.538126631376
 10
-1209.44678825277
 20
-1336.550172653827
 42
0.0136138710278245
 10
-1209.657229521098
 20
-1336.725139158743
 10
-1209.690897396889
 20
-1336.754718131455
 42
0.0172815186912096
 10
-1209.955300938554
 20
-1337.00371480408
 10
-1209.957863284394
 20
-1337.006300621225
 42
0.0189403857990776
 10
-1210.208445082971
 20
-1337.279105886028
 10
-1210.241076576508
 20
-1337.317449817526
 42
0.0185044199504885
 10
-1210.433033015489
 20
-1337.56069839865
 42
0.0088565243901522
 10
-1210.611493122119
 20
-1337.814214818801
 10
-1210.620671101766
 20
-1337.82775619856
 42
0.01571953472295
 10
-1210.803891708101
 20
-1338.117278407877
 10
-1210.849974650033
 20
-1338.1954306049
 42
0.0095451879786985
 10
-1211.015060200169
 20
-1338.488025247253
 10
-1211.026208119097
 20
-1338.508695919382
 42
0.0100351706259581
 10
-1211.158251868258
 20
-1338.765751479876
 42
0.0086935915424486
 10
-1211.280583020051
 20
-1339.027584625278
 10
-1211.283903761466
 20
-1339.035026948252
 42
0.0072580174867578
 10
-1211.404250213413
 20
-1339.315618939838
 10
-1211.407511846718
 20
-1339.323538965853
 42
0.0060005122612309
 10
-1211.526712515064
 20
-1339.623148636469
 10
-1211.529923493402
 20
-1339.631510164363
 42
0.0049017786980682
 10
-1211.648823652259
 20
-1339.950439144968
 10
-1211.651989458649
 20
-1339.959192082198
 42
0.0039415167607336
 10
-1211.771425736706
 20
-1340.29773414461
 10
-1211.774556839358
 20
-1340.306837345487
 42
0.0031035838762885
 10
-1211.895361625042
 20
-1340.665277207231
 10
-1211.898471669582
 20
-1340.674697828635
 42
0.0025070747151462
 10
-1212.021373020886
 20
-1341.053345045545
 10
-1212.058666917323
 20
-1341.170236710832
 42
0.002908191028462
 10
-1212.250685215143
 20
-1341.784400369155
 10
-1212.291488383651
 20
-1341.9176236114
 42
0.0009266453733613
 10
-1212.55990575797
 20
-1342.799848071338
 10
-1212.580793230607
 20
-1342.868959950563
 42
-0.0005809993665352
 10
-1212.858129911197
 20
-1343.782768057198
 10
-1212.924411709473
 20
-1344.000252989368
 42
-0.0012018708166358
 10
-1213.071396018899
 20
-1344.478415653879
 10
-1213.123715870478
 20
-1344.647174794788
 42
-0.0002691059610519
 10
-1213.167285351633
 20
-1344.787442415086
 10
-1216.000241249923
 20
-1353.876597017386
 10
-1217.818230141901
 20
-1353.876597017386
 10
-1211.565980725853
 20
-1333.232878980856
  0
SPLINE
  5
61
330
23
100
AcDbEntity
  8
0
  6
Continuous
 62
     7
370
    15
390
1D
100
AcDbSpline
210
0.0
220
0.0
230
1.0
 70
    15
 71
     2
 72
   782
 73
   779
 74
     0
 42
0.000000001
 43
0.000001
 40
0.0
 40
0.0
 40
0.0
 40
1.0
 40
1.0
 40
2.0
 40
2.0
 40
3.0
 40
3.0
 40
4.0
 40
4.0
 40
5.0
 40
5.0
 40
6.0
 40
6.0
 40
7.0
 40
7.0
 40
8.0
 40
8.0
 40
9.0
 40
9.0
 40
10.0
 40
10.0
 40
11.0
 40
11.0
 40
12.0
 40
12.0
 40
13.0
 40
13.0
 40
14.0
 40
14.0
 40
15.0
 40
15.0
 40
16.0
 40
16.0
 40
17.0
 40
17.0
 40
18.0
 40
18.0
 40
19.0
 40
19.0
 40
20.0
 40
20.0
 40
21.0
 40
21.0
 40
22.0
 40
22.0
 40
23.0
 40
23.0
 40
24.0
 40
24.0
 40
25.0
 40
25.0
 40
26.0
 40
26.0
 40
27.0
 40
27.0
 40
28.0
 40
28.0
 40
29.0
 40
29.0
 40
30.0
 40
30.0
 40
31.0
 40
31.0
 40
32.0
 40
32.0
 40
33.0
 40
33.0
 40
34.0
 40
34.0
 40
35.0
 40
35.0
 40
36.0
 40
36.0
 40
37.0
 40
37.0
 40
38.0
 40
38.0
 40
39.0
 40
39.0
 40
40.0
 40
40.0
 40
41.0
 40
41.0
 40
42.0
 40
42.0
 40
43.0
 40
43.0
 40
44.0
 40
44.0
 40
45.0
 40
45.0
 40
46.0
 40
46.0
 40
47.0
 40
47.0
 40
48.0
 40
48.0
 40
49.0
 40
49.0
 40
50.0
 40
50.0
 40
51.0
 40
51.0
 40
52.0
 40
52.0
 40
53.0
 40
53.0
 40
54.0
 40
54.0
 40
55.0
 40
55.0
 40
56.0
 40
56.0
 40
57.0
 40
57.0
 40
58.0
 40
58.0
 40
59.0
 40
59.0
 40
60.0
 40
60.0
 40
61.0
 40
61.0
 40
62.0
 40
62.0
 40
63.0
 40
63.0
 40
64.0
 40
64.0
 40
65.0
 40
65.0
 40
66.0
 40
66.0
 40
67.0
 40
67.0
 40
68.0
 40
68.0
 40
69.0
 40
69.0
 40
70.0
 40
70.0
 40
71.0
 40
71.0
 40
72.0
 40
72.0
 40
73.0
 40
73.0
 40
74.0
 40
74.0
 40
75.0
 40
75.0
 40
76.0
 40
76.0
 40
77.0
 40
77.0
 40
78.0
 40
78.0
 40
79.0
 40
79.0
 40
80.0
 40
80.0
 40
81.0
 40
81.0
 40
82.0
 40
82.0
 40
83.0
 40
83.0
 40
84.0
 40
84.0
 40
85.0
 40
85.0
 40
86.0
 40
86.0
 40
87.0
 40
87.0
 40
88.0
 40
88.0
 40
89.0
 40
89.0
 40
90.0
 40
90.0
 40
91.0
 40
91.0
 40
92.0
 40
92.0
 40
93.0
 40
93.0
 40
94.0
 40
94.0
 40
95.0
 40
95.0
 40
96.0
 40
96.0
 40
97.0
 40
97.0
 40
98.0
 40
98.0
 40
99.0
 40
99.0
 40
100.0
 40
100.0
 40
101.0
 40
101.0
 40
102.0
 40
102.0
 40
103.0
 40
103.0
 40
104.0
 40
104.0
 40
105.0
 40
105.0
 40
106.0
 40
106.0
 40
107.0
 40
107.0
 40
108.0
 40
108.0
 40
109.0
 40
109.0
 40
110.0
 40
110.0
 40
111.0
 40
111.0
 40
112.0
 40
112.0
 40
113.0
 40
113.0
 40
114.0
 40
114.0
 40
115.0
 40
115.0
 40
116.0
 40
116.0
 40
117.0
 40
117.0
 40
118.0
 40
118.0
 40
119.0
 40
119.0
 40
120.0
 40
120.0
 40
121.0
 40
121.0
 40
122.0
 40
122.0
 40
123.0
 40
123.0
 40
124.0
 40
124.0
 40
125.0
 40
125.0
 40
126.0
 40
126.0
 40
127.0
 40
127.0
 40
128.0
 40
128.0
 40
129.0
 40
129.0
 40
130.0
 40
130.0
 40
131.0
 40
131.0
 40
132.0
 40
132.0
 40
133.0
 40
133.0
 40
134.0
 40
134.0
 40
135.0
 40
135.0
 40
136.0
 40
136.0
 40
137.0
 40
137.0
 40
138.0
 40
138.0
 40
139.0
 40
139.0
 40
140.0
 40
140.0
 40
141.0
 40
141.0
 40
142.0
 40
142.0
 40
143.0
 40
143.0
 40
144.0
 40
144.0
 40
145.0
 40
145.0
 40
146.0
 40
146.0
 40
147.0
 40
147.0
 40
148.0
 40
148.0
 40
149.0
 40
149.0
 40
150.0
 40
150.0
 40
151.0
 40
151.0
 40
152.0
 40
152.0
 40
153.0
 40
153.0
 40
154.0
 40
154.0
 40
155.0
 40
155.0
 40
156.0
 40
156.0
 40
157.0
 40
157.0
 40
158.0
 40
158.0
 40
159.0
 40
159.0
 40
160.0
 40
160.0
 40
161.0
 40
161.0
 40
162.0
 40
162.0
 40
163.0
 40
163.0
 40
164.0
 40
164.0
 40
165.0
 40
165.0
 40
166.0
 40
166.0
 40
167.0
 40
167.0
 40
168.0
 40
168.0
 40
169.0
 40
169.0
 40
170.0
 40
170.0
 40
171.0
 40
171.0
 40
172.0
 40
172.0
 40
173.0
 40
173.0
 40
174.0
 40
174.0
 40
175.0
 40
175.0
 40
176.0
 40
176.0
 40
177.0
 40
177.0
 40
178.0
 40
178.0
 40
179.0
 40
179.0
 40
180.0
 40
180.0
 40
181.0
 40
181.0
 40
182.0
 40
182.0
 40
183.0
 40
183.0
 40
184.0
 40
184.0
 40
185.0
 40
185.0
 40
186.0
 40
186.0
 40
187.0
 40
187.0
 40
188.0
 40
188.0
 40
189.0
 40
189.0
 40
190.0
 40
190.0
 40
191.0
 40
191.0
 40
192.0
 40
192.0
 40
193.0
 40
193.0
 40
194.0
 40
194.0
 40
195.0
 40
195.0
 40
196.0
 40
196.0
 40
197.0
 40
197.0
 40
198.0
 40
198.0
 40
199.0
 40
199.0
 40
200.0
 40
200.0
 40
201.0
 40
201.0
 40
202.0
 40
202.0
 40
203.0
 40
203.0
 40
204.0
 40
204.0
 40
205.0
 40
205.0
 40
206.0
 40
206.0
 40
207.0
 40
207.0
 40
208.0
 40
208.0
 40
209.0
 40
209.0
 40
210.0
 40
210.0
 40
211.0
 40
211.0
 40
212.0
 40
212.0
 40
213.0
 40
213.0
 40
214.0
 40
214.0
 40
215.0
 40
215.0
 40
216.0
 40
216.0
 40
217.0
 40
217.0
 40
218.0
 40
218.0
 40
219.0
 40
219.0
 40
220.0
 40
220.0
 40
221.0
 40
221.0
 40
222.0
 40
222.0
 40
223.0
 40
223.0
 40
224.0
 40
224.0
 40
225.0
 40
225.0
 40
226.0
 40
226.0
 40
227.0
 40
227.0
 40
228.0
 40
228.0
 40
229.0
 40
229.0
 40
230.0
 40
230.0
 40
231.0
 40
231.0
 40
232.0
 40
232.0
 40
233.0
 40
233.0
 40
234.0
 40
234.0
 40
235.0
 40
235.0
 40
236.0
 40
236.0
 40
237.0
 40
237.0
 40
238.0
 40
238.0
 40
239.0
 40
239.0
 40
240.0
 40
240.0
 40
241.0
 40
241.0
 40
242.0
 40
242.0
 40
243.0
 40
243.0
 40
244.0
 40
244.0
 40
245.0
 40
245.0
 40
246.0
 40
246.0
 40
247.0
 40
247.0
 40
248.0
 40
248.0
 40
249.0
 40
249.0
 40
250.0
 40
250.0
 40
251.0
 40
251.0
 40
252.0
 40
252.0
 40
253.0
 40
253.0
 40
254.0
 40
254.0
 40
255.0
 40
255.0
 40
256.0
 40
256.0
 40
257.0
 40
257.0
 40
258.0
 40
258.0
 40
259.0
 40
259.0
 40
260.0
 40
260.0
 40
261.0
 40
261.0
 40
262.0
 40
262.0
 40
263.0
 40
263.0
 40
264.0
 40
264.0
 40
265.0
 40
265.0
 40
266.0
 40
266.0
 40
267.0
 40
267.0
 40
268.0
 40
268.0
 40
269.0
 40
269.0
 40
270.0
 40
270.0
 40
271.0
 40
271.0
 40
272.0
 40
272.0
 40
273.0
 40
273.0
 40
274.0
 40
274.0
 40
275.0
 40
275.0
 40
276.0
 40
276.0
 40
277.0
 40
277.0
 40
278.0
 40
278.0
 40
279.0
 40
279.0
 40
280.0
 40
280.0
 40
281.0
 40
281.0
 40
282.0
 40
282.0
 40
283.0
 40
283.0
 40
284.0
 40
284.0
 40
285.0
 40
285.0
 40
286.0
 40
286.0
 40
287.0
 40
287.0
 40
288.0
 40
288.0
 40
289.0
 40
289.0
 40
290.0
 40
290.0
 40
291.0
 40
291.0
 40
292.0
 40
292.0
 40
293.0
 40
293.0
 40
294.0
 40
294.0
 40
295.0
 40
295.0
 40
296.0
 40
296.0
 40
297.0
 40
297.0
 40
298.0
 40
298.0
 40
299.0
 40
299.0
 40
300.0
 40
300.0
 40
301.0
 40
301.0
 40
302.0
 40
302.0
 40
303.0
 40
303.0
 40
304.0
 40
304.0
 40
305.0
 40
305.0
 40
306.0
 40
306.0
 40
307.0
 40
307.0
 40
308.0
 40
308.0
 40
309.0
 40
309.0
 40
310.0
 40
310.0
 40
311.0
 40
311.0
 40
312.0
 40
312.0
 40
313.0
 40
313.0
 40
314.0
 40
314.0
 40
315.0
 40
315.0
 40
316.0
 40
316.0
 40
317.0
 40
317.0
 40
318.0
 40
318.0
 40
319.0
 40
319.0
 40
320.0
 40
320.0
 40
321.0
 40
321.0
 40
322.0
 40
322.0
 40
323.0
 40
323.0
 40
324.0
 40
324.0
 40
325.0
 40
325.0
 40
326.0
 40
326.0
 40
327.0
 40
327.0
 40
328.0
 40
328.0
 40
329.0
 40
329.0
 40
330.0
 40
330.0
 40
331.0
 40
331.0
 40
332.0
 40
332.0
 40
333.0
 40
333.0
 40
334.0
 40
334.0
 40
335.0
 40
335.0
 40
336.0
 40
336.0
 40
337.0
 40
337.0
 40
338.0
 40
338.0
 40
339.0
 40
339.0
 40
340.0
 40
340.0
 40
341.0
 40
341.0
 40
342.0
 40
342.0
 40
343.0
 40
343.0
 40
344.0
 40
344.0
 40
345.0
 40
345.0
 40
346.0
 40
346.0
 40
347.0
 40
347.0
 40
348.0
 40
348.0
 40
349.0
 40
349.0
 40
350.0
 40
350.0
 40
351.0
 40
351.0
 40
352.0
 40
352.0
 40
353.0
 40
353.0
 40
354.0
 40
354.0
 40
355.0
 40
355.0
 40
356.0
 40
356.0
 40
357.0
 40
357.0
 40
358.0
 40
358.0
 40
359.0
 40
359.0
 40
360.0
 40
360.0
 40
361.0
 40
361.0
 40
362.0
 40
362.0
 40
363.0
 40
363.0
 40
364.0
 40
364.0
 40
365.0
 40
365.0
 40
366.0
 40
366.0
 40
367.0
 40
367.0
 40
368.0
 40
368.0
 40
369.0
 40
369.0
 40
370.0
 40
370.0
 40
371.0
 40
371.0
 40
372.0
 40
372.0
 40
373.0
 40
373.0
 40
374.0
 40
374.0
 40
375.0
 40
375.0
 40
376.0
 40
376.0
 40
377.0
 40
377.0
 40
378.0
 40
378.0
 40
379.0
 40
379.0
 40
380.0
 40
380.0
 40
381.0
 40
381.0
 40
382.0
 40
382.0
 40
383.0
 40
383.0
 40
384.0
 40
384.0
 40
385.0
 40
385.0
 40
386.0
 40
386.0
 40
387.0
 40
387.0
 40
388.0
 40
388.0
 40
389.0
 40
389.0
 40
389.0
 10
-1201.237276275121
 20
-1333.221952617494
 30
0.0
 41
1.0
 10
-1200.4188521664
 20
-1333.221952617494
 30
0.0
 41
1.0
 10
-1199.600428057679
 20
-1333.221952617494
 30
0.0
 41
1.0
 10
-1200.014181793196
 20
-1334.564578881743
 30
0.0
 41
1.0
 10
-1200.427935528713
 20
-1335.907205145993
 30
0.0
 41
1.0
 10
-1200.409596033542
 20
-1335.878504373077
 30
0.0
 41
0.9999957264377287
 10
-1200.391089036708
 20
-1335.84991132292
 30
0.0
 41
1.0
 10
-1200.360659712574
 20
-1335.80289844455
 30
0.0
 41
1.0
 10
-1200.33023038844
 20
-1335.755885566179
 30
0.0
 41
1.0
 10
-1200.250864743334
 20
-1335.633266759276
 30
0.0
 41
0.9995394069081313
 10
-1200.164206351782
 20
-1335.515688697535
 30
0.0
 41
1.0
 10
-1200.128449489523
 20
-1335.467173804941
 30
0.0
 41
1.0
 10
-1200.092692627263
 20
-1335.418658912348
 30
0.0
 41
1.0
 10
-1199.958965959444
 20
-1335.237218637221
 30
0.0
 41
0.999446061714337
 10
-1199.813465478156
 20
-1335.065076239571
 30
0.0
 41
1.0
 10
-1199.809077297181
 20
-1335.059884559188
 30
0.0
 41
1.0
 10
-1199.804689116206
 20
-1335.054692878806
 30
0.0
 41
1.0
 10
-1199.667964996868
 20
-1334.892933841921
 30
0.0
 41
0.9994359394934128
 10
-1199.520690766517
 20
-1334.740717640756
 30
0.0
 41
1.0
 10
-1199.518307412563
 20
-1334.738254310383
 30
0.0
 41
1.0
 10
-1199.51592405861
 20
-1334.73579098001
 30
0.0
 41
1.0
 10
-1199.373416536166
 20
-1334.588501439592
 30
0.0
 41
0.9995293688567751
 10
-1199.222144855183
 20
-1334.450228227427
 30
0.0
 41
1.0
 10
-1199.202851095921
 20
-1334.432592341777
 30
0.0
 41
1.0
 10
-1199.183557336658
 20
-1334.414956456127
 30
0.0
 41
1.0
 10
-1199.070873174201
 20
-1334.311955015263
 30
0.0
 41
0.9997087614803365
 10
-1198.953350285246
 20
-1334.214510734466
 30
0.0
 41
1.0
 10
-1198.934184212073
 20
-1334.19861915596
 30
0.0
 41
1.0
 10
-1198.9150181389
 20
-1334.182727577454
 30
0.0
 41
1.0
 10
-1198.835827396294
 20
-1334.11706645367
 30
0.0
 41
0.9999595338694249
 10
-1198.755468125436
 20
-1334.052840723013
 30
0.0
 41
1.0
 10
-1198.67510885458
 20
-1333.988614992357
 30
0.0
 41
0.999974941750993
 10
-1198.593848320234
 20
-1333.925533438409
 30
0.0
 41
1.0
 10
-1198.572862174068
 20
-1333.909242151104
 30
0.0
 41
1.0
 10
-1198.551876027901
 20
-1333.8929508638
 30
0.0
 41
1.0
 10
-1198.467308142604
 20
-1333.827301853962
 30
0.0
 41
0.9999792037122645
 10
-1198.381900542835
 20
-1333.762749072319
 30
0.0
 41
1.0
 10
-1198.361075716914
 20
-1333.747009250054
 30
0.0
 41
1.0
 10
-1198.340250890992
 20
-1333.731269427789
 30
0.0
 41
1.0
 10
-1198.296492943057
 20
-1333.698196290668
 30
0.0
 41
0.9999993374091605
 10
-1198.252811256922
 20
-1333.665022495251
 30
0.0
 41
1.0
 10
-1198.209129570778
 20
-1333.631848699827
 30
0.0
 41
0.9999160953816703
 10
-1198.164603159857
 20
-1333.599817634628
 30
0.0
 41
1.0
 10
-1198.131781272439
 20
-1333.576206479043
 30
0.0
 41
1.0
 10
-1198.09895938502
 20
-1333.552595323459
 30
0.0
 41
1.0
 10
-1197.988789199262
 20
-1333.473341947091
 30
0.0
 41
0.9980964527231279
 10
-1197.869700205762
 20
-1333.408254474235
 30
0.0
 41
1.0
 10
-1197.832667598833
 20
-1333.388014494642
 30
0.0
 41
1.0
 10
-1197.795634991905
 20
-1333.367774515049
 30
0.0
 41
1.0
 10
-1197.616307978632
 20
-1333.269764264347
 30
0.0
 41
0.9984572810572573
 10
-1197.427219412273
 20
-1333.192242003001
 30
0.0
 41
1.0
 10
-1197.423573142878
 20
-1333.190747110664
 30
0.0
 41
1.0
 10
-1197.419926873482
 20
-1333.189252218326
 30
0.0
 41
1.0
 10
-1197.238130845915
 20
-1333.114719741655
 30
0.0
 41
0.9987838528033856
 10
-1197.049878187355
 20
-1333.058454101489
 30
0.0
 41
1.0
 10
-1197.045640238156
 20
-1333.057187447799
 30
0.0
 41
1.0
 10
-1197.041402288958
 20
-1333.055920794109
 30
0.0
 41
1.0
 10
-1196.861625528796
 20
-1333.002188461323
 30
0.0
 41
0.9990652816207236
 10
-1196.67787959708
 20
-1332.964184781781
 30
0.0
 41
1.0
 10
-1196.672691196048
 20
-1332.963111678675
 30
0.0
 41
1.0
 10
-1196.667502795015
 20
-1332.962038575568
 30
0.0
 41
1.0
 10
-1196.494133665363
 20
-1332.926181102239
 30
0.0
 41
0.9992909934270685
 10
-1196.318557898906
 20
-1332.903470669773
 30
0.0
 41
1.0
 10
-1196.142982132449
 20
-1332.880760237306
 30
0.0
 41
0.9994553539448577
 10
-1195.966290699358
 20
-1332.8696809331
 30
0.0
 41
1.0
 10
-1195.930856291561
 20
-1332.867459045052
 30
0.0
 41
1.0
 10
-1195.895421883764
 20
-1332.865237157004
 30
0.0
 41
1.0
 10
-1195.729196117194
 20
-1332.854814094593
 30
0.0
 41
0.9990928098292944
 10
-1195.562686325291
 20
-1332.858573735827
 30
0.0
 41
1.0
 10
-1195.524124490023
 20
-1332.85944442736
 30
0.0
 41
1.0
 10
-1195.485562654754
 20
-1332.860315118893
 30
0.0
 41
1.0
 10
-1195.396176533392
 20
-1332.862333377062
 30
0.0
 41
0.9998382089205665
 10
-1195.306920850602
 20
-1332.86756550359
 30
0.0
 41
1.0
 10
-1195.306490944379
 20
-1332.867590704492
 30
0.0
 41
1.0
 10
-1195.306061038156
 20
-1332.867615905395
 30
0.0
 41
1.0
 10
-1195.217665167813
 20
-1332.872797630118
 30
0.0
 41
0.9997558016758791
 10
-1195.129584590615
 20
-1332.881880145485
 30
0.0
 41
1.0
 10
-1195.129108452183
 20
-1332.881929242967
 30
0.0
 41
1.0
 10
-1195.128632313752
 20
-1332.88197834045
 30
0.0
 41
1.0
 10
-1195.041504013412
 20
-1332.890962660851
 30
0.0
 41
0.9996565144182167
 10
-1194.954966160072
 20
-1332.90449996754
 30
0.0
 41
1.0
 10
-1194.954500234695
 20
-1332.904572853271
 30
0.0
 41
1.0
 10
-1194.954034309318
 20
-1332.904645739002
 30
0.0
 41
1.0
 10
-1194.86842830673
 20
-1332.918037274229
 30
0.0
 41
0.9995321806867316
 10
-1194.783801226402
 20
-1332.936637762658
 30
0.0
 41
1.0
 10
-1194.783412031829
 20
-1332.936723305124
 30
0.0
 41
1.0
 10
-1194.783022837256
 20
-1332.93680884759
 30
0.0
 41
1.0
 10
-1194.699174146073
 20
-1332.955238251088
 30
0.0
 41
0.9993819199219027
 10
-1194.616827611878
 20
-1332.979513634348
 30
0.0
 41
1.0
 10
-1194.616589178379
 20
-1332.979583923458
 30
0.0
 41
1.0
 10
-1194.616350744881
 20
-1332.979654212567
 30
0.0
 41
1.0
 10
-1194.534481077681
 20
-1333.003789017609
 30
0.0
 41
0.9992088568504972
 10
-1194.454788558694
 20
-1333.034354253403
 30
0.0
 41
1.0
 10
-1194.375107567814
 20
-1333.064913854136
 30
0.0
 41
0.999022610177269
 10
-1194.298436897907
 20
-1333.102391285751
 30
0.0
 41
1.0
 10
-1194.22177775611
 20
-1333.139863082304
 30
0.0
 41
0.9988424273972287
 10
-1194.149074128899
 20
-1333.184527857556
 30
0.0
 41
1.0
 10
-1194.148806420519
 20
-1333.184692321629
 30
0.0
 41
1.0
 10
-1194.148538712138
 20
-1333.184856785702
 30
0.0
 41
1.0
 10
-1194.075299668169
 20
-1333.229850489097
 30
0.0
 41
0.9986928844489436
 10
-1194.007036801462
 20
-1333.282086223375
 30
0.0
 41
1.0
 10
-1194.006455509237
 20
-1333.282531036605
 30
0.0
 41
1.0
 10
-1194.005874217012
 20
-1333.282975849835
 30
0.0
 41
1.0
 10
-1193.936448765858
 20
-1333.336101210569
 30
0.0
 41
0.9986007262277323
 10
-1193.873022596093
 20
-1333.396261980261
 30
0.0
 41
1.0
 10
-1193.872128180634
 20
-1333.397110348098
 30
0.0
 41
1.0
 10
-1193.871233765175
 20
-1333.397958715934
 30
0.0
 41
1.0
 10
-1193.806018764493
 20
-1333.459816221299
 30
0.0
 41
0.9985581491380991
 10
-1193.747811152791
 20
-1333.528308711572
 30
0.0
 41
1.0
 10
-1193.738552699196
 20
-1333.539203069272
 30
0.0
 41
1.0
 10
-1193.729294245601
 20
-1333.550097426973
 30
0.0
 41
1.0
 10
-1193.652569726708
 20
-1333.640378632647
 30
0.0
 41
0.997046023351936
 10
-1193.590577825549
 20
-1333.741345716829
 30
0.0
 41
1.0
 10
-1193.576108460469
 20
-1333.76491217591
 30
0.0
 41
1.0
 10
-1193.561639095389
 20
-1333.788478634992
 30
0.0
 41
1.0
 10
-1193.521902395377
 20
-1333.853198359024
 30
0.0
 41
0.9988468816636421
 10
-1193.488556024625
 20
-1333.921430811451
 30
0.0
 41
1.0
 10
-1193.481520002133
 20
-1333.93582773259
 30
0.0
 41
1.0
 10
-1193.474483979641
 20
-1333.950224653728
 30
0.0
 41
1.0
 10
-1193.455209653874
 20
-1333.989663263879
 30
0.0
 41
0.9998431189997641
 10
-1193.437344326379
 20
-1334.029759818319
 30
0.0
 41
1.0
 10
-1193.419478998855
 20
-1334.069856372825
 30
0.0
 41
0.9999989990086504
 10
-1193.401500275401
 20
-1334.109902210479
 30
0.0
 41
1.0
 10
-1193.395327963837
 20
-1334.123650427224
 30
0.0
 41
1.0
 10
-1193.389155652274
 20
-1334.137398643969
 30
0.0
 41
1.0
 10
-1193.358832305661
 20
-1334.204940915183
 30
0.0
 41
0.9998790356322274
 10
-1193.330624425521
 20
-1334.273393667126
 30
0.0
 41
1.0
 10
-1193.323789244235
 20
-1334.289980768557
 30
0.0
 41
1.0
 10
-1193.316954062949
 20
-1334.306567869989
 30
0.0
 41
1.0
 10
-1193.293396400573
 20
-1334.363735824865
 30
0.0
 41
0.9998227574561234
 10
-1193.272007652187
 20
-1334.421750133133
 30
0.0
 41
1.0
 10
-1193.250618903797
 20
-1334.479764441413
 30
0.0
 41
0.9996797971042547
 10
-1193.232192618837
 20
-1334.538786560533
 30
0.0
 41
1.0
 10
-1193.228288816112
 20
-1334.5512910187
 30
0.0
 41
1.0
 10
-1193.224385013387
 20
-1334.563795476867
 30
0.0
 41
1.0
 10
-1193.198151122977
 20
-1334.647826512323
 30
0.0
 41
0.9979274938733534
 10
-1193.182926599498
 20
-1334.734530870983
 30
0.0
 41
1.0
 10
-1193.180702912237
 20
-1334.747194871804
 30
0.0
 41
1.0
 10
-1193.178479224976
 20
-1334.759858872624
 30
0.0
 41
1.0
 10
-1193.167549285277
 20
-1334.822105379915
 30
0.0
 41
0.9994985982137152
 10
-1193.1605811201
 20
-1334.884918881058
 30
0.0
 41
1.0
 10
-1193.153612954923
 20
-1334.947732382201
 30
0.0
 41
0.9996372611200962
 10
-1193.150037089155
 20
-1335.010829960886
 30
0.0
 41
1.0
 10
-1193.149868511666
 20
-1335.013804577966
 30
0.0
 41
1.0
 10
-1193.149699934177
 20
-1335.016779195046
 30
0.0
 41
1.0
 10
-1193.145786913431
 20
-1335.085826007889
 30
0.0
 41
0.9997730630736247
 10
-1193.144818599942
 20
-1335.15497683192
 30
0.0
 41
1.0
 10
-1193.144761493524
 20
-1335.159055011065
 30
0.0
 41
1.0
 10
-1193.144704387106
 20
-1335.16313319021
 30
0.0
 41
1.0
 10
-1193.143621860782
 20
-1335.240440372523
 30
0.0
 41
0.9998772614071965
 10
-1193.144961947514
 20
-1335.317743519083
 30
0.0
 41
1.0
 10
-1193.145051210712
 20
-1335.322892682922
 30
0.0
 41
1.0
 10
-1193.145140473911
 20
-1335.328041846762
 30
0.0
 41
1.0
 10
-1193.14665908704
 20
-1335.415643320998
 30
0.0
 41
0.9999415567325863
 10
-1193.150071397286
 20
-1335.503191482673
 30
0.0
 41
1.0
 10
-1193.150312717962
 20
-1335.50938294241
 30
0.0
 41
1.0
 10
-1193.150554038637
 20
-1335.515574402146
 30
0.0
 41
1.0
 10
-1193.154448990234
 20
-1335.615505483307
 30
0.0
 41
0.9999716810422908
 10
-1193.159847573353
 20
-1335.715366621545
 30
0.0
 41
1.0
 10
-1193.163060372141
 20
-1335.774795871193
 30
0.0
 41
1.0
 10
-1193.16627317093
 20
-1335.83422512084
 30
0.0
 41
1.0
 10
-1193.174347080082
 20
-1335.98357352212
 30
0.0
 41
0.9999819129910692
 10
-1193.184216871699
 20
-1336.132813999832
 30
0.0
 41
1.0
 10
-1193.194086663315
 20
-1336.282054477543
 30
0.0
 41
1.0
 10
-1193.196525983879
 20
-1336.319247523393
 30
0.0
 41
1.0
 10
-1193.173827750049
 20
-1336.280506526065
 30
0.0
 41
0.9999982128233605
 10
-1193.150983191285
 20
-1336.241851632092
 30
0.0
 41
1.0
 10
-1193.124073631404
 20
-1336.196318418043
 30
0.0
 41
1.0
 10
-1193.097164071523
 20
-1336.150785203994
 30
0.0
 41
1.0
 10
-1193.020500392998
 20
-1336.021063881925
 30
0.0
 41
0.9998609190056246
 10
-1192.939553080135
 20
-1335.893971499994
 30
0.0
 41
1.0
 10
-1192.909904758656
 20
-1335.847421767042
 30
0.0
 41
1.0
 10
-1192.880256437177
 20
-1335.800872034089
 30
0.0
 41
1.0
 10
-1192.797984216937
 20
-1335.671699464089
 30
0.0
 41
0.9999067609732654
 10
-1192.712215207471
 20
-1335.544821774645
 30
0.0
 41
1.0
 10
-1192.70981050427
 20
-1335.54126450859
 30
0.0
 41
1.0
 10
-1192.707405801069
 20
-1335.537707242535
 30
0.0
 41
1.0
 10
-1192.626446198008
 20
-1335.417944085204
 30
0.0
 41
0.9998784952149244
 10
-1192.541792588326
 20
-1335.300762868495
 30
0.0
 41
1.0
 10
-1192.457138978645
 20
-1335.183581651786
 30
0.0
 41
0.9998532968284077
 10
-1192.368521357823
 20
-1335.069368743317
 30
0.0
 41
1.0
 10
-1192.348559568831
 20
-1335.043641422296
 30
0.0
 41
1.0
 10
-1192.328597779839
 20
-1335.017914101274
 30
0.0
 41
1.0
 10
-1192.21011373008
 20
-1334.865208490306
 30
0.0
 41
0.9991551975795272
 10
-1192.079489280457
 20
-1334.722748928223
 30
0.0
 41
1.0
 10
-1192.075979664477
 20
-1334.718921326599
 30
0.0
 41
1.0
 10
-1192.072470048497
 20
-1334.715093724974
 30
0.0
 41
1.0
 10
-1191.948864830833
 20
-1334.58028936614
 30
0.0
 41
0.9997418144180739
 10
-1191.819262691133
 20
-1334.451239955527
 30
0.0
 41
1.0
 10
-1191.689660551433
 20
-1334.322190544915
 30
0.0
 41
0.998923820463293
 10
-1191.548658003182
 20
-1334.205705582877
 30
0.0
 41
1.0
 10
-1191.503410325042
 20
-1334.168325591268
 30
0.0
 41
1.0
 10
-1191.458162646902
 20
-1334.130945599658
 30
0.0
 41
1.0
 10
-1191.317922589681
 20
-1334.015090546367
 30
0.0
 41
0.9990825084096335
 10
-1191.168282657077
 20
-1333.911661548535
 30
0.0
 41
1.0
 10
-1191.158237293019
 20
-1333.904718335455
 30
0.0
 41
1.0
 10
-1191.148191928962
 20
-1333.897775122375
 30
0.0
 41
1.0
 10
-1191.018642724472
 20
-1333.808232550701
 30
0.0
 41
0.9998164899824907
 10
-1190.885758521097
 20
-1333.723718309185
 30
0.0
 41
1.0
 10
-1190.873912960569
 20
-1333.716184542659
 30
0.0
 41
1.0
 10
-1190.862067400042
 20
-1333.708650776132
 30
0.0
 41
1.0
 10
-1190.752874317719
 20
-1333.639204067668
 30
0.0
 41
0.9997473449131744
 10
-1190.640670360471
 20
-1333.574735109853
 30
0.0
 41
1.0
 10
-1190.528466403224
 20
-1333.510266152039
 30
0.0
 41
0.9999327861144179
 10
-1190.414797792463
 20
-1333.448416160358
 30
0.0
 41
1.0
 10
-1190.4142457899
 20
-1333.448115801678
 30
0.0
 41
1.0
 10
-1190.413693787337
 20
-1333.447815442998
 30
0.0
 41
1.0
 10
-1190.298921171451
 20
-1333.385364733958
 30
0.0
 41
0.99969564204845
 10
-1190.181207845611
 20
-1333.328651266983
 30
0.0
 41
1.0
 10
-1190.15076744072
 20
-1333.313985290254
 30
0.0
 41
1.0
 10
-1190.120327035829
 20
-1333.299319313525
 30
0.0
 41
1.0
 10
-1190.017349929084
 20
-1333.24970565508
 30
0.0
 41
0.9998070570177184
 10
-1189.912503540141
 20
-1333.204175068179
 30
0.0
 41
1.0
 10
-1189.807657151201
 20
-1333.158644481278
 30
0.0
 41
0.999782743614754
 10
-1189.701004214592
 20
-1333.117523309966
 30
0.0
 41
1.0
 10
-1189.68178136496
 20
-1333.110111736334
 30
0.0
 41
1.0
 10
-1189.662558515328
 20
-1333.102700162701
 30
0.0
 41
1.0
 10
-1189.517459879455
 20
-1333.046755844124
 30
0.0
 41
0.9988031841976962
 10
-1189.367589516849
 20
-1333.005255779956
 30
0.0
 41
1.0
 10
-1189.342672268486
 20
-1332.998356034149
 30
0.0
 41
1.0
 10
-1189.317755020122
 20
-1332.991456288342
 30
0.0
 41
1.0
 10
-1189.150484994476
 20
-1332.945138145936
 30
0.0
 41
0.9984748040550092
 10
-1188.979128085828
 20
-1332.917543913671
 30
0.0
 41
1.0
 10
-1188.974388949578
 20
-1332.916780753158
 30
0.0
 41
1.0
 10
-1188.969649813329
 20
-1332.916017592644
 30
0.0
 41
1.0
 10
-1188.807771177178
 20
-1332.889949681406
 30
0.0
 41
0.9984436495480079
 10
-1188.643996433454
 20
-1332.882071727588
 30
0.0
 41
1.0
 10
-1188.622299225323
 20
-1332.881028040388
 30
0.0
 41
1.0
 10
-1188.600602017192
 20
-1332.879984353188
 30
0.0
 41
1.0
 10
-1188.48022168973
 20
-1332.874193773769
 30
0.0
 41
0.9987954789335168
 10
-1188.359853444819
 20
-1332.880230301511
 30
0.0
 41
1.0
 10
-1188.339888652328
 20
-1332.881231545849
 30
0.0
 41
1.0
 10
-1188.319923859836
 20
-1332.882232790188
 30
0.0
 41
1.0
 10
-1188.239485199912
 20
-1332.886266829253
 30
0.0
 41
0.99979415958772
 10
-1188.159276421815
 20
-1332.893560895174
 30
0.0
 41
1.0
 10
-1188.079067643719
 20
-1332.900854961096
 30
0.0
 41
0.9998589466237469
 10
-1187.999149096863
 20
-1332.910838815546
 30
0.0
 41
1.0
 10
-1187.966742895056
 20
-1332.914887172465
 30
0.0
 41
1.0
 10
-1187.934336693249
 20
-1332.918935529384
 30
0.0
 41
1.0
 10
-1187.789605742776
 20
-1332.937016097673
 30
0.0
 41
0.9993495063249608
 10
-1187.646554499009
 20
-1332.965481807415
 30
0.0
 41
1.0
 10
-1187.613620801858
 20
-1332.972035270629
 30
0.0
 41
1.0
 10
-1187.580687104707
 20
-1332.978588733844
 30
0.0
 41
1.0
 10
-1187.471393281503
 20
-1333.000337067979
 30
0.0
 41
0.9996788715561081
 10
-1187.363341709547
 20
-1333.027594867342
 30
0.0
 41
1.0
 10
-1187.361278707009
 20
-1333.028115293915
 30
0.0
 41
1.0
 10
-1187.35921570447
 20
-1333.028635720488
 30
0.0
 41
1.0
 10
-1187.255290137591
 20
-1333.054852666705
 30
0.0
 41
0.999548065449245
 10
-1187.153127902361
 20
-1333.08726762333
 30
0.0
 41
1.0
 10
-1187.151438260232
 20
-1333.087803728244
 30
0.0
 41
1.0
 10
-1187.149748618103
 20
-1333.088339833158
 30
0.0
 41
1.0
 10
-1187.050965667132
 20
-1333.119682579954
 30
0.0
 41
0.9993867959456428
 10
-1186.954618508689
 20
-1333.157861949244
 30
0.0
 41
1.0
 10
-1186.953375559603
 20
-1333.158354491141
 30
0.0
 41
1.0
 10
-1186.952132610516
 20
-1333.158847033038
 30
0.0
 41
1.0
 10
-1186.858271350245
 20
-1333.196041318535
 30
0.0
 41
0.9992050256522274
 10
-1186.767671675213
 20
-1333.240595217772
 30
0.0
 41
1.0
 10
-1186.766936992502
 20
-1333.240956510233
 30
0.0
 41
1.0
 10
-1186.76620230979
 20
-1333.241317802693
 30
0.0
 41
1.0
 10
-1186.677072000181
 20
-1333.28514911701
 30
0.0
 41
0.9990222350741418
 10
-1186.592161938786
 20
-1333.33668238471
 30
0.0
 41
1.0
 10
-1186.591978053503
 20
-1333.336793987615
 30
0.0
 41
1.0
 10
-1186.591794168219
 20
-1333.33690559052
 30
0.0
 41
1.0
 10
-1186.507251877392
 20
-1333.388215652408
 30
0.0
 41
0.9988642743805601
 10
-1186.427977342774
 20
-1333.447339839933
 30
0.0
 41
1.0
 10
-1186.348702808154
 20
-1333.506464027459
 30
0.0
 41
0.9987681233311227
 10
-1186.275679023877
 20
-1333.573154718861
 30
0.0
 41
1.0
 10
-1186.275350095912
 20
-1333.573455120074
 30
0.0
 41
1.0
 10
-1186.275021167947
 20
-1333.573755521287
 30
0.0
 41
1.0
 10
-1186.201339527741
 20
-1333.641047015115
 30
0.0
 41
0.9987496570898532
 10
-1186.134745722415
 20
-1333.7153598292
 30
0.0
 41
1.0
 10
-1186.133973552653
 20
-1333.71622150256
 30
0.0
 41
1.0
 10
-1186.133201382891
 20
-1333.717083175919
 30
0.0
 41
1.0
 10
-1186.065063238042
 20
-1333.793119336723
 30
0.0
 41
0.9988147669827341
 10
-1186.004640983816
 20
-1333.875420343567
 30
0.0
 41
1.0
 10
-1186.003521657739
 20
-1333.876944974918
 30
0.0
 41
1.0
 10
-1186.002402331663
 20
-1333.878469606269
 30
0.0
 41
1.0
 10
-1185.939741425283
 20
-1333.963819875815
 30
0.0
 41
0.9989452636215604
 10
-1185.885174512322
 20
-1334.054558564972
 30
0.0
 41
1.0
 10
-1185.883825786236
 20
-1334.056801345999
 30
0.0
 41
1.0
 10
-1185.88247706015
 20
-1334.059044127026
 30
0.0
 41
1.0
 10
-1185.825212695017
 20
-1334.154268378237
 30
0.0
 41
0.9991046436071158
 10
-1185.776203481695
 20
-1334.253992811262
 30
0.0
 41
1.0
 10
-1185.774739620105
 20
-1334.256971491335
 30
0.0
 41
1.0
 10
-1185.773275758515
 20
-1334.259950171407
 30
0.0
 41
1.0
 10
-1185.721338822014
 20
-1334.365631964576
 30
0.0
 41
0.9992763831100652
 10
-1185.67758569346
 20
-1334.47495602653
 30
0.0
 41
1.0
 10
-1185.676106423796
 20
-1334.478652214065
 30
0.0
 41
1.0
 10
-1185.674627154132
 20
-1334.482348401601
 30
0.0
 41
1.0
 10
-1185.62791548625
 20
-1334.599064838623
 30
0.0
 41
0.9994163472883748
 10
-1185.589282455061
 20
-1334.718698427087
 30
0.0
 41
1.0
 10
-1185.588044302813
 20
-1334.722532570872
 30
0.0
 41
1.0
 10
-1185.586806150566
 20
-1334.726366714656
 30
0.0
 41
1.0
 10
-1185.546922589549
 20
-1334.849872776134
 30
0.0
 41
0.99972680558907
 10
-1185.512854533637
 20
-1334.975107808083
 30
0.0
 41
1.0
 10
-1185.511924353368
 20
-1334.978527174189
 30
0.0
 41
1.0
 10
-1185.510994173099
 20
-1334.981946540296
 30
0.0
 41
1.0
 10
-1185.478786477726
 20
-1335.100342840031
 30
0.0
 41
0.9996701319000556
 10
-1185.452700860955
 20
-1335.220236793297
 30
0.0
 41
1.0
 10
-1185.426615244184
 20
-1335.340130746562
 30
0.0
 41
0.9995785451109425
 10
-1185.407531666844
 20
-1335.461336507596
 30
0.0
 41
1.0
 10
-1185.403311884671
 20
-1335.488137662358
 30
0.0
 41
1.0
 10
-1185.399092102498
 20
-1335.51493881712
 30
0.0
 41
1.0
 10
-1185.372517126559
 20
-1335.683724790824
 30
0.0
 41
0.9979925101216497
 10
-1185.367491540632
 20
-1335.854516118917
 30
0.0
 41
1.0
 10
-1185.366666728208
 20
-1335.882546842399
 30
0.0
 41
1.0
 10
-1185.365841915783
 20
-1335.910577565882
 30
0.0
 41
1.0
 10
-1185.362465954706
 20
-1336.025307447009
 30
0.0
 41
0.9995314902263369
 10
-1185.366116146844
 20
-1336.14002893076
 30
0.0
 41
1.0
 10
-1185.369766338983
 20
-1336.254750414508
 30
0.0
 41
0.9996245486944154
 10
-1185.379695434113
 20
-1336.369099685628
 30
0.0
 41
1.0
 10
-1185.379858482108
 20
-1336.370977441767
 30
0.0
 41
1.0
 10
-1185.380021530102
 20
-1336.372855197907
 30
0.0
 41
1.0
 10
-1185.390276721221
 20
-1336.490959981299
 30
0.0
 41
0.9997286095001463
 10
-1185.406022044793
 20
-1336.608458890191
 30
0.0
 41
1.0
 10
-1185.406415537443
 20
-1336.611395314895
 30
0.0
 41
1.0
 10
-1185.406809030094
 20
-1336.614331739599
 30
0.0
 41
1.0
 10
-1185.423341338966
 20
-1336.737703497898
 30
0.0
 41
0.9998265533970154
 10
-1185.444456797699
 20
-1336.860373972687
 30
0.0
 41
1.0
 10
-1185.445133339836
 20
-1336.864304351194
 30
0.0
 41
1.0
 10
-1185.445809881973
 20
-1336.868234729701
 30
0.0
 41
1.0
 10
-1185.468278424981
 20
-1336.99876596151
 30
0.0
 41
0.9999022530852838
 10
-1185.494387889591
 20
-1337.128617930151
 30
0.0
 41
1.0
 10
-1185.495366530756
 20
-1337.133485072535
 30
0.0
 41
1.0
 10
-1185.49634517192
 20
-1337.138352214918
 30
0.0
 41
1.0
 10
-1185.524411918861
 20
-1337.27793846833
 30
0.0
 41
0.9999524761934164
 10
-1185.555194887695
 20
-1337.416950961492
 30
0.0
 41
1.0
 10
-1185.556470994871
 20
-1337.422713720796
 30
0.0
 41
1.0
 10
-1185.557747102047
 20
-1337.4284764801
 30
0.0
 41
1.0
 10
-1185.591082285235
 20
-1337.57901449188
 30
0.0
 41
0.9999813588727785
 10
-1185.626253286034
 20
-1337.729134204548
 30
0.0
 41
1.0
 10
-1185.627807211488
 20
-1337.735766794959
 30
0.0
 41
1.0
 10
-1185.629361136941
 20
-1337.74239938537
 30
0.0
 41
1.0
 10
-1185.667639988652
 20
-1337.90578427888
 30
0.0
 41
0.9999955237702552
 10
-1185.706895866635
 20
-1338.068937182497
 30
0.0
 41
1.0
 10
-1185.719177502267
 20
-1338.11998137301
 30
0.0
 41
1.0
 10
-1185.7314591379
 20
-1338.171025563523
 30
0.0
 41
1.0
 10
-1185.795278287156
 20
-1338.436266848205
 30
0.0
 41
0.9999993604344586
 10
-1185.859697234337
 20
-1338.701363098944
 30
0.0
 41
1.0
 10
-1185.864416069874
 20
-1338.720782006942
 30
0.0
 41
1.0
 10
-1185.869134905411
 20
-1338.740200914941
 30
0.0
 41
1.0
 10
-1185.942991523674
 20
-1339.044134981709
 30
0.0
 41
0.9999659914727782
 10
-1186.021851119562
 20
-1339.346809528278
 30
0.0
 41
1.0
 10
-1186.02680380849
 20
-1339.365818665451
 30
0.0
 41
1.0
 10
-1186.031756497418
 20
-1339.384827802624
 30
0.0
 41
1.0
 10
-1186.120521471163
 20
-1339.725520623541
 30
0.0
 41
0.9999441976029152
 10
-1186.216464504126
 20
-1340.06426204884
 30
0.0
 41
1.0
 10
-1186.233165022552
 20
-1340.123225761369
 30
0.0
 41
1.0
 10
-1186.249865540978
 20
-1340.182189473897
 30
0.0
 41
1.0
 10
-1186.379209610795
 20
-1340.638858324259
 30
0.0
 41
0.9999625120739596
 10
-1186.51644237812
 20
-1341.093218858263
 30
0.0
 41
1.0
 10
-1186.552232321203
 20
-1341.211714884889
 30
0.0
 41
1.0
 10
-1186.588022264286
 20
-1341.330210911515
 30
0.0
 41
1.0
 10
-1186.662542468325
 20
-1341.576937989609
 30
0.0
 41
0.9999793386323246
 10
-1186.740228491461
 20
-1341.82268662884
 30
0.0
 41
1.0
 10
-1186.817914514598
 20
-1342.068435268076
 30
0.0
 41
1.0
 10
-1186.828694073469
 20
-1342.102453172451
 30
0.0
 41
1.0
 10
-1188.679067126738
 20
-1347.989525094918
 30
0.0
 41
1.0
 10
-1190.529440180007
 20
-1353.876597017386
 30
0.0
 41
1.0
 10
-1191.490696870031
 20
-1353.876597017386
 30
0.0
 41
1.0
 10
-1192.451953560054
 20
-1353.876597017386
 30
0.0
 41
1.0
 10
-1190.833008781376
 20
-1348.728568515596
 30
0.0
 41
1.0
 10
-1189.214064002697
 20
-1343.580540013807
 30
0.0
 41
1.0
 10
-1189.168898179522
 20
-1343.436508791533
 30
0.0
 41
1.0
 10
-1189.123732356346
 20
-1343.29247756926
 30
0.0
 41
1.0
 10
-1188.953427938984
 20
-1342.749386540099
 30
0.0
 41
0.9999911657921238
 10
-1188.787695127306
 20
-1342.204883008741
 30
0.0
 41
1.0
 10
-1188.757999183809
 20
-1342.107319068703
 30
0.0
 41
1.0
 10
-1188.728303240312
 20
-1342.009755128666
 30
0.0
 41
1.0
 10
-1188.621962315629
 20
-1341.66037947739
 30
0.0
 41
0.9999952428184172
 10
-1188.517778726301
 20
-1341.310354453028
 30
0.0
 41
1.0
 10
-1188.512719255971
 20
-1341.293356178762
 30
0.0
 41
1.0
 10
-1188.507659785641
 20
-1341.276357904496
 30
0.0
 41
1.0
 10
-1188.413595136977
 20
-1340.960329428683
 30
0.0
 41
0.9999931687514912
 10
-1188.321869299102
 20
-1340.643614215408
 30
0.0
 41
1.0
 10
-1188.316934034649
 20
-1340.626573506159
 30
0.0
 41
1.0
 10
-1188.311998770196
 20
-1340.609532796911
 30
0.0
 41
1.0
 10
-1188.230143461235
 20
-1340.32689900216
 30
0.0
 41
0.9999893840814903
 10
-1188.150896234771
 20
-1340.043522872891
 30
0.0
 41
1.0
 10
-1188.071649008315
 20
-1339.760146743647
 30
0.0
 41
0.9999833980072597
 10
-1187.995672767577
 20
-1339.47587616063
 30
0.0
 41
1.0
 10
-1187.986668830851
 20
-1339.442187282137
 30
0.0
 41
1.0
 10
-1187.977664894124
 20
-1339.408498403644
 30
0.0
 41
1.0
 10
-1187.90870034526
 20
-1339.150462571354
 30
0.0
 41
0.9999233658068406
 10
-1187.846145374041
 20
-1338.890798412638
 30
0.0
 41
1.0
 10
-1187.783590402821
 20
-1338.631134253915
 30
0.0
 41
1.0
 10
-1187.744106983963
 20
-1338.467327589489
 30
0.0
 41
1.0
 10
-1187.739128379986
 20
-1338.446672627619
 30
0.0
 41
1.0
 10
-1187.734149776009
 20
-1338.426017665748
 30
0.0
 41
1.0
 10
-1187.704623565105
 20
-1338.30352092506
 30
0.0
 41
0.9999868670841714
 10
-1187.67635448111
 20
-1338.180727979417
 30
0.0
 41
1.0
 10
-1187.67245699395
 20
-1338.163798391992
 30
0.0
 41
1.0
 10
-1187.66855950679
 20
-1338.146868804567
 30
0.0
 41
1.0
 10
-1187.648085397112
 20
-1338.057935033767
 30
0.0
 41
0.9999778173354686
 10
-1187.628797798998
 20
-1337.968736416542
 30
0.0
 41
1.0
 10
-1187.609510200882
 20
-1337.879537799307
 30
0.0
 41
0.9999602692861272
 10
-1187.591815842249
 20
-1337.79000951087
 30
0.0
 41
1.0
 10
-1187.588612010173
 20
-1337.773799055992
 30
0.0
 41
1.0
 10
-1187.585408178096
 20
-1337.757588601113
 30
0.0
 41
1.0
 10
-1187.561306155311
 20
-1337.635639402917
 30
0.0
 41
0.9995617985320313
 10
-1187.544462808092
 20
-1337.512477655213
 30
0.0
 41
1.0
 10
-1187.541998318186
 20
-1337.494456837845
 30
0.0
 41
1.0
 10
-1187.539533828279
 20
-1337.476436020476
 30
0.0
 41
1.0
 10
-1187.519250567231
 20
-1337.328120970777
 30
0.0
 41
0.9991121410639513
 10
-1187.511525213643
 20
-1337.178624871971
 30
0.0
 41
1.0
 10
-1187.510606423618
 20
-1337.160845035397
 30
0.0
 41
1.0
 10
-1187.509687633594
 20
-1337.143065198823
 30
0.0
 41
1.0
 10
-1187.503799860055
 20
-1337.029128773167
 30
0.0
 41
0.9989792494905815
 10
-1187.508218952172
 20
-1336.915125937267
 30
0.0
 41
1.0
 10
-1187.50886692404
 20
-1336.898409691339
 30
0.0
 41
1.0
 10
-1187.509514895909
 20
-1336.881693445412
 30
0.0
 41
1.0
 10
-1187.512638044289
 20
-1336.801123101368
 30
0.0
 41
0.9997820295393264
 10
-1187.519122041665
 20
-1336.720753379624
 30
0.0
 41
1.0
 10
-1187.525606039041
 20
-1336.640383657875
 30
0.0
 41
0.9998335105972381
 10
-1187.535018234553
 20
-1336.560304041421
 30
0.0
 41
1.0
 10
-1187.536613159229
 20
-1336.546734310943
 30
0.0
 41
1.0
 10
-1187.538208083905
 20
-1336.533164580464
 30
0.0
 41
1.0
 10
-1187.550810128769
 20
-1336.42594550305
 30
0.0
 41
0.9996876457879057
 10
-1187.568754041567
 20
-1336.319490075335
 30
0.0
 41
1.0
 10
-1187.570985704712
 20
-1336.306250340092
 30
0.0
 41
1.0
 10
-1187.573217367858
 20
-1336.293010604849
 30
0.0
 41
1.0
 10
-1187.587013189279
 20
-1336.21116446089
 30
0.0
 41
0.9995547496495218
 10
-1187.605666511172
 20
-1336.130286963699
 30
0.0
 41
1.0
 10
-1187.606040468043
 20
-1336.128665552993
 30
0.0
 41
1.0
 10
-1187.606414424915
 20
-1336.127044142286
 30
0.0
 41
1.0
 10
-1187.624319833064
 20
-1336.049409466507
 30
0.0
 41
0.9994899427174224
 10
-1187.647144741744
 20
-1335.973076183673
 30
0.0
 41
1.0
 10
-1187.647603268485
 20
-1335.971542733884
 30
0.0
 41
1.0
 10
-1187.648061795226
 20
-1335.970009284094
 30
0.0
 41
1.0
 10
-1187.669969650423
 20
-1335.896742900838
 30
0.0
 41
0.9993784877590687
 10
-1187.69698528553
 20
-1335.82520219568
 30
0.0
 41
1.0
 10
-1187.697516976507
 20
-1335.823794212959
 30
0.0
 41
1.0
 10
-1187.698048667484
 20
-1335.822386230238
 30
0.0
 41
1.0
 10
-1187.724000920637
 20
-1335.75366149052
 30
0.0
 41
0.9992430832253716
 10
-1187.755217455796
 20
-1335.687162338452
 30
0.0
 41
1.0
 10
-1187.755799571853
 20
-1335.685922283335
 30
0.0
 41
1.0
 10
-1187.756381687909
 20
-1335.684682228218
 30
0.0
 41
1.0
 10
-1187.786433990955
 20
-1335.620663186384
 30
0.0
 41
0.9990789632798145
 10
-1187.821864617732
 20
-1335.559456574634
 30
0.0
 41
1.0
 10
-1187.822460323913
 20
-1335.558427488776
 30
0.0
 41
1.0
 10
-1187.823056030094
 20
-1335.557398402919
 30
0.0
 41
1.0
 10
-1187.857295244508
 20
-1335.498249962886
 30
0.0
 41
0.9988874801120896
 10
-1187.89695452054
 20
-1335.442590250467
 30
0.0
 41
1.0
 10
-1187.897510046605
 20
-1335.441810598792
 30
0.0
 41
1.0
 10
-1187.898065572668
 20
-1335.441030947118
 30
0.0
 41
1.0
 10
-1187.936613796572
 20
-1335.386930538049
 30
0.0
 41
0.998676206069349
 10
-1187.980516267849
 20
-1335.33707682361
 30
0.0
 41
1.0
 10
-1187.980960228179
 20
-1335.336572681796
 30
0.0
 41
1.0
 10
-1187.981404188509
 20
-1335.336068539981
 30
0.0
 41
1.0
 10
-1188.024418739123
 20
-1335.287223109173
 30
0.0
 41
0.9984621642489698
 10
-1188.072576295903
 20
-1335.2434398087
 30
0.0
 41
1.0
 10
-1188.072822930419
 20
-1335.243215576536
 30
0.0
 41
1.0
 10
-1188.073069564935
 20
-1335.242991344373
 30
0.0
 41
1.0
 10
-1188.12073385268
 20
-1335.199656508229
 30
0.0
 41
0.9982724693852151
 10
-1188.173152484522
 20
-1335.162212157711
 30
0.0
 41
1.0
 10
-1188.225571116364
 20
-1335.124767807193
 30
0.0
 41
0.9981399180158859
 10
-1188.282157179758
 20
-1335.093981287749
 30
0.0
 41
1.0
 10
-1188.282202841836
 20
-1335.093956444592
 30
0.0
 41
1.0
 10
-1188.282248503914
 20
-1335.093931601435
 30
0.0
 41
1.0
 10
-1188.338925891464
 20
-1335.063095395677
 30
0.0
 41
0.9980927086836455
 10
-1188.39897124253
 20
-1335.039478586825
 30
0.0
 41
1.0
 10
-1188.399411412242
 20
-1335.03930546095
 30
0.0
 41
1.0
 10
-1188.399851581954
 20
-1335.039132335075
 30
0.0
 41
1.0
 10
-1188.460777272442
 20
-1335.015169274473
 30
0.0
 41
0.9981411356562558
 10
-1188.52416579384
 20
-1334.998796632968
 30
0.0
 41
1.0
 10
-1188.525047910543
 20
-1334.998568790762
 30
0.0
 41
1.0
 10
-1188.525930027246
 20
-1334.998340948556
 30
0.0
 41
1.0
 10
-1188.591082782049
 20
-1334.981512622639
 30
0.0
 41
0.9983031812934826
 10
-1188.657750211045
 20
-1334.972373261463
 30
0.0
 41
1.0
 10
-1188.666621236448
 20
-1334.971157142792
 30
0.0
 41
1.0
 10
-1188.675492261851
 20
-1334.969941024121
 30
0.0
 41
1.0
 10
-1188.729841904355
 20
-1334.96249029413
 30
0.0
 41
0.9983887708262731
 10
-1188.784685753647
 20
-1334.961245620496
 30
0.0
 41
1.0
 10
-1188.792749158865
 20
-1334.961062622622
 30
0.0
 41
1.0
 10
-1188.800812564083
 20
-1334.960879624747
 30
0.0
 41
1.0
 10
-1188.839529602941
 20
-1334.960000946863
 30
0.0
 41
0.9998869563080127
 10
-1188.878255556143
 20
-1334.960286816223
 30
0.0
 41
1.0
 10
-1188.916981509363
 20
-1334.960572685583
 30
0.0
 41
0.9999972320154444
 10
-1188.955705688594
 20
-1334.961040785112
 30
0.0
 41
1.0
 10
-1188.975058705155
 20
-1334.961274725201
 30
0.0
 41
1.0
 10
-1188.994411721716
 20
-1334.96150866529
 30
0.0
 41
1.0
 10
-1189.07184193409
 20
-1334.962444644998
 30
0.0
 41
0.9997304945086409
 10
-1189.149145240331
 20
-1334.966973738784
 30
0.0
 41
1.0
 10
-1189.158194882032
 20
-1334.967503944774
 30
0.0
 41
1.0
 10
-1189.167244523733
 20
-1334.968034150764
 30
0.0
 41
1.0
 10
-1189.262647113382
 20
-1334.97362365653
 30
0.0
 41
0.9997888306415617
 10
-1189.357739449227
 20
-1334.983128621019
 30
0.0
 41
1.0
 10
-1189.366460510797
 20
-1334.984000335651
 30
0.0
 41
1.0
 10
-1189.375181572368
 20
-1334.984872050283
 30
0.0
 41
1.0
 10
-1189.487716031357
 20
-1334.996120444036
 30
0.0
 41
0.9984170238190264
 10
-1189.598275178709
 20
-1335.019936525973
 30
0.0
 41
1.0
 10
-1189.634656309694
 20
-1335.027773561778
 30
0.0
 41
1.0
 10
-1189.671037440679
 20
-1335.035610597584
 30
0.0
 41
1.0
 10
-1189.786228509101
 20
-1335.060424464094
 30
0.0
 41
0.9976592854198862
 10
-1189.896956675506
 20
-1335.100723141241
 30
0.0
 41
1.0
 10
-1190.007684841912
 20
-1335.141021818389
 30
0.0
 41
0.9993255074351619
 10
-1190.115156640703
 20
-1335.189338716882
 30
0.0
 41
1.0
 10
-1190.119781819626
 20
-1335.191418093081
 30
0.0
 41
1.0
 10
-1190.124406998549
 20
-1335.19349746928
 30
0.0
 41
1.0
 10
-1190.241129155186
 20
-1335.245973120172
 30
0.0
 41
0.9976475078275152
 10
-1190.349576499496
 20
-1335.31392110983
 30
0.0
 41
1.0
 10
-1190.367918893631
 20
-1335.325413588645
 30
0.0
 41
1.0
 10
-1190.386261287767
 20
-1335.33690606746
 30
0.0
 41
1.0
 10
-1190.470463479318
 20
-1335.389663188228
 30
0.0
 41
0.9995131336406922
 10
-1190.551211194276
 20
-1335.447569400181
 30
0.0
 41
1.0
 10
-1190.631958909232
 20
-1335.505475612134
 30
0.0
 41
0.999581010760614
 10
-1190.709220556961
 20
-1335.5679572946
 30
0.0
 41
1.0
 10
-1190.712190588171
 20
-1335.570359166064
 30
0.0
 41
1.0
 10
-1190.715160619382
 20
-1335.572761037529
 30
0.0
 41
1.0
 10
-1190.798362329531
 20
-1335.640046462925
 30
0.0
 41
0.9996617837954996
 10
-1190.877953016667
 20
-1335.711566918485
 30
0.0
 41
1.0
 10
-1190.890083767545
 20
-1335.722467651477
 30
0.0
 41
1.0
 10
-1190.902214518423
 20
-1335.733368384468
 30
0.0
 41
1.0
 10
-1190.97049004582
 20
-1335.79472099994
 30
0.0
 41
0.9997267750052277
 10
-1191.035823554102
 20
-1335.859197536464
 30
0.0
 41
1.0
 10
-1191.101157062384
 20
-1335.923674072988
 30
0.0
 41
0.9999667288960932
 10
-1191.16543000553
 20
-1335.989207879882
 30
0.0
 41
1.0
 10
-1191.234257453306
 20
-1336.059385538641
 30
0.0
 41
1.0
 10
-1191.303084901082
 20
-1336.1295631974
 30
0.0
 41
1.0
 10
-1191.505012739779
 20
-1336.335452321812
 30
0.0
 41
0.998820533517506
 10
-1191.68601835676
 20
-1336.559956553873
 30
0.0
 41
1.0
 10
-1191.716658321664
 20
-1336.597959804302
 30
0.0
 41
1.0
 10
-1191.747298286568
 20
-1336.635963054732
 30
0.0
 41
1.0
 10
-1191.989583833356
 20
-1336.936473787651
 30
0.0
 41
0.9997077826755533
 10
-1192.217061784461
 20
-1337.248343581867
 30
0.0
 41
1.0
 10
-1192.218785199592
 20
-1337.250706365247
 30
0.0
 41
1.0
 10
-1192.220508614723
 20
-1337.253069148628
 30
0.0
 41
1.0
 10
-1192.451433396089
 20
-1337.569664509603
 30
0.0
 41
0.9989147567078902
 10
-1192.651896898972
 20
-1337.906373970788
 30
0.0
 41
1.0
 10
-1192.67663804428
 20
-1337.947930551341
 30
0.0
 41
1.0
 10
-1192.701379189587
 20
-1337.989487131894
 30
0.0
 41
1.0
 10
-1192.856590488224
 20
-1338.250188516347
 30
0.0
 41
0.9997476598182138
 10
-1192.999935475733
 20
-1338.517598264928
 30
0.0
 41
1.0
 10
-1193.143280463242
 20
-1338.785008013509
 30
0.0
 41
0.9996258967109922
 10
-1193.271788715173
 20
-1339.059855950131
 30
0.0
 41
1.0
 10
-1193.284988624623
 20
-1339.088087350228
 30
0.0
 41
1.0
 10
-1193.298188534073
 20
-1339.116318750325
 30
0.0
 41
1.0
 10
-1193.438397255073
 20
-1339.416191148278
 30
0.0
 41
0.9998735413944883
 10
-1193.568998601794
 20
-1339.720370747747
 30
0.0
 41
1.0
 10
-1193.572441429855
 20
-1339.728389333211
 30
0.0
 41
1.0
 10
-1193.575884257915
 20
-1339.736407918676
 30
0.0
 41
1.0
 10
-1193.699599948514
 20
-1340.024550347213
 30
0.0
 41
0.9999377418858928
 10
-1193.816854750689
 20
-1340.315381814889
 30
0.0
 41
1.0
 10
-1193.934109552863
 20
-1340.606213282561
 30
0.0
 41
0.9999508299504455
 10
-1194.045573496237
 20
-1340.899312959374
 30
0.0
 41
1.0
 10
-1194.048654264902
 20
-1340.907413985345
 30
0.0
 41
1.0
 10
-1194.051735033567
 20
-1340.915515011315
 30
0.0
 41
1.0
 10
-1194.169360514272
 20
-1341.224816740071
 30
0.0
 41
0.9999609228434687
 10
-1194.28149911715
 20
-1341.536149756098
 30
0.0
 41
1.0
 10
-1194.284455127496
 20
-1341.544356596498
 30
0.0
 41
1.0
 10
-1194.287411137843
 20
-1341.552563436898
 30
0.0
 41
1.0
 10
-1194.405461761416
 20
-1341.880310133733
 30
0.0
 41
0.9999674607402075
 10
-1194.518209287486
 20
-1342.209918753734
 30
0.0
 41
1.0
 10
-1194.569607678046
 20
-1342.36017794942
 30
0.0
 41
1.0
 10
-1194.621006068607
 20
-1342.510437145106
 30
0.0
 41
1.0
 10
-1194.737016675366
 20
-1342.849585127612
 30
0.0
 41
0.9999287532308727
 10
-1194.844898079338
 20
-1343.19140586659
 30
0.0
 41
1.0
 10
-1194.89137533548
 20
-1343.33866841097
 30
0.0
 41
1.0
 10
-1194.937852591621
 20
-1343.485930955349
 30
0.0
 41
1.0
 10
-1194.952779483315
 20
-1343.533226605587
 30
0.0
 41
0.9999998223690916
 10
-1194.967649992039
 20
-1343.580540013807
 30
0.0
 41
1.0
 10
-1196.588306128834
 20
-1348.728568515596
 30
0.0
 41
1.0
 10
-1198.20896226563
 20
-1353.876597017386
 30
0.0
 41
1.0
 10
-1199.11427070952
 20
-1353.876597017386
 30
0.0
 41
1.0
 10
-1200.019579153412
 20
-1353.876597017386
 30
0.0
 41
1.0
 10
-1198.167494742026
 20
-1347.989525094918
 30
0.0
 41
1.0
 10
-1196.315410330639
 20
-1342.102453172451
 30
0.0
 41
1.0
 10
-1196.305288572337
 20
-1342.070409959001
 30
0.0
 41
1.0
 10
-1196.232680903487
 20
-1341.840110417175
 30
0.0
 41
1.0
 10
-1196.160073234636
 20
-1341.609810875344
 30
0.0
 41
0.9999825681967536
 10
-1196.090190195422
 20
-1341.378669980272
 30
0.0
 41
1.0
 10
-1196.041899133262
 20
-1341.218945396777
 30
0.0
 41
1.0
 10
-1195.993608071101
 20
-1341.059220813283
 30
0.0
 41
1.0
 10
-1195.896455717787
 20
-1340.737885591516
 30
0.0
 41
0.9999672528964388
 10
-1195.804516912165
 20
-1340.415020045934
 30
0.0
 41
1.0
 10
-1195.801728028492
 20
-1340.405226200534
 30
0.0
 41
1.0
 10
-1195.79893914482
 20
-1340.395432355134
 30
0.0
 41
1.0
 10
-1195.712578106538
 20
-1340.092154500336
 30
0.0
 41
0.9999899749143906
 10
-1195.628936497007
 20
-1339.788115411896
 30
0.0
 41
1.0
 10
-1195.618830577988
 20
-1339.751380174212
 30
0.0
 41
1.0
 10
-1195.608724658969
 20
-1339.714644936528
 30
0.0
 41
1.0
 10
-1195.545294887471
 20
-1339.48407632344
 30
0.0
 41
0.9999214200504988
 10
-1195.487665459094
 20
-1339.251989981234
 30
0.0
 41
1.0
 10
-1195.474899606915
 20
-1339.200579095844
 30
0.0
 41
1.0
 10
-1195.462133754736
 20
-1339.149168210453
 30
0.0
 41
1.0
 10
-1195.430036030719
 20
-1339.019903639032
 30
0.0
 41
0.9999828681656163
 10
-1195.399453778721
 20
-1338.890272164557
 30
0.0
 41
1.0
 10
-1195.368871526725
 20
-1338.760640690087
 30
0.0
 41
0.9999389844479128
 10
-1195.341160537935
 20
-1338.630365234184
 30
0.0
 41
1.0
 10
-1195.334022794216
 20
-1338.596809130349
 30
0.0
 41
1.0
 10
-1195.326885050496
 20
-1338.563253026515
 30
0.0
 41
1.0
 10
-1195.284898574268
 20
-1338.365865362945
 30
0.0
 41
0.9998933699440533
 10
-1195.248694309866
 20
-1338.167335755191
 30
0.0
 41
1.0
 10
-1195.247321484649
 20
-1338.159807734489
 30
0.0
 41
1.0
 10
-1195.245948659432
 20
-1338.152279713788
 30
0.0
 41
1.0
 10
-1195.206998744596
 20
-1337.938694064635
 30
0.0
 41
0.99968503051937
 10
-1195.178815068337
 20
-1337.723423059196
 30
0.0
 41
1.0
 10
-1195.176820034968
 20
-1337.708184705075
 30
0.0
 41
1.0
 10
-1195.174825001599
 20
-1337.692946350955
 30
0.0
 41
1.0
 10
-1195.14741713914
 20
-1337.483601123801
 30
0.0
 41
0.9994697936706499
 10
-1195.133692579921
 20
-1337.27291592847
 30
0.0
 41
1.0
 10
-1195.133215510671
 20
-1337.265592456263
 30
0.0
 41
1.0
 10
-1195.132738441422
 20
-1337.258268984055
 30
0.0
 41
1.0
 10
-1195.119968020701
 20
-1337.062230733143
 30
0.0
 41
0.9991804893137073
 10
-1195.123096336974
 20
-1336.865801883166
 30
0.0
 41
1.0
 10
-1195.123180215796
 20
-1336.860535081754
 30
0.0
 41
1.0
 10
-1195.123264094618
 20
-1336.855268280342
 30
0.0
 41
1.0
 10
-1195.126224653247
 20
-1336.669373033194
 30
0.0
 41
0.9988448329321816
 10
-1195.14701619887
 20
-1336.48462044336
 30
0.0
 41
1.0
 10
-1195.148610272573
 20
-1336.470455587588
 30
0.0
 41
1.0
 10
-1195.150204346276
 20
-1336.456290731817
 30
0.0
 41
1.0
 10
-1195.167807744494
 20
-1336.299867853526
 30
0.0
 41
0.9985503209458872
 10
-1195.202124016794
 20
-1336.146243669437
 30
0.0
 41
1.0
 10
-1195.209710008865
 20
-1336.112283342035
 30
0.0
 41
1.0
 10
-1195.217296000937
 20
-1336.078323014633
 30
0.0
 41
1.0
 10
-1195.236440289094
 20
-1335.992619485346
 30
0.0
 41
0.999103678137021
 10
-1195.262765150745
 20
-1335.908842398023
 30
0.0
 41
1.0
 10
-1195.2667473762
 20
-1335.896169235515
 30
0.0
 41
1.0
 10
-1195.270729601655
 20
-1335.883496073006
 30
0.0
 41
1.0
 10
-1195.289090012395
 20
-1335.8250653107
 30
0.0
 41
0.9998874504368788
 10
-1195.309195220074
 20
-1335.767211708474
 30
0.0
 41
1.0
 10
-1195.329300427752
 20
-1335.709358106252
 30
0.0
 41
0.9994041637543877
 10
-1195.353349040686
 20
-1335.653029402362
 30
0.0
 41
1.0
 10
-1195.357545824912
 20
-1335.643199337877
 30
0.0
 41
1.0
 10
-1195.361742609137
 20
-1335.633369273392
 30
0.0
 41
1.0
 10
-1195.38962144013
 20
-1335.568069107427
 30
0.0
 41
0.9991846840700961
 10
-1195.422677796822
 20
-1335.50523107615
 30
0.0
 41
1.0
 10
-1195.423814403217
 20
-1335.503070459697
 30
0.0
 41
1.0
 10
-1195.424951009611
 20
-1335.500909843243
 30
0.0
 41
1.0
 10
-1195.455734153515
 20
-1335.442393044871
 30
0.0
 41
0.998925316792411
 10
-1195.49180357757
 20
-1335.386978116479
 30
0.0
 41
1.0
 10
-1195.492857702246
 20
-1335.385358621716
 30
0.0
 41
1.0
 10
-1195.493911826921
 20
-1335.383739126952
 30
0.0
 41
1.0
 10
-1195.527873001626
 20
-1335.331563188088
 30
0.0
 41
0.9986467172836283
 10
-1195.567070154263
 20
-1335.28319715446
 30
0.0
 41
1.0
 10
-1195.567944282963
 20
-1335.282118552183
 30
0.0
 41
1.0
 10
-1195.568818411662
 20
-1335.281039949906
 30
0.0
 41
1.0
 10
-1195.6062673069
 20
-1335.234831120831
 30
0.0
 41
0.9984001104268668
 10
-1195.648694037417
 20
-1335.193146013462
 30
0.0
 41
1.0
 10
-1195.649281175527
 20
-1335.19256913858
 30
0.0
 41
1.0
 10
-1195.649868313636
 20
-1335.191992263699
 30
0.0
 41
1.0
 10
-1195.691120767934
 20
-1335.151460906093
 30
0.0
 41
0.9982442159081553
 10
-1195.73687686927
 20
-1335.116092344832
 30
0.0
 41
1.0
 10
-1195.737091664733
 20
-1335.115926312189
 30
0.0
 41
1.0
 10
-1195.737306460195
 20
-1335.115760279545
 30
0.0
 41
1.0
 10
-1195.782632970606
 20
-1335.080723783572
 30
0.0
 41
0.9982450060836947
 10
-1195.831783949678
 20
-1335.051292000539
 30
0.0
 41
1.0
 10
-1195.88093492875
 20
-1335.021860217505
 30
0.0
 41
0.9983922639635495
 10
-1195.933101234915
 20
-1334.998180582851
 30
0.0
 41
1.0
 10
-1195.933328112239
 20
-1334.99807759737
 30
0.0
 41
1.0
 10
-1195.933554989563
 20
-1334.997974611888
 30
0.0
 41
1.0
 10
-1195.986175050376
 20
-1334.974089006272
 30
0.0
 41
0.9986517147150505
 10
-1196.040988023243
 20
-1334.95578788715
 30
0.0
 41
1.0
 10
-1196.041665944671
 20
-1334.955561540718
 30
0.0
 41
1.0
 10
-1196.042343866101
 20
-1334.955335194287
 30
0.0
 41
1.0
 10
-1196.098512681824
 20
-1334.936581382302
 30
0.0
 41
0.9989435598956151
 10
-1196.156166068975
 20
-1334.923063680068
 30
0.0
 41
1.0
 10
-1196.157246188557
 20
-1334.922810429814
 30
0.0
 41
1.0
 10
-1196.158326308139
 20
-1334.922557179561
 30
0.0
 41
1.0
 10
-1196.218139934454
 20
-1334.908532976821
 30
0.0
 41
0.999224924124001
 10
-1196.278871443353
 20
-1334.899257634105
 30
0.0
 41
1.0
 10
-1196.280285131643
 20
-1334.899041725698
 30
0.0
 41
1.0
 10
-1196.281698819933
 20
-1334.89882581729
 30
0.0
 41
1.0
 10
-1196.345257705414
 20
-1334.889118657759
 30
0.0
 41
0.9994396597833808
 10
-1196.409323641951
 20
-1334.883685735413
 30
0.0
 41
1.0
 10
-1196.428464309428
 20
-1334.882062567695
 30
0.0
 41
1.0
 10
-1196.447604976905
 20
-1334.880439399976
 30
0.0
 41
1.0
 10
-1196.549952248396
 20
-1334.871760142193
 30
0.0
 41
0.9987693403121937
 10
-1196.652655871982
 20
-1334.873263205646
 30
0.0
 41
1.0
 10
-1196.662910206212
 20
-1334.87341327742
 30
0.0
 41
1.0
 10
-1196.673164540441
 20
-1334.873563349194
 30
0.0
 41
1.0
 10
-1196.782720306619
 20
-1334.875166693482
 30
0.0
 41
0.9989753644966194
 10
-1196.891682306635
 20
-1334.886669700407
 30
0.0
 41
1.0
 10
-1197.00064430665
 20
-1334.898172707332
 30
0.0
 41
0.9983190067305857
 10
-1197.107543117614
 20
-1334.922207699118
 30
0.0
 41
1.0
 10
-1197.116444069222
 20
-1334.924208977681
 30
0.0
 41
1.0
 10
-1197.12534502083
 20
-1334.926210256244
 30
0.0
 41
1.0
 10
-1197.250045735008
 20
-1334.954247805156
 30
0.0
 41
0.9985539388302594
 10
-1197.371015488687
 20
-1334.995511481202
 30
0.0
 41
1.0
 10
-1197.373360919647
 20
-1334.996311525018
 30
0.0
 41
1.0
 10
-1197.375706350607
 20
-1334.997111568834
 30
0.0
 41
1.0
 10
-1197.501366966205
 20
-1335.039975332511
 30
0.0
 41
0.9988468746493371
 10
-1197.622337308505
 20
-1335.094693417573
 30
0.0
 41
1.0
 10
-1197.625520130494
 20
-1335.096133092133
 30
0.0
 41
1.0
 10
-1197.628702952483
 20
-1335.097572766693
 30
0.0
 41
1.0
 10
-1197.756038938761
 20
-1335.155170200876
 30
0.0
 41
0.9991322885918693
 10
-1197.878139522819
 20
-1335.223165533058
 30
0.0
 41
1.0
 10
-1197.895741533861
 20
-1335.232967735047
 30
0.0
 41
1.0
 10
-1197.913343544903
 20
-1335.242769937036
 30
0.0
 41
1.0
 10
-1198.015520225961
 20
-1335.299670052817
 30
0.0
 41
0.9993860037849636
 10
-1198.113461230036
 20
-1335.363586068406
 30
0.0
 41
1.0
 10
-1198.119079542888
 20
-1335.367252563101
 30
0.0
 41
1.0
 10
-1198.12469785574
 20
-1335.370919057796
 30
0.0
 41
1.0
 10
-1198.211402234109
 20
-1335.427502083995
 30
0.0
 41
0.99988214949532
 10
-1198.296328609922
 20
-1335.486720314071
 30
0.0
 41
1.0
 10
-1198.381254985734
 20
-1335.545938544147
 30
0.0
 41
0.9997976482745323
 10
-1198.463730616137
 20
-1335.608524952189
 30
0.0
 41
1.0
 10
-1198.478366880943
 20
-1335.619631641969
 30
0.0
 41
1.0
 10
-1198.493003145748
 20
-1335.630738331749
 30
0.0
 41
1.0
 10
-1198.604751305763
 20
-1335.715538119352
 30
0.0
 41
0.9998091630798706
 10
-1198.713101583792
 20
-1335.804638470054
 30
0.0
 41
1.0
 10
-1198.726107336268
 20
-1335.815333570499
 30
0.0
 41
1.0
 10
-1198.739113088744
 20
-1335.826028670944
 30
0.0
 41
1.0
 10
-1198.873474871725
 20
-1335.936519222537
 30
0.0
 41
0.9995035112317231
 10
-1199.000610749488
 20
-1336.055253039551
 30
0.0
 41
1.0
 10
-1199.010258059877
 20
-1336.06426278571
 30
0.0
 41
1.0
 10
-1199.019905370265
 20
-1336.073272531869
 30
0.0
 41
1.0
 10
-1199.14332843303
 20
-1336.188538903624
 30
0.0
 41
0.9994630424299121
 10
-1199.258936838813
 20
-1336.311641646859
 30
0.0
 41
1.0
 10
-1199.262619677585
 20
-1336.315563226373
 30
0.0
 41
1.0
 10
-1199.266302516358
 20
-1336.319484805887
 30
0.0
 41
1.0
 10
-1199.374545244598
 20
-1336.434744390095
 30
0.0
 41
0.9995160693750152
 10
-1199.475411274129
 20
-1336.556511807967
 30
0.0
 41
1.0
 10
-1199.477344994209
 20
-1336.558846232175
 30
0.0
 41
1.0
 10
-1199.47927871429
 20
-1336.561180656382
 30
0.0
 41
1.0
 10
-1199.576277303661
 20
-1336.67827922584
 30
0.0
 41
0.9996561470514727
 10
-1199.667003522327
 20
-1336.800301988289
 30
0.0
 41
1.0
 10
-1199.673161188229
 20
-1336.808583777331
 30
0.0
 41
1.0
 10
-1199.679318854131
 20
-1336.816865566373
 30
0.0
 41
1.0
 10
-1199.757729740993
 20
-1336.922324750738
 30
0.0
 41
0.9998349055173539
 10
-1199.832257022925
 20
-1337.030563334401
 30
0.0
 41
1.0
 10
-1199.906784304859
 20
-1337.138801918068
 30
0.0
 41
0.9999728109570168
 10
-1199.97970720077
 20
-1337.248127843623
 30
0.0
 41
1.0
 10
-1199.98102241618
 20
-1337.250099613124
 30
0.0
 41
1.0
 10
-1199.982337631591
 20
-1337.252071382625
 30
0.0
 41
1.0
 10
-1200.057890958324
 20
-1337.365340847184
 30
0.0
 41
0.9999972147305939
 10
-1200.132908768696
 20
-1337.478965690017
 30
0.0
 41
1.0
 10
-1200.13788031132
 20
-1337.486495778491
 30
0.0
 41
1.0
 10
-1200.142851853944
 20
-1337.494025866966
 30
0.0
 41
1.0
 10
-1200.227812749563
 20
-1337.622710886747
 30
0.0
 41
0.9999371979005666
 10
-1200.309868098967
 20
-1337.753267800524
 30
0.0
 41
1.0
 10
-1200.313376983329
 20
-1337.758850728589
 30
0.0
 41
1.0
 10
-1200.316885867691
 20
-1337.764433656655
 30
0.0
 41
1.0
 10
-1200.405958985818
 20
-1337.906156426561
 30
0.0
 41
0.99982720256091
 10
-1200.489702376699
 20
-1338.051092303301
 30
0.0
 41
1.0
 10
-1200.504917548724
 20
-1338.07742541776
 30
0.0
 41
1.0
 10
-1200.520132720749
 20
-1338.103758532219
 30
0.0
 41
1.0
 10
-1200.63430645568
 20
-1338.301360637875
 30
0.0
 41
0.9995217214837985
 10
-1200.736046145235
 20
-1338.505642965737
 30
0.0
 41
1.0
 10
-1200.74368970787
 20
-1338.52099041544
 30
0.0
 41
1.0
 10
-1200.751333270505
 20
-1338.536337865142
 30
0.0
 41
1.0
 10
-1200.838238563094
 20
-1338.710834323223
 30
0.0
 41
0.9998269762607735
 10
-1200.918593029367
 20
-1338.888442609948
 30
0.0
 41
1.0
 10
-1200.99894749564
 20
-1339.066050896673
 30
0.0
 41
0.9998944747389175
 10
-1201.074108290205
 20
-1339.245918622305
 30
0.0
 41
1.0
 10
-1201.079061959794
 20
-1339.257773277216
 30
0.0
 41
1.0
 10
-1201.084015629383
 20
-1339.269627932127
 30
0.0
 41
1.0
 10
-1201.164662689937
 20
-1339.46262487215
 30
0.0
 41
0.99995067344133
 10
-1201.241460218843
 20
-1339.657185677011
 30
0.0
 41
1.0
 10
-1201.25606018411
 20
-1339.694173598807
 30
0.0
 41
1.0
 10
-1201.270660149377
 20
-1339.731161520602
 30
0.0
 41
1.0
 10
-1201.318257747745
 20
-1339.851746481863
 30
0.0
 41
0.9999912393955935
 10
-1201.364844191769
 20
-1339.972725684562
 30
0.0
 41
1.0
 10
-1201.411430635791
 20
-1340.093704887258
 30
0.0
 41
0.9999927113993521
 10
-1201.457091930185
 20
-1340.215036294758
 30
0.0
 41
1.0
 10
-1201.471060361583
 20
-1340.252153276758
 30
0.0
 41
1.0
 10
-1201.485028792981
 20
-1340.289270258758
 30
0.0
 41
1.0
 10
-1201.55862695017
 20
-1340.484835630257
 30
0.0
 41
0.9999487550945393
 10
-1201.628250575141
 20
-1340.681850995436
 30
0.0
 41
1.0
 10
-1201.65184418508
 20
-1340.748614305736
 30
0.0
 41
1.0
 10
-1201.67543779502
 20
-1340.815377616036
 30
0.0
 41
1.0
 10
-1201.770123429388
 20
-1341.083311450854
 30
0.0
 41
0.9999808436937621
 10
-1201.861485018028
 20
-1341.352396882115
 30
0.0
 41
1.0
 10
-1201.952846606669
 20
-1341.621482313379
 30
0.0
 41
0.999987393289847
 10
-1202.041501315386
 20
-1341.891471668389
 30
0.0
 41
1.0
 10
-1202.061593672256
 20
-1341.952661001144
 30
0.0
 41
1.0
 10
-1202.081686029126
 20
-1342.013850333899
 30
0.0
 41
1.0
 10
-1202.210525451585
 20
-1342.406218354423
 30
0.0
 41
0.9999794883029051
 10
-1202.334328236545
 20
-1342.80020456071
 30
0.0
 41
1.0
 10
-1202.345480495973
 20
-1342.835695170914
 30
0.0
 41
1.0
 10
-1202.3566327554
 20
-1342.871185781119
 30
0.0
 41
1.0
 10
-1202.499190919301
 20
-1343.324858533218
 30
0.0
 41
0.9999982761744894
 10
-1202.640063359329
 20
-1343.779057555379
 30
0.0
 41
1.0
 10
-1204.228203691901
 20
-1348.827827286383
 30
0.0
 41
1.0
 10
-1205.816344024474
 20
-1353.876597017386
 30
0.0
 41
1.0
 10
-1206.76509463595
 20
-1353.876597017386
 30
0.0
 41
1.0
 10
-1207.713845247427
 20
-1353.876597017386
 30
0.0
 41
1.0
 10
-1204.475560761274
 20
-1343.54927481744
 30
0.0
 41
1.0
 10
-1201.237276275121
 20
-1333.221952617494
 30
0.0
 41
1.0
  0
LWPOLYLINE
  5
62
330
23
100
AcDbEntity
  8
0
  6
Continuous
 62
     7
370
    15
390
1D
100
AcDbPolyline
 90
      232
 70
   128
 43
0.0
 10
-1226.940822048948
 20
-1334.306295449009
 42
0.0004370800696404
 10
-1226.993699223003
 20
-1334.374962088244
 10
-1227.032983454147
 20
-1334.426069201162
 42
0.0030481992178198
 10
-1227.163322171268
 20
-1334.597790893508
 10
-1227.201833843017
 20
-1334.649177677294
 42
0.004205824575712
 10
-1227.405818893686
 20
-1334.926183422367
 10
-1227.458224016187
 20
-1334.998616269148
 42
0.0120948898743301
 10
-1227.754267932947
 20
-1335.429365873695
 10
-1227.85046043207
 20
-1335.576846608922
 42
0.0141601263947185
 10
-1228.154104478992
 20
-1336.072515945658
 10
-1228.193641746418
 20
-1336.141359913089
 42
0.0071131081303467
 10
-1228.398914069657
 20
-1336.510862711928
 42
0.0068458791006256
 10
-1228.593793596499
 20
-1336.885954275403
 10
-1228.600605458958
 20
-1336.899515989127
 42
0.0064120880289883
 10
-1228.798747708999
 20
-1337.30694046404
 10
-1228.806282394519
 20
-1337.322952320767
 42
0.0058857236448142
 10
-1229.009037786394
 20
-1337.76732843181
 10
-1229.017212712685
 20
-1337.785818585436
 42
0.0053189741893495
 10
-1229.225917025355
 20
-1338.27178205936
 10
-1229.234664831034
 20
-1338.29276393755
 42
0.0047503650418784
 10
-1229.450638557185
 20
-1338.824963370762
 10
-1229.459906805532
 20
-1338.848439746868
 42
0.004207176217365
 10
-1229.684454189261
 20
-1339.431533340941
 10
-1229.694203591609
 20
-1339.457499515807
 42
0.0036680086483199
 10
-1229.928658234918
 20
-1340.096134900331
 10
-1229.938866014769
 20
-1340.124583434683
 42
0.0032573142627935
 10
-1230.184498300737
 20
-1340.823436094442
 10
-1230.253148821581
 20
-1341.022899178504
 42
0.002613336664951
 10
-1230.601594020334
 20
-1342.052762462161
 10
-1230.664850807838
 20
-1342.242993297565
 42
0.0020592950739666
 10
-1230.878713876802
 20
-1342.895096950167
 10
-1230.881765667964
 20
-1342.904533438575
 42
0.0025609928536122
 10
-1231.083586169451
 20
-1343.539678660943
 10
-1231.086177536574
 20
-1343.547981001873
 42
0.0031362356242354
 10
-1231.275668322254
 20
-1344.168743858063
 10
-1231.27779936518
 20
-1344.175885164269
 42
0.0037229918027327
 10
-1231.454599752108
 20
-1344.784870466248
 10
-1231.456278341313
 20
-1344.790817356417
 42
0.0043077623707621
 10
-1231.62001914338
 20
-1345.390636088192
 42
0.0047654161825612
 10
-1231.772847865897
 20
-1345.9933221771
 10
-1231.807312474735
 20
-1346.134883954244
 42
0.0112969368443457
 10
-1232.003176832877
 20
-1347.026576114863
 10
-1232.031183221975
 20
-1347.169404160966
 42
0.0130056762572017
 10
-1232.232020465622
 20
-1348.356345232611
 10
-1232.252560215768
 20
-1348.500423346083
 42
0.013872153214423
 10
-1232.356263220307
 20
-1349.407252831914
 10
-1232.375558708214
 20
-1349.630750553836
 42
0.0071254697009167
 10
-1232.408905354137
 20
-1350.093937562686
 10
-1232.413866328299
 20
-1350.179941557222
 42
0.0028881799193323
 10
-1232.42900462159
 20
-1350.471683267089
 42
0.006029729713251
 10
-1232.438936821366
 20
-1350.763632203202
 10
-1232.439999103033
 20
-1350.812024575144
 42
0.0229523164160496
 10
-1232.432268075247
 20
-1351.13477942142
 10
-1232.428042301726
 20
-1351.195182955449
 42
0.0123673300674282
 10
-1232.408963655208
 20
-1351.396303680611
 42
0.0128577674471872
 10
-1232.379768264803
 20
-1351.596201530533
 10
-1232.372642391415
 20
-1351.637530345135
 42
0.0285717853773463
 10
-1232.308148389718
 20
-1351.915646496454
 10
-1232.294479866053
 20
-1351.962301265926
 42
0.0316283099158642
 10
-1232.178669286139
 20
-1352.281315767751
 10
-1232.175620594385
 20
-1352.288302140073
 42
0.0338984824230617
 10
-1232.026188883416
 20
-1352.575868104266
 10
-1232.023880154045
 20
-1352.579659133544
 42
0.0350228718355619
 10
-1231.841519863372
 20
-1352.836711118219
 10
-1231.840634611597
 20
-1352.837790195983
 42
0.0347476747530267
 10
-1231.626209924357
 20
-1353.064975243203
 42
0.0331337701912905
 10
-1231.382966598612
 20
-1353.26110390528
 10
-1231.381866500095
 20
-1353.261876608453
 42
0.0305233319084476
 10
-1231.113321804517
 20
-1353.427004778546
 10
-1231.11009176002
 20
-1353.428728790407
 42
0.0273744481155397
 10
-1230.817538048447
 20
-1353.564866934297
 10
-1230.812433513308
 20
-1353.566910518767
 42
0.0240964406198874
 10
-1230.496956437664
 20
-1353.675894245048
 10
-1230.490373108453
 20
-1353.677818984723
 42
0.0209636179813986
 10
-1230.1529729558
 20
-1353.761287132655
 10
-1230.145340495352
 20
-1353.762839045657
 42
0.0181388704693123
 10
-1229.787018103353
 20
-1353.822255138871
 10
-1229.778737254975
 20
-1353.823321322688
 42
0.0156086547586584
 10
-1229.400549890788
 20
-1353.860057509264
 10
-1229.357354638453
 20
-1353.862896011744
 42
0.0137148329026392
 10
-1229.02968149316
 20
-1353.875416266995
 10
-1228.98374530322
 20
-1353.87591070011
 42
0.0051057823886407
 10
-1228.747599716642
 20
-1353.876040954519
 42
0.0052256693310344
 10
-1228.511502432854
 20
-1353.871292130055
 10
-1228.441275649114
 20
-1353.869145164041
 42
0.0161507179049382
 10
-1228.065538571011
 20
-1353.845494793714
 10
-1228.04552561064
 20
-1353.843584598427
 42
0.0101216737834002
 10
-1227.631498389149
 20
-1353.795591668061
 10
-1227.597445099722
 20
-1353.790943971252
 42
0.0245291776398521
 10
-1227.120655444173
 20
-1353.701868893176
 10
-1227.035832128651
 20
-1353.68167297283
 42
0.0143509212559646
 10
-1226.679201024707
 20
-1353.585868339051
 42
0.0156557857039088
 10
-1226.328984959981
 20
-1353.468857123233
 10
-1226.321483745485
 20
-1353.466086961478
 42
0.0170137333633253
 10
-1225.964887749801
 20
-1353.320429346605
 10
-1225.957783827397
 20
-1353.317241511043
 42
0.0183105364408102
 10
-1225.598434159232
 20
-1353.13990646922
 10
-1225.591487394592
 20
-1353.136156034347
 42
0.0194899958149414
 10
-1225.233006653606
 20
-1352.924177052455
 10
-1225.225992774271
 20
-1352.919651710161
 42
0.0204869852946645
 10
-1224.871978472177
 20
-1352.670131695075
 10
-1224.86471286359
 20
-1352.664551629727
 42
0.0212516938554654
 10
-1224.518722932483
 20
-1352.374647632833
 10
-1224.472206238405
 20
-1352.332180322737
 42
0.0215248918251704
 10
-1224.212180069519
 20
-1352.073416043744
 10
-1224.167150335139
 20
-1352.024571922395
 42
0.0114578554954176
 10
-1224.012358181461
 20
-1351.848748988936
 10
-1224.001163645474
 20
-1351.83543022539
 42
0.0061531305129317
 10
-1223.87468899948
 20
-1351.681140692085
 42
0.000632558712041
 10
-1223.750310515331
 20
-1351.525137316413
 10
-1223.727270380276
 20
-1351.496163795749
 42
0.004189776155886
 10
-1223.558814976296
 20
-1351.280644419678
 10
-1223.500352856412
 20
-1351.204543072703
 42
0.0092993880037297
 10
-1223.223740929189
 20
-1350.83026430882
 10
-1223.141346435988
 20
-1350.714327305248
 42
0.0159321727085581
 10
-1222.794739953347
 20
-1350.192153084494
 10
-1222.750383817958
 20
-1350.120473520245
 42
0.0085547317020904
 10
-1222.515872052632
 20
-1349.726598571019
 42
0.008460115688891
 10
-1222.294895875193
 20
-1349.324971721993
 10
-1222.286780401359
 20
-1349.309612039714
 42
0.0081429654285819
 10
-1222.063531130924
 20
-1348.869890527178
 10
-1222.054670966738
 20
-1348.851711685154
 42
0.0076574581329801
 10
-1221.828263456169
 20
-1348.368528809897
 10
-1221.818783815447
 20
-1348.347464331598
 42
0.0070682724199559
 10
-1221.58833890764
 20
-1347.815427026817
 10
-1221.578348623659
 20
-1347.791437837805
 42
0.0064559514445996
 10
-1221.343015415476
 20
-1347.205125571282
 10
-1221.332606057312
 20
-1347.178190645844
 42
0.0058311413906387
 10
-1221.091559320551
 20
-1346.532158551465
 10
-1221.080804243162
 20
-1346.5022742103
 42
0.005231242581854
 10
-1220.83322296512
 20
-1345.791071796463
 10
-1220.822179128741
 20
-1345.758245084395
 42
0.0046680544795964
 10
-1220.567250701008
 20
-1344.976418768643
 10
-1220.525258550961
 20
-1344.843435531341
 42
0.0041666856445773
 10
-1220.321972538568
 20
-1344.180466756343
 10
-1220.284310097904
 20
-1344.053885648688
 42
0.0015170975155125
 10
-1220.163123519491
 20
-1343.642017297195
 42
-0.0004887993109504
 10
-1220.042783746302
 20
-1343.229898884929
 10
-1219.966306488873
 20
-1342.968941499212
 42
0.0002583378928656
 10
-1219.693091918708
 20
-1342.03488479569
 10
-1219.611319069184
 20
-1341.754785536287
 42
0.0006636169673302
 10
-1219.417451309221
 20
-1341.087432612863
 10
-1219.412354654846
 20
-1341.069801029886
 42
0.0010589131323852
 10
-1219.230905953957
 20
-1340.437069686934
 10
-1219.225923883496
 20
-1340.419556779981
 42
0.0015655524459444
 10
-1219.057653676294
 20
-1339.820940100713
 10
-1219.052823475877
 20
-1339.803547941772
 42
0.0021640440478088
 10
-1218.898533503893
 20
-1339.23852092376
 10
-1218.893899284461
 20
-1339.221256193758
 42
0.0028763871851375
 10
-1218.75438356641
 20
-1338.689288242919
 10
-1218.749997702238
 20
-1338.672164264744
 42
0.0037310511944227
 10
-1218.626041010406
 20
-1338.17271667074
 10
-1218.62196579012
 20
-1338.155756399506
 42
0.0047652197770255
 10
-1218.514341889609
 20
-1337.68827863119
 10
-1218.510651290285
 20
-1337.671519076038
 42
0.0060276699303358
 10
-1218.420121191132
 20
-1337.235443280895
 10
-1218.416902500842
 20
-1337.218942066582
 42
0.0075824337756432
 10
-1218.344213191427
 20
-1336.81367490216
 10
-1218.341567814047
 20
-1336.79751995471
 42
0.0095130624609982
 10
-1218.287452578415
 20
-1336.422430601638
 10
-1218.280466354534
 20
-1336.366497043527
 42
0.0121054653229048
 10
-1218.253875023955
 20
-1336.101601215047
 10
-1218.253008534195
 20
-1336.090197772117
 42
0.006905082738866
 10
-1218.237919716158
 20
-1335.847256545274
 10
-1218.236784416489
 20
-1335.823730288225
 42
0.0169063976703915
 10
-1218.233957137509
 20
-1335.627537560928
 10
-1218.23512778904
 20
-1335.567201799576
 42
0.005200773288927
 10
-1218.237381237633
 20
-1335.491608409427
 42
0.0054038123288878
 10
-1218.257344749469
 20
-1335.371590113437
 10
-1218.262430605342
 20
-1335.342931626836
 42
0.0112050460458748
 10
-1218.297814967398
 20
-1335.166605188508
 10
-1218.315639929442
 20
-1335.087063601776
 42
0.0240764468012703
 10
-1218.406537295588
 20
-1334.756826566276
 10
-1218.425096058401
 20
-1334.700206401282
 42
0.0256812331835673
 10
-1218.568458978591
 20
-1334.328482195024
 10
-1218.573868404413
 20
-1334.316350860032
 42
0.0268360501217056
 10
-1218.743295645262
 20
-1333.985357726013
 10
-1218.748832052895
 20
-1333.975838055705
 42
0.0274670231723154
 10
-1218.94103302931
 20
-1333.683550680784
 10
-1218.946414329274
 20
-1333.676271533241
 42
0.0275035967103912
 10
-1219.157987208835
 20
-1333.420755642938
 10
-1219.163056709799
 20
-1333.41527655531
 42
0.0269557673524127
 10
-1219.390460253241
 20
-1333.194634269345
 10
-1219.395203311026
 20
-1333.190504314883
 42
0.0259124802211418
 10
-1219.634758142454
 20
-1333.002813787733
 10
-1219.639288987639
 20
-1332.9996282854
 42
0.02451621530037
 10
-1219.887205340731
 20
-1332.842895276292
 10
-1219.891731887059
 20
-1332.840335079088
 42
0.0229282588839212
 10
-1220.144151443882
 20
-1332.712466886592
 10
-1220.148931937719
 20
-1332.71031458683
 42
0.021298413569535
 10
-1220.401969890181
 20
-1332.609115669587
 10
-1220.40727417515
 20
-1332.607252106828
 42
0.0197555462341047
 10
-1220.657052512874
 20
-1332.530436688863
 42
0.018351189679088
 10
-1220.911981238341
 20
-1332.472853781897
 10
-1220.998346435058
 20
-1332.456650991513
 42
0.0338057877148909
 10
-1221.28385378432
 20
-1332.422842586372
 10
-1221.374859189369
 20
-1332.41826293111
 42
0.0091990524507574
 10
-1221.480706297996
 20
-1332.414887075189
 42
0.0028333980772192
 10
-1221.586620213974
 20
-1332.414058967672
 10
-1221.587535667038
 20
-1332.414056997848
 42
-0.0023619827799722
 10
-1221.695281682157
 20
-1332.413316156769
 10
-1221.73168685232
 20
-1332.412893850306
 42
0.0008824598485062
 10
-1221.91224284226
 20
-1332.411118072067
 10
-1221.956104274576
 20
-1332.410764110542
 42
0.0038132665772569
 10
-1222.224387170462
 20
-1332.410645174476
 10
-1222.240920825248
 20
-1332.410763940619
 42
0.0060665569332251
 10
-1222.542201316833
 20
-1332.41658424004
 10
-1222.556451648865
 20
-1332.417032548008
 42
0.0080356953337499
 10
-1222.885910365202
 20
-1332.432700270075
 10
-1222.897980380291
 20
-1332.433468853015
 42
0.0098996399107292
 10
-1223.250743464941
 20
-1332.462954082213
 10
-1223.260789174317
 20
-1332.463994378411
 42
0.0117740981369184
 10
-1223.631946032665
 20
-1332.511286625941
 10
-1223.640168729148
 20
-1332.512531742512
 42
0.0137435215136182
 10
-1224.024757548641
 20
-1332.581628716075
 10
-1224.031414587756
 20
-1332.583014612307
 42
0.0158359869383892
 10
-1224.424411681559
 20
-1332.677906700788
 10
-1224.429824868426
 20
-1332.679396641659
 42
0.0180554124025441
 10
-1224.826139913039
 20
-1332.804034657897
 10
-1224.830696701122
 20
-1332.805650694163
 42
0.0203657431283921
 10
-1225.225174218934
 20
-1332.96391103568
 10
-1225.229317757941
 20
-1332.965772657121
 42
0.0226819684654253
 10
-1225.616753814144
 20
-1333.161415235792
 10
-1225.620953605162
 20
-1333.163780827712
 42
0.0248634984604738
 10
-1225.996135546344
 20
-1333.400407473659
 10
-1226.044330475128
 20
-1333.434264515485
 42
0.0267044190885915
 10
-1226.318623172044
 20
-1333.649704891353
 42
0.0139303002197511
 10
-1226.574790337981
 20
-1333.886943732263
 10
-1226.579643723704
 20
-1333.891696395125
 42
0.0283460963441171
 10
-1226.823716317931
 20
-1334.15942705557
 10
-1226.863384823088
 20
-1334.208228633043
 42
0.0070695364819521
 10
-1226.940822048948
 20
-1334.306295449009
 42
0.0070695364819521
  0
LWPOLYLINE
  5
63
330
23
100
AcDbEntity
  8
0
  6
Continuous
 62
     7
370
    15
390
1D
100
AcDbPolyline
 90
      226
 70
   128
 43
0.0
 10
-1230.469642486194
 20
-1350.027884255193
 42
-0.0026277636595227
 10
-1230.469720369994
 20
-1349.961112329409
 10
-1230.469503011762
 20
-1349.907957112006
 42
-0.0088680296729824
 10
-1230.465726395469
 20
-1349.734941329606
 10
-1230.463380036357
 20
-1349.67566130415
 42
-0.0077381705612706
 10
-1230.447333925593
 20
-1349.384400808347
 10
-1230.44646601442
 20
-1349.372112574667
 42
-0.0068872530530433
 10
-1230.419833934673
 20
-1349.056890822603
 10
-1230.418629710486
 20
-1349.044649843579
 42
-0.0062130021484058
 10
-1230.381035993659
 20
-1348.705780152344
 10
-1230.379532090123
 20
-1348.693606280424
 42
-0.0056726929671932
 10
-1230.330610230622
 20
-1348.331411058319
 10
-1230.328836784976
 20
-1348.319317258065
 42
-0.0052341884492488
 10
-1230.268226198714
 20
-1347.934124002536
 10
-1230.26620820994
 20
-1347.922119072555
 42
-0.0049768450171868
 10
-1230.193469528514
 20
-1347.514274505128
 10
-1230.169220513792
 20
-1347.385726522116
 42
-0.008902980562557
 10
-1230.032139661997
 20
-1346.723951074693
 10
-1229.999394286678
 20
-1346.57891964417
 42
-0.0080318257099981
 10
-1229.769845672339
 20
-1345.633210012323
 10
-1229.75786074589
 20
-1345.587079377126
 42
-0.007426572131831
 10
-1229.473849207043
 20
-1344.557014798756
 10
-1229.453969663921
 20
-1344.488880738149
 42
-0.0069711922702763
 10
-1229.126665085416
 20
-1343.422612997829
 10
-1229.066713138313
 20
-1343.236591639467
 42
-0.0052070422894344
 10
-1228.837287913051
 20
-1342.549319562427
 10
-1228.820006720877
 20
-1342.499292281805
 42
-0.0009167004448847
 10
-1228.61691483359
 20
-1341.914836433656
 42
-0.0025162726943628
 10
-1228.409817203331
 20
-1341.331795169503
 10
-1228.372592591525
 20
-1341.228645623597
 42
-0.0028212681458074
 10
-1228.124416672559
 20
-1340.552914991416
 10
-1228.11458590981
 20
-1340.526607546745
 42
-0.0031964916820481
 10
-1227.878293652146
 20
-1339.906402784613
 10
-1227.868659198147
 20
-1339.88159279447
 42
-0.0036281836451104
 10
-1227.643553237045
 20
-1339.314152113576
 10
-1227.634114826887
 20
-1339.29085468207
 42
-0.0041269166832564
 10
-1227.419497130229
 20
-1338.773413786095
 10
-1227.386864173811
 20
-1338.696535339742
 42
-0.0047472213057383
 10
-1227.229819368254
 20
-1338.336113871851
 10
-1227.222925287045
 20
-1338.320693274516
 42
-0.0025651659994909
 10
-1227.074567253196
 20
-1337.99336521877
 42
-0.0057144634991866
 10
-1226.92081755942
 20
-1337.668555545398
 10
-1226.89278685403
 20
-1337.611047163027
 42
-0.006538806837455
 10
-1226.709319826283
 20
-1337.246814666349
 10
-1226.7008613705
 20
-1337.23055508697
 42
-0.0074510843021304
 10
-1226.524679124627
 20
-1336.903866805857
 10
-1226.516499454094
 20
-1336.889226028584
 42
-0.0084648979860027
 10
-1226.346865600996
 20
-1336.597317017626
 10
-1226.339009474509
 20
-1336.584310025976
 42
-0.0095638542803751
 10
-1226.175174026914
 20
-1336.324421153997
 10
-1226.167699083241
 20
-1336.31305179254
 42
-0.0107191626805173
 10
-1226.008897502855
 20
-1336.082440557997
 10
-1226.001880769122
 20
-1336.072704465631
 42
-0.0118458573899051
 10
-1225.847332670611
 20
-1335.868632270322
 42
-0.0129184518192344
 10
-1225.682880047011
 20
-1335.672471754154
 10
-1225.652735274645
 20
-1335.638345675251
 42
-0.0217742579632475
 10
-1225.476122952311
 20
-1335.455138905002
 10
-1225.465377407851
 20
-1335.444922071799
 42
-0.0097266568643761
 10
-1225.299319788995
 20
-1335.293074497362
 42
-0.0187720905719211
 10
-1225.124972213104
 20
-1335.151005643972
 10
-1225.094266222432
 20
-1335.127846561577
 42
-0.0179428207517715
 10
-1224.861845502435
 20
-1334.965294384465
 10
-1224.858193175517
 20
-1334.962930449576
 42
-0.0170047877699416
 10
-1224.622429537989
 20
-1334.821469935426
 10
-1224.618646549244
 20
-1334.81937163039
 42
-0.0160190788369074
 10
-1224.381738001607
 20
-1334.697720328401
 42
-0.0151102861492733
 10
-1224.137706219158
 20
-1334.591037552346
 10
-1224.085319716949
 20
-1334.569997419452
 42
-0.0271945441888825
 10
-1223.726657157892
 20
-1334.448132608747
 10
-1223.657592357404
 20
-1334.42878306748
 42
-0.0237596594022914
 10
-1223.24179551038
 20
-1334.333332355498
 10
-1223.173732656649
 20
-1334.321077667371
 42
-0.0213715440554541
 10
-1222.887857725204
 20
-1334.282130635861
 10
-1222.827710558978
 20
-1334.27654092116
 42
-0.01014656558141
 10
-1222.660218026992
 20
-1334.264397377896
 10
-1222.6508776408
 20
-1334.2639104629
 42
-0.0100375910883375
 10
-1222.501723540231
 20
-1334.259134644974
 10
-1222.491464270546
 20
-1334.259012205959
 42
-0.0103625633372806
 10
-1222.362756275896
 20
-1334.260143639486
 10
-1222.340490624626
 20
-1334.260800997951
 42
-0.0115689250217743
 10
-1222.256439887101
 20
-1334.265230504196
 42
-0.0072438037417915
 10
-1222.172601607657
 20
-1334.272819703946
 10
-1222.155801098189
 20
-1334.27458624667
 42
-0.0217917313130329
 10
-1222.039231334874
 20
-1334.292006139391
 10
-1221.973631244305
 20
-1334.304752747806
 42
-0.0332943556753203
 10
-1221.76923907928
 20
-1334.358793039112
 10
-1221.739066510731
 20
-1334.368961116231
 42
-0.0184824084801073
 10
-1221.600561454265
 20
-1334.421412131617
 42
-0.019800205068856
 10
-1221.466487113764
 20
-1334.484296191818
 10
-1221.464600476389
 20
-1334.485273978697
 42
-0.021224234299253
 10
-1221.332461533992
 20
-1334.561036717486
 10
-1221.330646238443
 20
-1334.562182519698
 42
-0.0226090605809124
 10
-1221.202142337227
 20
-1334.651662163259
 10
-1221.200297895484
 20
-1334.65307441625
 42
-0.0238457052235378
 10
-1221.07711581419
 20
-1334.757070312113
 10
-1221.075163085632
 20
-1334.758885189879
 42
-0.0248160564158472
 10
-1220.95896157833
 20
-1334.878159791089
 10
-1220.956857944929
 20
-1334.880545124792
 42
-0.0254109591448392
 10
-1220.849252727063
 20
-1335.015833510756
 10
-1220.847004705149
 20
-1335.018975059157
 42
-0.0255528488293722
 10
-1220.749558026354
 20
-1335.171002113388
 10
-1220.747226926436
 20
-1335.175083724998
 42
-0.0252146793219273
 10
-1220.661445900427
 20
-1335.344585970996
 10
-1220.659143661269
 20
-1335.349768052908
 42
-0.0244265635956303
 10
-1220.586488967509
 20
-1335.53751462495
 10
-1220.57724256604
 20
-1335.56538004329
 42
-0.0231319612899328
 10
-1220.531319787047
 20
-1335.728681090094
 42
-0.0112130424356636
 10
-1220.49668376451
 20
-1335.89488469028
 10
-1220.495481239397
 20
-1335.90138127717
 42
-0.0210527881234441
 10
-1220.469794764026
 20
-1336.082436922607
 10
-1220.466284169204
 20
-1336.117842471159
 42
-0.0190029892419591
 10
-1220.450842695659
 20
-1336.371378317434
 10
-1220.450032719215
 20
-1336.4068539318
 42
-0.01379745536634
 10
-1220.451581572051
 20
-1336.731885338533
 10
-1220.452427027006
 20
-1336.758004083124
 42
-0.0081336634216403
 10
-1220.467286362229
 20
-1337.063351550726
 42
-0.0073526923570252
 10
-1220.491594895605
 20
-1337.368099795019
 10
-1220.492856319386
 20
-1337.381436469677
 42
-0.0066886138697058
 10
-1220.528591905432
 20
-1337.712022513162
 10
-1220.530248994903
 20
-1337.725644132166
 42
-0.0061359187355585
 10
-1220.578099596952
 20
-1338.082408112254
 10
-1220.580137098027
 20
-1338.096302915095
 42
-0.0056698610066509
 10
-1220.640787428791
 20
-1338.47958148392
 10
-1220.643192862117
 20
-1338.493740603164
 42
-0.0052721077274259
 10
-1220.717325062918
 20
-1338.90386794285
 10
-1220.720088211758
 20
-1338.918284578227
 42
-0.004928927217884
 10
-1220.808382329856
 20
-1339.355593089341
 10
-1220.811494824541
 20
-1339.370261942166
 42
-0.0047415956711527
 10
-1220.914732816072
 20
-1339.835058699572
 10
-1220.949501026433
 20
-1339.984865794959
 42
-0.0084404470904711
 10
-1221.139517470001
 20
-1340.745089819478
 10
-1221.14564415799
 20
-1340.767953943644
 42
-0.0039635940258833
 10
-1221.367097842274
 20
-1341.568942807889
 10
-1221.380474637454
 20
-1341.615874424483
 42
-0.0072475040836667
 10
-1221.647921525317
 20
-1342.505094140873
 10
-1221.718133852143
 20
-1342.726834490843
 42
-0.0051345458826694
 10
-1222.004893224203
 20
-1343.601159678657
 10
-1222.026419490974
 20
-1343.664585945797
 42
-0.0019150016601743
 10
-1222.281952897837
 20
-1344.408135066013
 10
-1222.288420502232
 20
-1344.42672253093
 42
-0.0021524362751591
 10
-1222.536898553297
 20
-1345.131048352642
 10
-1222.546108973993
 20
-1345.156801930942
 42
-0.0024331286821497
 10
-1222.78236423303
 20
-1345.807401239062
 10
-1222.791412185572
 20
-1345.831944545394
 42
-0.0027449721788652
 10
-1223.016026756416
 20
-1346.431074424341
 10
-1223.024916763805
 20
-1346.454397014186
 42
-0.0031083229767552
 10
-1223.238459250418
 20
-1347.004321051772
 10
-1223.247195382088
 20
-1347.026410767618
 42
-0.0035311343282502
 10
-1223.450236567685
 20
-1347.52939389336
 10
-1223.458821906836
 20
-1347.550236616878
 42
-0.0040245640948498
 10
-1223.651933710627
 20
-1348.008545939463
 10
-1223.660369824233
 20
-1348.028125307541
 42
-0.0046015135849592
 10
-1223.844126117394
 20
-1348.444030337177
 10
-1223.852412295221
 20
-1348.462327476626
 42
-0.0052768638268527
 10
-1224.027389814178
 20
-1348.8381003609
 10
-1224.035522024809
 20
-1348.855093699451
 42
-0.0060672675640418
 10
-1224.202301637571
 20
-1349.193009322557
 10
-1224.210271118046
 20
-1349.208674581542
 42
-0.0069904648872487
 10
-1224.369439512054
 20
-1349.511010388218
 10
-1224.377230911665
 20
-1349.525320937445
 42
-0.0080637022770082
 10
-1224.529382772011
 20
-1349.794356240599
 10
-1224.536971804641
 20
-1349.807284106198
 42
-0.0093006455666125
 10
-1224.682712481173
 20
-1350.045298504702
 10
-1224.690063147916
 20
-1350.056816473874
 42
-0.0107060778057093
 10
-1224.830011691356
 20
-1350.266086791255
 10
-1224.837073459633
 20
-1350.276172333818
 42
-0.0122723111413847
 10
-1224.971867177833
 20
-1350.458965663309
 10
-1224.972193401386
 20
-1350.459386051118
 42
-0.0141836319624691
 10
-1225.115775004361
 20
-1350.633955808948
 10
-1225.122722760012
 20
-1350.641930809211
 42
-0.01759574772122
 10
-1225.262628928048
 20
-1350.791551697618
 42
-0.0080466359673799
 10
-1225.410092693078
 20
-1350.933874225769
 10
-1225.456127237596
 20
-1350.976894663861
 42
-0.0269600260395148
 10
-1225.709407483577
 20
-1351.189217922369
 10
-1225.775974619874
 20
-1351.239169336992
 42
-0.0178362839757
 10
-1226.015919109532
 20
-1351.406187263246
 10
-1226.023164080533
 20
-1351.410855775452
 42
-0.0174650732648299
 10
-1226.259500277973
 20
-1351.55171674041
 42
-0.0169240130165889
 10
-1226.504966523831
 20
-1351.676009000187
 10
-1226.550952679389
 20
-1351.697370955755
 42
-0.0318883036841505
 10
-1226.901303535008
 20
-1351.833709265265
 10
-1226.969669070174
 20
-1351.85540988574
 42
-0.0284435909902385
 10
-1227.345719196464
 20
-1351.951627321215
 10
-1227.380877356961
 20
-1351.958520917043
 42
-0.0243909341015631
 10
-1227.694320817882
 20
-1352.004241948074
 10
-1227.744601544657
 20
-1352.009087494975
 42
-0.01966392929304
 10
-1227.96019712218
 20
-1352.021335780489
 10
-1228.012021193338
 20
-1352.022239041225
 42
-0.0100501510692704
 10
-1228.124444475008
 20
-1352.021938642872
 10
-1228.156104336338
 20
-1352.021217570987
 42
-0.0019752031116205
 10
-1228.205196673034
 20
-1352.019905410777
 10
-1228.207956976272
 20
-1352.019820718951
 42
0.0065378752016477
 10
-1228.251533551011
 20
-1352.019053827736
 42
-0.0167974694673139
 10
-1228.295064373942
 20
-1352.01739392921
 10
-1228.299143713205
 20
-1352.017100918315
 42
-0.0081283276268423
 10
-1228.350703510951
 20
-1352.012553924676
 10
-1228.362443084821
 20
-1352.011326007099
 42
-0.0126703440172616
 10
-1228.437161380615
 20
-1352.001591216027
 10
-1228.459949248292
 20
-1351.998032960112
 42
-0.0117852088446885
 10
-1228.579488234118
 20
-1351.976469964956
 10
-1228.634868685887
 20
-1351.96512642472
 42
-0.025177459228774
 10
-1228.861712724897
 20
-1351.906628415287
 10
-1228.906431914746
 20
-1351.892661595952
 42
-0.0146525199883794
 10
-1229.092824902285
 20
-1351.828395068754
 42
-0.0166929435857014
 10
-1229.274802558411
 20
-1351.752587935699
 10
-1229.279459189684
 20
-1351.750463035085
 42
-0.0191684358436274
 10
-1229.464642820932
 20
-1351.657226951296
 10
-1229.467975406691
 20
-1351.655385703742
 42
-0.0221181781811755
 10
-1229.651285710595
 20
-1351.54325220537
 10
-1229.653635514601
 20
-1351.54166790738
 42
-0.025498468538216
 10
-1229.829925664988
 20
-1351.409256757409
 10
-1229.852407812689
 20
-1351.390504448474
 42
-0.0292492648806112
 10
-1229.977176751531
 20
-1351.273411648831
 42
-0.015904895749532
 10
-1230.091016748983
 20
-1351.145391657231
 10
-1230.092335539561
 20
-1351.143810044212
 42
-0.0343813379558729
 10
-1230.194972801188
 20
-1351.001938718441
 10
-1230.226464332547
 20
-1350.95143532635
 42
-0.0369117275705216
 10
-1230.312356834445
 20
-1350.7879580854
 42
-0.0191751379912329
 10
-1230.379550220002
 20
-1350.615553479394
 10
-1230.381313543762
 20
-1350.610460134719
 42
-0.037817804223378
 10
-1230.431108262546
 20
-1350.42151935864
 10
-1230.437103558276
 20
-1350.388958740443
 42
-0.0184846046473341
 10
-1230.457820757571
 20
-1350.247205919896
 42
-0.017986635131631
 10
-1230.468153762645
 20
-1350.104315106809
 10
-1230.46821020509
 20
-1350.102757420203
 42
-0.0085497186109513
 10
-1230.469642486194
 20
-1350.027884255193
 42
-0.0085497186109513
  0
ENDBLK
  5
64
330
23
100
AcDbEntity
  8
template
390
1D
100
AcDbBlockEnd
  0
BLOCK
  5
65
330
24
100
AcDbEntity
  8
notes
390
1D
100
AcDbBlockBegin
  2
*D3
 70
     1
 10
0.0
 20
0.0
 30
0.0
  3
*D3
  1
*D3
  0
LINE
  5
66
330
24
100
AcDbEntity
  8
0
  6
Continuous
 62
     0
370
    -2
390
1D
100
AcDbLine
 10
5963.434593272254
 20
-729.3629715339328
 30
0.0
 11
5860.0
 21
-729.3629715339328
 31
0.0
  0
LINE
  5
67
330
24
100
AcDbEntity
  8
0
  6
Continuous
 62
     0
370
    -2
390
1D
100
AcDbLine
 10
5963.434593272254
 20
270.637028466078
 30
0.0
 11
5860.0
 21
270.637028466078
 31
0.0
  0
LINE
  5
68
330
24
100
AcDbEntity
  8
0
  6
Continuous
 62
     0
370
    -2
390
1D
100
AcDbLine
 10
5860.0
 20
-729.3629715339328
 30
0.0
 11
5860.0
 21
270.637028466078
 31
0.0
  0
CIRCLE
  5
69
102
{ACAD_REACTORS
330
6A
102
}
330
24
100
AcDbEntity
  8
0
  6
Continuous
 62
     0
370
    -2
390
1D
100
AcDbCircle
 10
5860.0
 20
-729.3629715339328
 30
0.0
 40
4.99969482421875
  0
HATCH
  5
6A
330
24
100
AcDbEntity
  8
0
  6
Continuous
 62
     0
370
    -2
390
1D
100
AcDbHatch
 10
0.0
 20
0.0
 30
0.0
210
0.0
220
0.0
230
1.0
  2
SOLID
 70
     1
 71
     1
 91
        1
 92
        1
 93
        1
 72
     2
 10
5860.0
 20
-729.3629715339328
 40
4.99969482421875
 50
0.0
 51
360.0
 73
     0
 97
        1
330
69
 75
     0
 76
     1
 98
        1
 10
0.0
 20
0.0
  0
CIRCLE
  5
6B
102
{ACAD_REACTORS
330
6C
102
}
330
24
100
AcDbEntity
  8
0
  6
Continuous
 62
     0
370
    -2
390
1D
100
AcDbCircle
 10
5860.0
 20
270.637028466078
 30
0.0
 40
4.99969482421875
  0
HATCH
  5
6C
330
24
100
AcDbEntity
  8
0
  6
Continuous
 62
     0
370
    -2
390
1D
100
AcDbHatch
 10
0.0
 20
0.0
 30
0.0
210
0.0
220
0.0
230
1.0
  2
SOLID
 70
     1
 71
     1
 91
        1
 92
        1
 93
        1
 72
     2
 10
5860.0
 20
270.637028466078
 40
4.99969482421875
 50
0.0
 51
360.0
 73
     0
 97
        1
330
6B
 75
     0
 76
     1
 98
        1
 10
0.0
 20
0.0
  0
MTEXT
  5
6D
330
24
100
AcDbEntity
  8
0
 62
     0
390
1D
100
AcDbMText
 10
5826.1223828125
 20
-261.1129715339274
 30
0.0
 40
24.4326171875
 41
0.0
 46
0.0
 71
     1
 72
     1
  1
1000
  7
ＭＳ ゴシック
 11
0.0
 21
1.0
 31
0.0
 73
     1
 44
0.7828267384257843
  0
POINT
  5
6E
330
24
100
AcDbEntity
  8
Defpoints
 62
     0
370
     0
390
1D
100
AcDbPoint
 10
5988.434593272254
 20
270.637028466078
 30
0.0
  0
POINT
  5
6F
330
24
100
AcDbEntity
  8
Defpoints
 62
     0
370
     0
390
1D
100
AcDbPoint
 10
5988.434593272254
 20
-729.3629715339328
 30
0.0
  0
POINT
  5
70
330
24
100
AcDbEntity
  8
Defpoints
 62
     0
370
     0
390
1D
100
AcDbPoint
 10
5860.0
 20
-729.3629715339328
 30
0.0
  0
ENDBLK
  5
71
330
24
100
AcDbEntity
  8
notes
390
1D
100
AcDbBlockEnd
  0
BLOCK
  5
72
330
25
100
AcDbEntity
  8
notes
390
1D
100
AcDbBlockBegin
  2
*D4
 70
     1
 10
0.0
 20
0.0
 30
0.0
  3
*D4
  1
*D4
  0
LINE
  5
73
330
25
100
AcDbEntity
  8
0
  6
Continuous
 62
     0
370
    -2
390
1D
100
AcDbLine
 10
5986.434593272254
 20
-750.4056614312456
 30
0.0
 11
5986.434593272254
 21
-829.3629715339328
 31
0.0
  0
LINE
  5
74
330
25
100
AcDbEntity
  8
0
  6
Continuous
 62
     0
370
    -2
390
1D
100
AcDbLine
 10
6116.434593272254
 20
-739.162971533932
 30
0.0
 11
6116.434593272254
 21
-829.3629715339328
 31
0.0
  0
LINE
  5
75
330
25
100
AcDbEntity
  8
0
  6
Continuous
 62
     0
370
    -2
390
1D
100
AcDbLine
 10
5986.434593272254
 20
-829.3629715339328
 30
0.0
 11
6116.434593272254
 21
-829.3629715339328
 31
0.0
  0
CIRCLE
  5
76
102
{ACAD_REACTORS
330
77
102
}
330
25
100
AcDbEntity
  8
0
  6
Continuous
 62
     0
370
    -2
390
1D
100
AcDbCircle
 10
5986.434593272254
 20
-829.3629715339328
 30
0.0
 40
4.99969482421875
  0
HATCH
  5
77
330
25
100
AcDbEntity
  8
0
  6
Continuous
 62
     0
370
    -2
390
1D
100
AcDbHatch
 10
0.0
 20
0.0
 30
0.0
210
0.0
220
0.0
230
1.0
  2
SOLID
 70
     1
 71
     1
 91
        1
 92
        1
 93
        1
 72
     2
 10
5986.434593272254
 20
-829.3629715339328
 40
4.99969482421875
 50
0.0
 51
360.0
 73
     0
 97
        1
330
76
 75
     0
 76
     1
 98
        1
 10
0.0
 20
0.0
  0
CIRCLE
  5
78
102
{ACAD_REACTORS
330
79
102
}
330
25
100
AcDbEntity
  8
0
  6
Continuous
 62
     0
370
    -2
390
1D
100
AcDbCircle
 10
6116.434593272254
 20
-829.3629715339328
 30
0.0
 40
4.99969482421875
  0
HATCH
  5
79
330
25
100
AcDbEntity
  8
0
  6
Continuous
 62
     0
370
    -2
390
1D
100
AcDbHatch
 10
0.0
 20
0.0
 30
0.0
210
0.0
220
0.0
230
1.0
  2
SOLID
 70
     1
 71
     1
 91
        1
 92
        1
 93
        1
 72
     2
 10
6116.434593272254
 20
-829.3629715339328
 40
4.99969482421875
 50
0.0
 51
360.0
 73
     0
 97
        1
330
78
 75
     0
 76
     1
 98
        1
 10
0.0
 20
0.0
  0
MTEXT
  5
7A
330
25
100
AcDbEntity
  8
0
 62
     0
390
1D
100
AcDbMText
 10
6027.622091590079
 20
-795.4853543464327
 30
0.0
 40
24.4326171875
 41
0.0
 46
0.0
 71
     1
 72
     1
  1
130
  7
ＭＳ ゴシック
 73
     1
 44
0.7828267384257843
  0
POINT
  5
7B
330
25
100
AcDbEntity
  8
Defpoints
 62
     0
370
     0
390
1D
100
AcDbPoint
 10
6116.434593272254
 20
-714.162971533932
 30
0.0
  0
POINT
  5
7C
330
25
100
AcDbEntity
  8
Defpoints
 62
     0
370
     0
390
1D
100
AcDbPoint
 10
5986.434593272254
 20
-725.4056614312456
 30
0.0
  0
POINT
  5
7D
330
25
100
AcDbEntity
  8
Defpoints
 62
     0
370
     0
390
1D
100
AcDbPoint
 10
5986.434593272254
 20
-829.3629715339328
 30
0.0
  0
ENDBLK
  5
7E
330
25
100
AcDbEntity
  8
notes
390
1D
100
AcDbBlockEnd
  0
BLOCK
  5
7F
330
26
100
AcDbEntity
  8
notes
390
1D
100
AcDbBlockBegin
  2
*D5
 70
     1
 10
0.0
 20
0.0
 30
0.0
  3
*D5
  1
*D5
  0
LINE
  5
80
330
26
100
AcDbEntity
  8
0
  6
Continuous
 62
     0
370
    -2
390
1D
100
AcDbLine
 10
6116.434593272254
 20
-739.162971533932
 30
0.0
 11
6116.434593272254
 21
-829.3629715339328
 31
0.0
  0
LINE
  5
81
330
26
100
AcDbEntity
  8
0
  6
Continuous
 62
     0
370
    -2
390
1D
100
AcDbLine
 10
6446.434593272254
 20
-737.162971533932
 30
0.0
 11
6446.434593272254
 21
-829.3629715339328
 31
0.0
  0
LINE
  5
82
330
26
100
AcDbEntity
  8
0
  6
Continuous
 62
     0
370
    -2
390
1D
100
AcDbLine
 10
6116.434593272254
 20
-829.3629715339328
 30
0.0
 11
6446.434593272254
 21
-829.3629715339328
 31
0.0
  0
CIRCLE
  5
83
102
{ACAD_REACTORS
330
84
102
}
330
26
100
AcDbEntity
  8
0
  6
Continuous
 62
     0
370
    -2
390
1D
100
AcDbCircle
 10
6116.434593272254
 20
-829.3629715339328
 30
0.0
 40
4.99969482421875
  0
HATCH
  5
84
330
26
100
AcDbEntity
  8
0
  6
Continuous
 62
     0
370
    -2
390
1D
100
AcDbHatch
 10
0.0
 20
0.0
 30
0.0
210
0.0
220
0.0
230
1.0
  2
SOLID
 70
     1
 71
     1
 91
        1
 92
        1
 93
        1
 72
     2
 10
6116.434593272254
 20
-829.3629715339328
 40
4.99969482421875
 50
0.0
 51
360.0
 73
     0
 97
        1
330
83
 75
     0
 76
     1
 98
        1
 10
0.0
 20
0.0
  0
CIRCLE
  5
85
102
{ACAD_REACTORS
330
86
102
}
330
26
100
AcDbEntity
  8
0
  6
Continuous
 62
     0
370
    -2
390
1D
100
AcDbCircle
 10
6446.434593272254
 20
-829.3629715339328
 30
0.0
 40
4.99969482421875
  0
HATCH
  5
86
330
26
100
AcDbEntity
  8
0
  6
Continuous
 62
     0
370
    -2
390
1D
100
AcDbHatch
 10
0.0
 20
0.0
 30
0.0
210
0.0
220
0.0
230
1.0
  2
SOLID
 70
     1
 71
     1
 91
        1
 92
        1
 93
        1
 72
     2
 10
6446.434593272254
 20
-829.3629715339328
 40
4.99969482421875
 50
0.0
 51
360.0
 73
     0
 97
        1
330
85
 75
     0
 76
     1
 98
        1
 10
0.0
 20
0.0
  0
MTEXT
  5
87
330
26
100
AcDbEntity
  8
0
 62
     0
390
1D
100
AcDbMText
 10
6251.422091590079
 20
-795.4853543464327
 30
0.0
 40
24.4326171875
 41
0.0
 46
0.0
 71
     1
 72
     1
  1
330
  7
ＭＳ ゴシック
 73
     1
 44
0.7828267384257843
  0
POINT
  5
88
330
26
100
AcDbEntity
  8
Defpoints
 62
     0
370
     0
390
1D
100
AcDbPoint
 10
6446.434593272254
 20
-712.162971533932
 30
0.0
  0
POINT
  5
89
330
26
100
AcDbEntity
  8
Defpoints
 62
     0
370
     0
390
1D
100
AcDbPoint
 10
6116.434593272254
 20
-714.162971533932
 30
0.0
  0
POINT
  5
8A
330
26
100
AcDbEntity
  8
Defpoints
 62
     0
370
     0
390
1D
100
AcDbPoint
 10
6116.434593272254
 20
-829.3629715339328
 30
0.0
  0
ENDBLK
  5
8B
330
26
100
AcDbEntity
  8
notes
390
1D
100
AcDbBlockEnd
  0
BLOCK
  5
8C
330
27
100
AcDbEntity
  8
notes
390
1D
100
AcDbBlockBegin
  2
*D6
 70
     1
 10
0.0
 20
0.0
 30
0.0
  3
*D6
  1
*D6
  0
LINE
  5
8D
330
27
100
AcDbEntity
  8
0
  6
Continuous
 62
     0
370
    -2
390
1D
100
AcDbLine
 10
5986.434593272254
 20
293.637028466078
 30
0.0
 11
5986.434593272254
 21
370.637028466078
 31
0.0
  0
LINE
  5
8E
330
27
100
AcDbEntity
  8
0
  6
Continuous
 62
     0
370
    -2
390
1D
100
AcDbLine
 10
6456.434593272255
 20
288.637028466078
 30
0.0
 11
6456.434593272255
 21
370.637028466078
 31
0.0
  0
LINE
  5
8F
330
27
100
AcDbEntity
  8
0
  6
Continuous
 62
     0
370
    -2
390
1D
100
AcDbLine
 10
5986.434593272254
 20
370.637028466078
 30
0.0
 11
6456.434593272255
 21
370.637028466078
 31
0.0
  0
CIRCLE
  5
90
102
{ACAD_REACTORS
330
91
102
}
330
27
100
AcDbEntity
  8
0
  6
Continuous
 62
     0
370
    -2
390
1D
100
AcDbCircle
 10
5986.434593272254
 20
370.637028466078
 30
0.0
 40
4.99969482421875
  0
HATCH
  5
91
330
27
100
AcDbEntity
  8
0
  6
Continuous
 62
     0
370
    -2
390
1D
100
AcDbHatch
 10
0.0
 20
0.0
 30
0.0
210
0.0
220
0.0
230
1.0
  2
SOLID
 70
     1
 71
     1
 91
        1
 92
        1
 93
        1
 72
     2
 10
5986.434593272254
 20
370.637028466078
 40
4.99969482421875
 50
0.0
 51
360.0
 73
     0
 97
        1
330
90
 75
     0
 76
     1
 98
        1
 10
0.0
 20
0.0
  0
CIRCLE
  5
92
102
{ACAD_REACTORS
330
93
102
}
330
27
100
AcDbEntity
  8
0
  6
Continuous
 62
     0
370
    -2
390
1D
100
AcDbCircle
 10
6456.434593272255
 20
370.637028466078
 30
0.0
 40
4.99969482421875
  0
HATCH
  5
93
330
27
100
AcDbEntity
  8
0
  6
Continuous
 62
     0
370
    -2
390
1D
100
AcDbHatch
 10
0.0
 20
0.0
 30
0.0
210
0.0
220
0.0
230
1.0
  2
SOLID
 70
     1
 71
     1
 91
        1
 92
        1
 93
        1
 72
     2
 10
6456.434593272255
 20
370.637028466078
 40
4.99969482421875
 50
0.0
 51
360.0
 73
     0
 97
        1
330
92
 75
     0
 76
     1
 98
        1
 10
0.0
 20
0.0
  0
MTEXT
  5
94
330
27
100
AcDbEntity
  8
0
 62
     0
390
1D
100
AcDbMText
 10
6197.622091590079
 20
404.5146456535781
 30
0.0
 40
24.4326171875
 41
0.0
 46
0.0
 71
     1
 72
     1
  1
470
  7
ＭＳ ゴシック
 73
     1
 44
0.7828267384257843
  0
POINT
  5
95
330
27
100
AcDbEntity
  8
Defpoints
 62
     0
370
     0
390
1D
100
AcDbPoint
 10
6456.434593272255
 20
263.637028466078
 30
0.0
  0
POINT
  5
96
330
27
100
AcDbEntity
  8
Defpoints
 62
     0
370
     0
390
1D
100
AcDbPoint
 10
5986.434593272254
 20
268.637028466078
 30
0.0
  0
POINT
  5
97
330
27
100
AcDbEntity
  8
Defpoints
 62
     0
370
     0
390
1D
100
AcDbPoint
 10
5986.434593272254
 20
370.637028466078
 30
0.0
  0
ENDBLK
  5
98
330
27
100
AcDbEntity
  8
notes
390
1D
100
AcDbBlockEnd
  0
BLOCK
  5
99
330
28
100
AcDbEntity
  8
notes
390
1D
100
AcDbBlockBegin
  2
*D7
 70
     1
 10
0.0
 20
0.0
 30
0.0
  3
*D7
  1
*D7
  0
LINE
  5
9A
330
28
100
AcDbEntity
  8
0
  6
Continuous
 62
     0
370
    -2
390
1D
100
AcDbLine
 10
6474.434593272254
 20
-719.3629715339328
 30
0.0
 11
6556.434593272255
 21
-719.3629715339328
 31
0.0
  0
LINE
  5
9B
330
28
100
AcDbEntity
  8
0
  6
Continuous
 62
     0
370
    -2
390
1D
100
AcDbLine
 10
6474.434593272255
 20
260.6370284660672
 30
0.0
 11
6556.434593272255
 21
260.6370284660672
 31
0.0
  0
LINE
  5
9C
330
28
100
AcDbEntity
  8
0
  6
Continuous
 62
     0
370
    -2
390
1D
100
AcDbLine
 10
6556.434593272255
 20
-719.3629715339328
 30
0.0
 11
6556.434593272255
 21
260.6370284660672
 31
0.0
  0
CIRCLE
  5
9D
102
{ACAD_REACTORS
330
9E
102
}
330
28
100
AcDbEntity
  8
0
  6
Continuous
 62
     0
370
    -2
390
1D
100
AcDbCircle
 10
6556.434593272255
 20
-719.3629715339328
 30
0.0
 40
4.99969482421875
  0
HATCH
  5
9E
330
28
100
AcDbEntity
  8
0
  6
Continuous
 62
     0
370
    -2
390
1D
100
AcDbHatch
 10
0.0
 20
0.0
 30
0.0
210
0.0
220
0.0
230
1.0
  2
SOLID
 70
     1
 71
     1
 91
        1
 92
        1
 93
        1
 72
     2
 10
6556.434593272255
 20
-719.3629715339328
 40
4.99969482421875
 50
0.0
 51
360.0
 73
     0
 97
        1
330
9D
 75
     0
 76
     1
 98
        1
 10
0.0
 20
0.0
  0
CIRCLE
  5
9F
102
{ACAD_REACTORS
330
A0
102
}
330
28
100
AcDbEntity
  8
0
  6
Continuous
 62
     0
370
    -2
390
1D
100
AcDbCircle
 10
6556.434593272255
 20
260.6370284660672
 30
0.0
 40
4.99969482421875
  0
HATCH
  5
A0
330
28
100
AcDbEntity
  8
0
  6
Continuous
 62
     0
370
    -2
390
1D
100
AcDbHatch
 10
0.0
 20
0.0
 30
0.0
210
0.0
220
0.0
230
1.0
  2
SOLID
 70
     1
 71
     1
 91
        1
 92
        1
 93
        1
 72
     2
 10
6556.434593272255
 20
260.6370284660672
 40
4.99969482421875
 50
0.0
 51
360.0
 73
     0
 97
        1
330
9F
 75
     0
 76
     1
 98
        1
 10
0.0
 20
0.0
  0
MTEXT
  5
A1
330
28
100
AcDbEntity
  8
0
 62
     0
390
1D
100
AcDbMText
 10
6522.556976084755
 20
-253.1754732161083
 30
0.0
 40
24.4326171875
 41
0.0
 46
0.0
 71
     1
 72
     1
  1
980
  7
ＭＳ ゴシック
 11
0.0
 21
1.0
 31
0.0
 73
     1
 44
0.7828267384257843
  0
POINT
  5
A2
330
28
100
AcDbEntity
  8
Defpoints
 62
     0
370
     0
390
1D
100
AcDbPoint
 10
6449.434593272255
 20
260.6370284660672
 30
0.0
  0
POINT
  5
A3
330
28
100
AcDbEntity
  8
Defpoints
 62
     0
370
     0
390
1D
100
AcDbPoint
 10
6449.434593272254
 20
-719.3629715339328
 30
0.0
  0
POINT
  5
A4
330
28
100
AcDbEntity
  8
Defpoints
 62
     0
370
     0
390
1D
100
AcDbPoint
 10
6556.434593272255
 20
-719.3629715339328
 30
0.0
  0
ENDBLK
  5
A5
330
28
100
AcDbEntity
  8
notes
390
1D
100
AcDbBlockEnd
  0
BLOCK
  5
A6
330
29
100
AcDbEntity
  8
notes
390
1D
100
AcDbBlockBegin
  2
*D8
 70
     1
 10
0.0
 20
0.0
 30
0.0
  3
*D8
  1
*D8
  0
LINE
  5
A7
330
29
100
AcDbEntity
  8
0
  6
Continuous
 62
     0
370
    -2
390
1D
100
AcDbLine
 10
7327.356791155808
 20
-369.362971533785
 30
0.0
 11
7232.356791155808
 21
-369.362971533785
 31
0.0
  0
LINE
  5
A8
330
29
100
AcDbEntity
  8
0
  6
Continuous
 62
     0
370
    -2
390
1D
100
AcDbLine
 10
7327.356791155808
 20
-89.36297153378507
 30
0.0
 11
7232.356791155808
 21
-89.36297153378507
 31
0.0
  0
LINE
  5
A9
330
29
100
AcDbEntity
  8
0
  6
Continuous
 62
     0
370
    -2
390
1D
100
AcDbLine
 10
7232.356791155808
 20
-369.362971533785
 30
0.0
 11
7232.356791155808
 21
-89.36297153378507
 31
0.0
  0
CIRCLE
  5
AA
102
{ACAD_REACTORS
330
AB
102
}
330
29
100
AcDbEntity
  8
0
  6
Continuous
 62
     0
370
    -2
390
1D
100
AcDbCircle
 10
7232.356791155808
 20
-369.362971533785
 30
0.0
 40
4.99969482421875
  0
HATCH
  5
AB
330
29
100
AcDbEntity
  8
0
  6
Continuous
 62
     0
370
    -2
390
1D
100
AcDbHatch
 10
0.0
 20
0.0
 30
0.0
210
0.0
220
0.0
230
1.0
  2
SOLID
 70
     1
 71
     1
 91
        1
 92
        1
 93
        1
 72
     2
 10
7232.356791155808
 20
-369.362971533785
 40
4.99969482421875
 50
0.0
 51
360.0
 73
     0
 97
        1
330
AA
 75
     0
 76
     1
 98
        1
 10
0.0
 20
0.0
  0
CIRCLE
  5
AC
102
{ACAD_REACTORS
330
AD
102
}
330
29
100
AcDbEntity
  8
0
  6
Continuous
 62
     0
370
    -2
390
1D
100
AcDbCircle
 10
7232.356791155808
 20
-89.36297153378507
 30
0.0
 40
4.99969482421875
  0
HATCH
  5
AD
330
29
100
AcDbEntity
  8
0
  6
Continuous
 62
     0
370
    -2
390
1D
100
AcDbHatch
 10
0.0
 20
0.0
 30
0.0
210
0.0
220
0.0
230
1.0
  2
SOLID
 70
     1
 71
     1
 91
        1
 92
        1
 93
        1
 72
     2
 10
7232.356791155808
 20
-89.36297153378507
 40
4.99969482421875
 50
0.0
 51
360.0
 73
     0
 97
        1
330
AC
 75
     0
 76
     1
 98
        1
 10
0.0
 20
0.0
  0
MTEXT
  5
AE
330
29
100
AcDbEntity
  8
0
 62
     0
390
1D
100
AcDbMText
 10
7198.479173968309
 20
-253.1754732159606
 30
0.0
 40
24.4326171875
 41
0.0
 46
0.0
 71
     1
 72
     1
  1
280
  7
ＭＳ ゴシック
 11
0.0
 21
1.0
 31
0.0
 73
     1
 44
0.7828267384257843
  0
POINT
  5
AF
330
29
100
AcDbEntity
  8
Defpoints
 62
     0
370
     0
390
1D
100
AcDbPoint
 10
7352.356791155808
 20
-89.36297153378507
 30
0.0
  0
POINT
  5
B0
330
29
100
AcDbEntity
  8
Defpoints
 62
     0
370
     0
390
1D
100
AcDbPoint
 10
7352.356791155808
 20
-369.362971533785
 30
0.0
  0
POINT
  5
B1
330
29
100
AcDbEntity
  8
Defpoints
 62
     0
370
     0
390
1D
100
AcDbPoint
 10
7232.356791155808
 20
-369.362971533785
 30
0.0
  0
ENDBLK
  5
B2
330
29
100
AcDbEntity
  8
notes
390
1D
100
AcDbBlockEnd
  0
BLOCK
  5
B3
330
2A
100
AcDbEntity
  8
notes
390
1D
100
AcDbBlockBegin
  2
*D9
 70
     1
 10
0.0
 20
0.0
 30
0.0
  3
*D9
  1
*D9
  0
LINE
  5
B4
330
2A
100
AcDbEntity
  8
0
  6
Continuous
 62
     0
370
    -2
390
1D
100
AcDbLine
 10
7372.356791155808
 20
-574.362971533785
 30
0.0
 11
7372.356791155808
 21
-803.0
 31
0.0
  0
LINE
  5
B5
330
2A
100
AcDbEntity
  8
0
  6
Continuous
 62
     0
370
    -2
390
1D
100
AcDbLine
 10
7332.356791155808
 20
-750.1814857668925
 30
0.0
 11
7332.356791155808
 21
-803.0
 31
0.0
  0
LINE
  5
B6
330
2A
100
AcDbEntity
  8
0
  6
Continuous
 62
     0
370
    -2
390
1D
100
AcDbLine
 10
7372.356791155808
 20
-803.0
 30
0.0
 11
7332.356791155808
 21
-803.0
 31
0.0
  0
CIRCLE
  5
B7
102
{ACAD_REACTORS
330
B8
102
}
330
2A
100
AcDbEntity
  8
0
  6
Continuous
 62
     0
370
    -2
390
1D
100
AcDbCircle
 10
7372.356791155808
 20
-803.0
 30
0.0
 40
4.99969482421875
  0
HATCH
  5
B8
330
2A
100
AcDbEntity
  8
0
  6
Continuous
 62
     0
370
    -2
390
1D
100
AcDbHatch
 10
0.0
 20
0.0
 30
0.0
210
0.0
220
0.0
230
1.0
  2
SOLID
 70
     1
 71
     1
 91
        1
 92
        1
 93
        1
 72
     2
 10
7372.356791155808
 20
-803.0
 40
4.99969482421875
 50
0.0
 51
360.0
 73
     0
 97
        1
330
B7
 75
     0
 76
     1
 98
        1
 10
0.0
 20
0.0
  0
CIRCLE
  5
B9
102
{ACAD_REACTORS
330
BA
102
}
330
2A
100
AcDbEntity
  8
0
  6
Continuous
 62
     0
370
    -2
390
1D
100
AcDbCircle
 10
7332.356791155808
 20
-803.0
 30
0.0
 40
4.99969482421875
  0
HATCH
  5
BA
330
2A
100
AcDbEntity
  8
0
  6
Continuous
 62
     0
370
    -2
390
1D
100
AcDbHatch
 10
0.0
 20
0.0
 30
0.0
210
0.0
220
0.0
230
1.0
  2
SOLID
 70
     1
 71
     1
 91
        1
 92
        1
 93
        1
 72
     2
 10
7332.356791155808
 20
-803.0
 40
4.99969482421875
 50
0.0
 51
360.0
 73
     0
 97
        1
330
B9
 75
     0
 76
     1
 98
        1
 10
0.0
 20
0.0
  0
MTEXT
  5
BB
330
2A
100
AcDbEntity
  8
0
 62
     0
390
1D
100
AcDbMText
 10
7337.125
 20
-769.1223828125
 30
0.0
 40
24.4326171875
 41
0.0
 46
0.0
 71
     1
 72
     1
  1
40
  7
ＭＳ ゴシック
 73
     1
 44
0.7828267384257843
  0
POINT
  5
BC
330
2A
100
AcDbEntity
  8
Defpoints
 62
     0
370
     0
390
1D
100
AcDbPoint
 10
7332.356791155808
 20
-725.1814857668925
 30
0.0
  0
POINT
  5
BD
330
2A
100
AcDbEntity
  8
Defpoints
 62
     0
370
     0
390
1D
100
AcDbPoint
 10
7372.356791155808
 20
-549.362971533785
 30
0.0
  0
POINT
  5
BE
330
2A
100
AcDbEntity
  8
Defpoints
 62
     0
370
     0
390
1D
100
AcDbPoint
 10
7372.356791155808
 20
-803.0
 30
0.0
  0
ENDBLK
  5
BF
330
2A
100
AcDbEntity
  8
notes
390
1D
100
AcDbBlockEnd
  0
BLOCK
  5
C0
330
2B
100
AcDbEntity
  8
notes
390
1D
100
AcDbBlockBegin
  2
*D10
 70
     1
 10
0.0
 20
0.0
 30
0.0
  3
*D10
  1
*D10
  0
LINE
  5
C1
330
2B
100
AcDbEntity
  8
0
  6
Continuous
 62
     0
370
    -2
390
1D
100
AcDbLine
 10
7332.356794144208
 20
288.6305602690835
 30
0.0
 11
7332.356794144208
 21
370.2925428361194
 31
0.0
  0
LINE
  5
C2
330
2B
100
AcDbEntity
  8
0
  6
Continuous
 62
     0
370
    -2
390
1D
100
AcDbLine
 10
7492.356791155808
 20
-171.3515404371504
 30
0.0
 11
7492.356791155808
 21
370.2925428361194
 31
0.0
  0
LINE
  5
C3
330
2B
100
AcDbEntity
  8
0
  6
Continuous
 62
     0
370
    -2
390
1D
100
AcDbLine
 10
7332.356794144208
 20
370.2925428361194
 30
0.0
 11
7492.356791155808
 21
370.2925428361194
 31
0.0
  0
CIRCLE
  5
C4
102
{ACAD_REACTORS
330
C5
102
}
330
2B
100
AcDbEntity
  8
0
  6
Continuous
 62
     0
370
    -2
390
1D
100
AcDbCircle
 10
7332.356794144208
 20
370.2925428361194
 30
0.0
 40
4.99969482421875
  0
HATCH
  5
C5
330
2B
100
AcDbEntity
  8
0
  6
Continuous
 62
     0
370
    -2
390
1D
100
AcDbHatch
 10
0.0
 20
0.0
 30
0.0
210
0.0
220
0.0
230
1.0
  2
SOLID
 70
     1
 71
     1
 91
        1
 92
        1
 93
        1
 72
     2
 10
7332.356794144208
 20
370.2925428361194
 40
4.99969482421875
 50
0.0
 51
360.0
 73
     0
 97
        1
330
C4
 75
     0
 76
     1
 98
        1
 10
0.0
 20
0.0
  0
CIRCLE
  5
C6
102
{ACAD_REACTORS
330
C7
102
}
330
2B
100
AcDbEntity
  8
0
  6
Continuous
 62
     0
370
    -2
390
1D
100
AcDbCircle
 10
7492.356791155808
 20
370.2925428361194
 30
0.0
 40
4.99969482421875
  0
HATCH
  5
C7
330
2B
100
AcDbEntity
  8
0
  6
Continuous
 62
     0
370
    -2
390
1D
100
AcDbHatch
 10
0.0
 20
0.0
 30
0.0
210
0.0
220
0.0
230
1.0
  2
SOLID
 70
     1
 71
     1
 91
        1
 92
        1
 93
        1
 72
     2
 10
7492.356791155808
 20
370.2925428361194
 40
4.99969482421875
 50
0.0
 51
360.0
 73
     0
 97
        1
330
C6
 75
     0
 76
     1
 98
        1
 10
0.0
 20
0.0
  0
MTEXT
  5
C8
330
2B
100
AcDbEntity
  8
0
 62
     0
390
1D
100
AcDbMText
 10
7388.544290967833
 20
404.1701600236195
 30
0.0
 40
24.4326171875
 41
0.0
 46
0.0
 71
     1
 72
     1
  1
160
  7
ＭＳ ゴシック
 73
     1
 44
0.7828267384257843
  0
POINT
  5
C9
330
2B
100
AcDbEntity
  8
Defpoints
 62
     0
370
     0
390
1D
100
AcDbPoint
 10
7492.356791155808
 20
-196.3515404371504
 30
0.0
  0
POINT
  5
CA
330
2B
100
AcDbEntity
  8
Defpoints
 62
     0
370
     0
390
1D
100
AcDbPoint
 10
7332.356794144208
 20
263.6305602690835
 30
0.0
  0
POINT
  5
CB
330
2B
100
AcDbEntity
  8
Defpoints
 62
     0
370
     0
390
1D
100
AcDbPoint
 10
7332.356794144208
 20
370.2925428361194
 30
0.0
  0
ENDBLK
  5
CC
330
2B
100
AcDbEntity
  8
notes
390
1D
100
AcDbBlockEnd
  0
BLOCK
  5
CD
330
2C
100
AcDbEntity
  8
notes
390
1D
100
AcDbBlockBegin
  2
*D11
 70
     1
 10
0.0
 20
0.0
 30
0.0
  3
*D11
  1
*D11
  0
LINE
  5
CE
330
2C
100
AcDbEntity
  8
0
  6
Continuous
 62
     0
370
    -2
390
1D
100
AcDbLine
 10
7332.358684503099
 20
691.7703761938387
 30
0.0
 11
7332.358684503099
 21
609.6229819163625
 31
0.0
  0
LINE
  5
CF
330
2C
100
AcDbEntity
  8
0
  6
Continuous
 62
     0
370
    -2
390
1D
100
AcDbLine
 10
7462.356862726662
 20
694.7586845668361
 30
0.0
 11
7462.356862726662
 21
609.6229819163625
 31
0.0
  0
LINE
  5
D0
330
2C
100
AcDbEntity
  8
0
  6
Continuous
 62
     0
370
    -2
390
1D
100
AcDbLine
 10
7332.358684503099
 20
609.6229819163625
 30
0.0
 11
7462.356862726662
 21
609.6229819163625
 31
0.0
  0
CIRCLE
  5
D1
102
{ACAD_REACTORS
330
D2
102
}
330
2C
100
AcDbEntity
  8
0
  6
Continuous
 62
     0
370
    -2
390
1D
100
AcDbCircle
 10
7332.358684503099
 20
609.6229819163625
 30
0.0
 40
4.99969482421875
  0
HATCH
  5
D2
330
2C
100
AcDbEntity
  8
0
  6
Continuous
 62
     0
370
    -2
390
1D
100
AcDbHatch
 10
0.0
 20
0.0
 30
0.0
210
0.0
220
0.0
230
1.0
  2
SOLID
 70
     1
 71
     1
 91
        1
 92
        1
 93
        1
 72
     2
 10
7332.358684503099
 20
609.6229819163625
 40
4.99969482421875
 50
0.0
 51
360.0
 73
     0
 97
        1
330
D1
 75
     0
 76
     1
 98
        1
 10
0.0
 20
0.0
  0
CIRCLE
  5
D3
102
{ACAD_REACTORS
330
D4
102
}
330
2C
100
AcDbEntity
  8
0
  6
Continuous
 62
     0
370
    -2
390
1D
100
AcDbCircle
 10
7462.356862726662
 20
609.6229819163625
 30
0.0
 40
4.99969482421875
  0
HATCH
  5
D4
330
2C
100
AcDbEntity
  8
0
  6
Continuous
 62
     0
370
    -2
390
1D
100
AcDbHatch
 10
0.0
 20
0.0
 30
0.0
210
0.0
220
0.0
230
1.0
  2
SOLID
 70
     1
 71
     1
 91
        1
 92
        1
 93
        1
 72
     2
 10
7462.356862726662
 20
609.6229819163625
 40
4.99969482421875
 50
0.0
 51
360.0
 73
     0
 97
        1
330
D3
 75
     0
 76
     1
 98
        1
 10
0.0
 20
0.0
  0
MTEXT
  5
D5
330
2C
100
AcDbEntity
  8
0
 62
     0
390
1D
100
AcDbMText
 10
7373.545271932705
 20
643.5005991038624
 30
0.0
 40
24.4326171875
 41
0.0
 46
0.0
 71
     1
 72
     1
  1
130
  7
ＭＳ ゴシック
 73
     1
 44
0.7828267384257843
  0
POINT
  5
D6
330
2C
100
AcDbEntity
  8
Defpoints
 62
     0
370
     0
390
1D
100
AcDbPoint
 10
7462.356862726662
 20
719.7586845668361
 30
0.0
  0
POINT
  5
D7
330
2C
100
AcDbEntity
  8
Defpoints
 62
     0
370
     0
390
1D
100
AcDbPoint
 10
7332.358684503099
 20
716.7703761938387
 30
0.0
  0
POINT
  5
D8
330
2C
100
AcDbEntity
  8
Defpoints
 62
     0
370
     0
390
1D
100
AcDbPoint
 10
7332.358684503099
 20
609.6229819163625
 30
0.0
  0
ENDBLK
  5
D9
330
2C
100
AcDbEntity
  8
notes
390
1D
100
AcDbBlockEnd
  0
BLOCK
  5
DA
330
2D
100
AcDbEntity
  8
notes
390
1D
100
AcDbBlockBegin
  2
*D12
 70
     1
 10
0.0
 20
0.0
 30
0.0
  3
*D12
  1
*D12
  0
LINE
  5
DB
330
2D
100
AcDbEntity
  8
0
  6
Continuous
 62
     0
370
    -2
390
1D
100
AcDbLine
 10
7485.356882819174
 20
1179.421815067026
 30
0.0
 11
7592.356856667853
 21
1179.421815067026
 31
0.0
  0
LINE
  5
DC
330
2D
100
AcDbEntity
  8
0
  6
Continuous
 62
     0
370
    -2
390
1D
100
AcDbLine
 10
7517.356856405584
 20
964.4218150670263
 30
0.0
 11
7592.356856667853
 21
964.4218150670263
 31
0.0
  0
LINE
  5
DD
330
2D
100
AcDbEntity
  8
0
  6
Continuous
 62
     0
370
    -2
390
1D
100
AcDbLine
 10
7592.356856667853
 20
1179.421815067026
 30
0.0
 11
7592.356856667853
 21
964.4218150670263
 31
0.0
  0
CIRCLE
  5
DE
102
{ACAD_REACTORS
330
DF
102
}
330
2D
100
AcDbEntity
  8
0
  6
Continuous
 62
     0
370
    -2
390
1D
100
AcDbCircle
 10
7592.356856667853
 20
1179.421815067026
 30
0.0
 40
4.99969482421875
  0
HATCH
  5
DF
330
2D
100
AcDbEntity
  8
0
  6
Continuous
 62
     0
370
    -2
390
1D
100
AcDbHatch
 10
0.0
 20
0.0
 30
0.0
210
0.0
220
0.0
230
1.0
  2
SOLID
 70
     1
 71
     1
 91
        1
 92
        1
 93
        1
 72
     2
 10
7592.356856667853
 20
1179.421815067026
 40
4.99969482421875
 50
0.0
 51
360.0
 73
     0
 97
        1
330
DE
 75
     0
 76
     1
 98
        1
 10
0.0
 20
0.0
  0
CIRCLE
  5
E0
102
{ACAD_REACTORS
330
E1
102
}
330
2D
100
AcDbEntity
  8
0
  6
Continuous
 62
     0
370
    -2
390
1D
100
AcDbCircle
 10
7592.356856667853
 20
964.4218150670263
 30
0.0
 40
4.99969482421875
  0
HATCH
  5
E1
330
2D
100
AcDbEntity
  8
0
  6
Continuous
 62
     0
370
    -2
390
1D
100
AcDbHatch
 10
0.0
 20
0.0
 30
0.0
210
0.0
220
0.0
230
1.0
  2
SOLID
 70
     1
 71
     1
 91
        1
 92
        1
 93
        1
 72
     2
 10
7592.356856667853
 20
964.4218150670263
 40
4.99969482421875
 50
0.0
 51
360.0
 73
     0
 97
        1
330
E0
 75
     0
 76
     1
 98
        1
 10
0.0
 20
0.0
  0
MTEXT
  5
E2
330
2D
100
AcDbEntity
  8
0
 62
     0
390
1D
100
AcDbMText
 10
7558.479239480353
 20
1048.109313384851
 30
0.0
 40
24.4326171875
 41
0.0
 46
0.0
 71
     1
 72
     1
  1
215
  7
ＭＳ ゴシック
 11
0.0
 21
1.0
 31
0.0
 73
     1
 44
0.7828267384257843
  0
POINT
  5
E3
330
2D
100
AcDbEntity
  8
Defpoints
 62
     0
370
     0
390
1D
100
AcDbPoint
 10
7492.356856405584
 20
964.4218150670263
 30
0.0
  0
POINT
  5
E4
330
2D
100
AcDbEntity
  8
Defpoints
 62
     0
370
     0
390
1D
100
AcDbPoint
 10
7460.356882819174
 20
1179.421815067026
 30
0.0
  0
POINT
  5
E5
330
2D
100
AcDbEntity
  8
Defpoints
 62
     0
370
     0
390
1D
100
AcDbPoint
 10
7592.356856667853
 20
1179.421815067026
 30
0.0
  0
ENDBLK
  5
E6
330
2D
100
AcDbEntity
  8
notes
390
1D
100
AcDbBlockEnd
  0
BLOCK
  5
E7
330
2E
100
AcDbEntity
  8
notes
390
1D
100
AcDbBlockBegin
  2
*D13
 70
     1
 10
0.0
 20
0.0
 30
0.0
  3
*D13
  1
*D13
  0
LINE
  5
E8
330
2E
100
AcDbEntity
  8
0
  6
Continuous
 62
     0
370
    -2
390
1D
100
AcDbLine
 10
7307.356862858509
 20
1114.447517003381
 30
0.0
 11
7232.356860194873
 21
1114.447517003381
 31
0.0
  0
LINE
  5
E9
330
2E
100
AcDbEntity
  8
0
  6
Continuous
 62
     0
370
    -2
390
1D
100
AcDbLine
 10
7310.356865803537
 20
1179.447517003381
 30
0.0
 11
7232.356860194873
 21
1179.447517003381
 31
0.0
  0
LINE
  5
EA
330
2E
100
AcDbEntity
  8
0
  6
Continuous
 62
     0
370
    -2
390
1D
100
AcDbLine
 10
7232.356860194873
 20
1114.447517003381
 30
0.0
 11
7232.356860194873
 21
1179.447517003381
 31
0.0
  0
CIRCLE
  5
EB
102
{ACAD_REACTORS
330
EC
102
}
330
2E
100
AcDbEntity
  8
0
  6
Continuous
 62
     0
370
    -2
390
1D
100
AcDbCircle
 10
7232.356860194873
 20
1114.447517003381
 30
0.0
 40
4.99969482421875
  0
HATCH
  5
EC
330
2E
100
AcDbEntity
  8
0
  6
Continuous
 62
     0
370
    -2
390
1D
100
AcDbHatch
 10
0.0
 20
0.0
 30
0.0
210
0.0
220
0.0
230
1.0
  2
SOLID
 70
     1
 71
     1
 91
        1
 92
        1
 93
        1
 72
     2
 10
7232.356860194873
 20
1114.447517003381
 40
4.99969482421875
 50
0.0
 51
360.0
 73
     0
 97
        1
330
EB
 75
     0
 76
     1
 98
        1
 10
0.0
 20
0.0
  0
CIRCLE
  5
ED
102
{ACAD_REACTORS
330
EE
102
}
330
2E
100
AcDbEntity
  8
0
  6
Continuous
 62
     0
370
    -2
390
1D
100
AcDbCircle
 10
7232.356860194873
 20
1179.447517003381
 30
0.0
 40
4.99969482421875
  0
HATCH
  5
EE
330
2E
100
AcDbEntity
  8
0
  6
Continuous
 62
     0
370
    -2
390
1D
100
AcDbHatch
 10
0.0
 20
0.0
 30
0.0
210
0.0
220
0.0
230
1.0
  2
SOLID
 70
     1
 71
     1
 91
        1
 92
        1
 93
        1
 72
     2
 10
7232.356860194873
 20
1179.447517003381
 40
4.99969482421875
 50
0.0
 51
360.0
 73
     0
 97
        1
330
ED
 75
     0
 76
     1
 98
        1
 10
0.0
 20
0.0
  0
MTEXT
  5
EF
330
2E
100
AcDbEntity
  8
0
 62
     0
390
1D
100
AcDbMText
 10
7198.479243007373
 20
1131.072517003381
 30
0.0
 40
24.4326171875
 41
0.0
 46
0.0
 71
     1
 72
     1
  1
65
  7
ＭＳ ゴシック
 11
0.0
 21
1.0
 31
0.0
 73
     1
 44
0.7828267384257843
  0
POINT
  5
F0
330
2E
100
AcDbEntity
  8
Defpoints
 62
     0
370
     0
390
1D
100
AcDbPoint
 10
7335.356865803537
 20
1179.447517003381
 30
0.0
  0
POINT
  5
F1
330
2E
100
AcDbEntity
  8
Defpoints
 62
     0
370
     0
390
1D
100
AcDbPoint
 10
7332.356862858509
 20
1114.447517003381
 30
0.0
  0
POINT
  5
F2
330
2E
100
AcDbEntity
  8
Defpoints
 62
     0
370
     0
390
1D
100
AcDbPoint
 10
7232.356860194873
 20
1114.447517003381
 30
0.0
  0
ENDBLK
  5
F3
330
2E
100
AcDbEntity
  8
notes
390
1D
100
AcDbBlockEnd
  0
BLOCK
  5
F4
330
2F
100
AcDbEntity
  8
notes
390
1D
100
AcDbBlockBegin
  2
*D14
 70
     1
 10
0.0
 20
0.0
 30
0.0
  3
*D14
  1
*D14
  0
LINE
  5
F5
330
2F
100
AcDbEntity
  8
0
  6
Continuous
 62
     0
370
    -2
390
1D
100
AcDbLine
 10
7332.356856552315
 20
992.7786085285816
 30
0.0
 11
7332.356856552315
 21
973.0012063112897
 31
0.0
  0
LINE
  5
F6
330
2F
100
AcDbEntity
  8
0
  6
Continuous
 62
     0
370
    -2
390
1D
100
AcDbLine
 10
7442.356856552315
 20
992.7786085285816
 30
0.0
 11
7442.356856552315
 21
973.0012063112897
 31
0.0
  0
LINE
  5
F7
330
2F
100
AcDbEntity
  8
0
  6
Continuous
 62
     0
370
    -2
390
1D
100
AcDbLine
 10
7332.356856552315
 20
973.0012063112897
 30
0.0
 11
7178.640718327479
 21
973.0012063112897
 31
0.0
  0
LINE
  5
F8
330
2F
100
AcDbEntity
  8
0
  6
Continuous
 62
     0
370
    -2
390
1D
100
AcDbLine
 10
7332.356856552315
 20
973.0012063112897
 30
0.0
 11
7442.356856552315
 21
973.0012063112897
 31
0.0
  0
CIRCLE
  5
F9
102
{ACAD_REACTORS
330
FA
102
}
330
2F
100
AcDbEntity
  8
0
  6
Continuous
 62
     0
370
    -2
390
1D
100
AcDbCircle
 10
7332.356856552315
 20
973.0012063112897
 30
0.0
 40
4.99969482421875
  0
HATCH
  5
FA
330
2F
100
AcDbEntity
  8
0
  6
Continuous
 62
     0
370
    -2
390
1D
100
AcDbHatch
 10
0.0
 20
0.0
 30
0.0
210
0.0
220
0.0
230
1.0
  2
SOLID
 70
     1
 71
     1
 91
        1
 92
        1
 93
        1
 72
     2
 10
7332.356856552315
 20
973.0012063112897
 40
4.99969482421875
 50
0.0
 51
360.0
 73
     0
 97
        1
330
F9
 75
     0
 76
     1
 98
        1
 10
0.0
 20
0.0
  0
CIRCLE
  5
FB
102
{ACAD_REACTORS
330
FC
102
}
330
2F
100
AcDbEntity
  8
0
  6
Continuous
 62
     0
370
    -2
390
1D
100
AcDbCircle
 10
7442.356856552315
 20
973.0012063112897
 30
0.0
 40
4.99969482421875
  0
HATCH
  5
FC
330
2F
100
AcDbEntity
  8
0
  6
Continuous
 62
     0
370
    -2
390
1D
100
AcDbHatch
 10
0.0
 20
0.0
 30
0.0
210
0.0
220
0.0
230
1.0
  2
SOLID
 70
     1
 71
     1
 91
        1
 92
        1
 93
        1
 72
     2
 10
7442.356856552315
 20
973.0012063112897
 40
4.99969482421875
 50
0.0
 51
360.0
 73
     0
 97
        1
330
FB
 75
     0
 76
     1
 98
        1
 10
0.0
 20
0.0
  0
MTEXT
  5
FD
330
2F
100
AcDbEntity
  8
0
 62
     0
390
1D
100
AcDbMText
 10
7178.640718327479
 20
1006.87882349879
 30
0.0
 40
24.4326171875
 41
0.0
 46
0.0
 71
     1
 72
     1
  1
110(深さ)
  7
ＭＳ ゴシック
 73
     1
 44
0.7828267384257843
  0
POINT
  5
FE
330
2F
100
AcDbEntity
  8
Defpoints
 62
     0
370
     0
390
1D
100
AcDbPoint
 10
7442.356856552315
 20
967.7786085285816
 30
0.0
  0
POINT
  5
FF
330
2F
100
AcDbEntity
  8
Defpoints
 62
     0
370
     0
390
1D
100
AcDbPoint
 10
7332.356856552315
 20
967.7786085285816
 30
0.0
  0
POINT
  5
100
330
2F
100
AcDbEntity
  8
Defpoints
 62
     0
370
     0
390
1D
100
AcDbPoint
 10
7332.356856552315
 20
973.0012063112897
 30
0.0
  0
ENDBLK
  5
101
330
2F
100
AcDbEntity
  8
notes
390
1D
100
AcDbBlockEnd
  0
BLOCK
  5
102
330
30
100
AcDbEntity
  8
notes
390
1D
100
AcDbBlockBegin
  2
*D15
 70
     1
 10
0.0
 20
0.0
 30
0.0
  3
*D15
  1
*D15
  0
LINE
  5
103
330
30
100
AcDbEntity
  8
0
  6
Continuous
 62
     0
370
    -2
390
1D
100
AcDbLine
 10
6291.434593272254
 20
599.9928926292434
 30
0.0
 11
6360.262912932258
 21
599.9928926292434
 31
0.0
  0
LINE
  5
104
330
30
100
AcDbEntity
  8
0
  6
Continuous
 62
     0
370
    -2
390
1D
100
AcDbLine
 10
6291.434593272254
 20
1199.992892629243
 30
0.0
 11
6360.262912932258
 21
1199.992892629243
 31
0.0
  0
LINE
  5
105
330
30
100
AcDbEntity
  8
0
  6
Continuous
 62
     0
370
    -2
390
1D
100
AcDbLine
 10
6360.262912932258
 20
599.9928926292434
 30
0.0
 11
6360.262912932258
 21
1199.992892629243
 31
0.0
  0
CIRCLE
  5
106
102
{ACAD_REACTORS
330
107
102
}
330
30
100
AcDbEntity
  8
0
  6
Continuous
 62
     0
370
    -2
390
1D
100
AcDbCircle
 10
6360.262912932258
 20
599.9928926292434
 30
0.0
 40
4.99969482421875
  0
HATCH
  5
107
330
30
100
AcDbEntity
  8
0
  6
Continuous
 62
     0
370
    -2
390
1D
100
AcDbHatch
 10
0.0
 20
0.0
 30
0.0
210
0.0
220
0.0
230
1.0
  2
SOLID
 70
     1
 71
     1
 91
        1
 92
        1
 93
        1
 72
     2
 10
6360.262912932258
 20
599.9928926292434
 40
4.99969482421875
 50
0.0
 51
360.0
 73
     0
 97
        1
330
106
 75
     0
 76
     1
 98
        1
 10
0.0
 20
0.0
  0
CIRCLE
  5
108
102
{ACAD_REACTORS
330
109
102
}
330
30
100
AcDbEntity
  8
0
  6
Continuous
 62
     0
370
    -2
390
1D
100
AcDbCircle
 10
6360.262912932258
 20
1199.992892629243
 30
0.0
 40
4.99969482421875
  0
HATCH
  5
109
330
30
100
AcDbEntity
  8
0
  6
Continuous
 62
     0
370
    -2
390
1D
100
AcDbHatch
 10
0.0
 20
0.0
 30
0.0
210
0.0
220
0.0
230
1.0
  2
SOLID
 70
     1
 71
     1
 91
        1
 92
        1
 93
        1
 72
     2
 10
6360.262912932258
 20
1199.992892629243
 40
4.99969482421875
 50
0.0
 51
360.0
 73
     0
 97
        1
330
108
 75
     0
 76
     1
 98
        1
 10
0.0
 20
0.0
  0
MTEXT
  5
10A
330
30
100
AcDbEntity
  8
0
 62
     0
390
1D
100
AcDbMText
 10
6326.385295744758
 20
876.180390947068
 30
0.0
 40
24.4326171875
 41
0.0
 46
0.0
 71
     1
 72
     1
  1
600
  7
ＭＳ ゴシック
 11
0.0
 21
1.0
 31
0.0
 73
     1
 44
0.7828267384257843
  0
POINT
  5
10B
330
30
100
AcDbEntity
  8
Defpoints
 62
     0
370
     0
390
1D
100
AcDbPoint
 10
6266.434593272254
 20
1199.992892629243
 30
0.0
  0
POINT
  5
10C
330
30
100
AcDbEntity
  8
Defpoints
 62
     0
370
     0
390
1D
100
AcDbPoint
 10
6266.434593272254
 20
599.9928926292434
 30
0.0
  0
POINT
  5
10D
330
30
100
AcDbEntity
  8
Defpoints
 62
     0
370
     0
390
1D
100
AcDbPoint
 10
6360.262912932258
 20
599.9928926292434
 30
0.0
  0
ENDBLK
  5
10E
330
30
100
AcDbEntity
  8
notes
390
1D
100
AcDbBlockEnd
  0
BLOCK
  5
10F
330
31
100
AcDbEntity
  8
notes
390
1D
100
AcDbBlockBegin
  2
*D16
 70
     1
 10
0.0
 20
0.0
 30
0.0
  3
*D16
  1
*D16
  0
LINE
  5
110
330
31
100
AcDbEntity
  8
0
  6
Continuous
 62
     0
370
    -2
390
1D
100
AcDbLine
 10
6266.434593272254
 20
1224.992892629243
 30
0.0
 11
6266.434593272254
 21
1254.0
 31
0.0
  0
LINE
  5
111
330
31
100
AcDbEntity
  8
0
  6
Continuous
 62
     0
370
    -2
390
1D
100
AcDbLine
 10
6016.434593272254
 20
1224.992892629243
 30
0.0
 11
6016.434593272254
 21
1254.0
 31
0.0
  0
LINE
  5
112
330
31
100
AcDbEntity
  8
0
  6
Continuous
 62
     0
370
    -2
390
1D
100
AcDbLine
 10
6266.434593272254
 20
1254.0
 30
0.0
 11
6016.434593272254
 21
1254.0
 31
0.0
  0
CIRCLE
  5
113
102
{ACAD_REACTORS
330
114
102
}
330
31
100
AcDbEntity
  8
0
  6
Continuous
 62
     0
370
    -2
390
1D
100
AcDbCircle
 10
6266.434593272254
 20
1254.0
 30
0.0
 40
4.99969482421875
  0
HATCH
  5
114
330
31
100
AcDbEntity
  8
0
  6
Continuous
 62
     0
370
    -2
390
1D
100
AcDbHatch
 10
0.0
 20
0.0
 30
0.0
210
0.0
220
0.0
230
1.0
  2
SOLID
 70
     1
 71
     1
 91
        1
 92
        1
 93
        1
 72
     2
 10
6266.434593272254
 20
1254.0
 40
4.99969482421875
 50
0.0
 51
360.0
 73
     0
 97
        1
330
113
 75
     0
 76
     1
 98
        1
 10
0.0
 20
0.0
  0
CIRCLE
  5
115
102
{ACAD_REACTORS
330
116
102
}
330
31
100
AcDbEntity
  8
0
  6
Continuous
 62
     0
370
    -2
390
1D
100
AcDbCircle
 10
6016.434593272254
 20
1254.0
 30
0.0
 40
4.99969482421875
  0
HATCH
  5
116
330
31
100
AcDbEntity
  8
0
  6
Continuous
 62
     0
370
    -2
390
1D
100
AcDbHatch
 10
0.0
 20
0.0
 30
0.0
210
0.0
220
0.0
230
1.0
  2
SOLID
 70
     1
 71
     1
 91
        1
 92
        1
 93
        1
 72
     2
 10
6016.434593272254
 20
1254.0
 40
4.99969482421875
 50
0.0
 51
360.0
 73
     0
 97
        1
330
115
 75
     0
 76
     1
 98
        1
 10
0.0
 20
0.0
  0
MTEXT
  5
117
330
31
100
AcDbEntity
  8
0
 62
     0
390
1D
100
AcDbMText
 10
6117.622091590079
 20
1287.8776171875
 30
0.0
 40
24.4326171875
 41
0.0
 46
0.0
 71
     1
 72
     1
  1
250
  7
ＭＳ ゴシック
 73
     1
 44
0.7828267384257843
  0
POINT
  5
118
330
31
100
AcDbEntity
  8
Defpoints
 62
     0
370
     0
390
1D
100
AcDbPoint
 10
6016.434593272254
 20
1199.992892629243
 30
0.0
  0
POINT
  5
119
330
31
100
AcDbEntity
  8
Defpoints
 62
     0
370
     0
390
1D
100
AcDbPoint
 10
6266.434593272254
 20
1199.992892629243
 30
0.0
  0
POINT
  5
11A
330
31
100
AcDbEntity
  8
Defpoints
 62
     0
370
     0
390
1D
100
AcDbPoint
 10
6266.434593272254
 20
1254.0
 30
0.0
  0
ENDBLK
  5
11B
330
31
100
AcDbEntity
  8
notes
390
1D
100
AcDbBlockEnd
  0
BLOCK
  5
11C
330
32
100
AcDbEntity
  8
notes
390
1D
100
AcDbBlockBegin
  2
*D17
 70
     1
 10
0.0
 20
0.0
 30
0.0
  3
*D17
  1
*D17
  0
LINE
  5
11D
330
32
100
AcDbEntity
  8
0
  6
Continuous
 62
     0
370
    -2
390
1D
100
AcDbLine
 10
6016.434593272254
 20
1074.992892629243
 30
0.0
 11
6016.434593272254
 21
1254.0
 31
0.0
  0
LINE
  5
11E
330
32
100
AcDbEntity
  8
0
  6
Continuous
 62
     0
370
    -2
390
1D
100
AcDbLine
 10
5986.434593272254
 20
1078.992892629238
 30
0.0
 11
5986.434593272254
 21
1254.0
 31
0.0
  0
LINE
  5
11F
330
32
100
AcDbEntity
  8
0
  6
Continuous
 62
     0
370
    -2
390
1D
100
AcDbLine
 10
6016.434593272254
 20
1254.0
 30
0.0
 11
5986.434593272254
 21
1254.0
 31
0.0
  0
CIRCLE
  5
120
102
{ACAD_REACTORS
330
121
102
}
330
32
100
AcDbEntity
  8
0
  6
Continuous
 62
     0
370
    -2
390
1D
100
AcDbCircle
 10
6016.434593272254
 20
1254.0
 30
0.0
 40
4.99969482421875
  0
HATCH
  5
121
330
32
100
AcDbEntity
  8
0
  6
Continuous
 62
     0
370
    -2
390
1D
100
AcDbHatch
 10
0.0
 20
0.0
 30
0.0
210
0.0
220
0.0
230
1.0
  2
SOLID
 70
     1
 71
     1
 91
        1
 92
        1
 93
        1
 72
     2
 10
6016.434593272254
 20
1254.0
 40
4.99969482421875
 50
0.0
 51
360.0
 73
     0
 97
        1
330
120
 75
     0
 76
     1
 98
        1
 10
0.0
 20
0.0
  0
CIRCLE
  5
122
102
{ACAD_REACTORS
330
123
102
}
330
32
100
AcDbEntity
  8
0
  6
Continuous
 62
     0
370
    -2
390
1D
100
AcDbCircle
 10
5986.434593272254
 20
1254.0
 30
0.0
 40
4.99969482421875
  0
HATCH
  5
123
330
32
100
AcDbEntity
  8
0
  6
Continuous
 62
     0
370
    -2
390
1D
100
AcDbHatch
 10
0.0
 20
0.0
 30
0.0
210
0.0
220
0.0
230
1.0
  2
SOLID
 70
     1
 71
     1
 91
        1
 92
        1
 93
        1
 72
     2
 10
5986.434593272254
 20
1254.0
 40
4.99969482421875
 50
0.0
 51
360.0
 73
     0
 97
        1
330
122
 75
     0
 76
     1
 98
        1
 10
0.0
 20
0.0
  0
MTEXT
  5
124
330
32
100
AcDbEntity
  8
0
 62
     0
390
1D
100
AcDbMText
 10
5985.559593272254
 20
1287.8776171875
 30
0.0
 40
24.4326171875
 41
0.0
 46
0.0
 71
     1
 72
     1
  1
30
  7
ＭＳ ゴシック
 73
     1
 44
0.7828267384257843
  0
POINT
  5
125
330
32
100
AcDbEntity
  8
Defpoints
 62
     0
370
     0
390
1D
100
AcDbPoint
 10
5986.434593272254
 20
1053.992892629238
 30
0.0
  0
POINT
  5
126
330
32
100
AcDbEntity
  8
Defpoints
 62
     0
370
     0
390
1D
100
AcDbPoint
 10
6016.434593272254
 20
1049.992892629243
 30
0.0
  0
POINT
  5
127
330
32
100
AcDbEntity
  8
Defpoints
 62
     0
370
     0
390
1D
100
AcDbPoint
 10
6016.434593272254
 20
1254.0
 30
0.0
  0
ENDBLK
  5
128
330
32
100
AcDbEntity
  8
notes
390
1D
100
AcDbBlockEnd
  0
BLOCK
  5
129
330
33
100
AcDbEntity
  8
notes
390
1D
100
AcDbBlockBegin
  2
*D18
 70
     1
 10
0.0
 20
0.0
 30
0.0
  3
*D18
  1
*D18
  0
LINE
  5
12A
330
33
100
AcDbEntity
  8
0
  6
Continuous
 62
     0
370
    -2
390
1D
100
AcDbLine
 10
7327.356791155808
 20
-369.362971533785
 30
0.0
 11
7232.356791155808
 21
-369.362971533785
 31
0.0
  0
LINE
  5
12B
330
33
100
AcDbEntity
  8
0
  6
Continuous
 62
     0
370
    -2
390
1D
100
AcDbLine
 10
7327.356791155808
 20
-529.362971533785
 30
0.0
 11
7232.356791155808
 21
-529.362971533785
 31
0.0
  0
LINE
  5
12C
330
33
100
AcDbEntity
  8
0
  6
Continuous
 62
     0
370
    -2
390
1D
100
AcDbLine
 10
7232.356791155808
 20
-369.362971533785
 30
0.0
 11
7232.356791155808
 21
-529.362971533785
 31
0.0
  0
CIRCLE
  5
12D
102
{ACAD_REACTORS
330
12E
102
}
330
33
100
AcDbEntity
  8
0
  6
Continuous
 62
     0
370
    -2
390
1D
100
AcDbCircle
 10
7232.356791155808
 20
-369.362971533785
 30
0.0
 40
4.99969482421875
  0
HATCH
  5
12E
330
33
100
AcDbEntity
  8
0
  6
Continuous
 62
     0
370
    -2
390
1D
100
AcDbHatch
 10
0.0
 20
0.0
 30
0.0
210
0.0
220
0.0
230
1.0
  2
SOLID
 70
     1
 71
     1
 91
        1
 92
        1
 93
        1
 72
     2
 10
7232.356791155808
 20
-369.362971533785
 40
4.99969482421875
 50
0.0
 51
360.0
 73
     0
 97
        1
330
12D
 75
     0
 76
     1
 98
        1
 10
0.0
 20
0.0
  0
CIRCLE
  5
12F
102
{ACAD_REACTORS
330
130
102
}
330
33
100
AcDbEntity
  8
0
  6
Continuous
 62
     0
370
    -2
390
1D
100
AcDbCircle
 10
7232.356791155808
 20
-529.362971533785
 30
0.0
 40
4.99969482421875
  0
HATCH
  5
130
330
33
100
AcDbEntity
  8
0
  6
Continuous
 62
     0
370
    -2
390
1D
100
AcDbHatch
 10
0.0
 20
0.0
 30
0.0
210
0.0
220
0.0
230
1.0
  2
SOLID
 70
     1
 71
     1
 91
        1
 92
        1
 93
        1
 72
     2
 10
7232.356791155808
 20
-529.362971533785
 40
4.99969482421875
 50
0.0
 51
360.0
 73
     0
 97
        1
330
12F
 75
     0
 76
     1
 98
        1
 10
0.0
 20
0.0
  0
MTEXT
  5
131
330
33
100
AcDbEntity
  8
0
 62
     0
390
1D
100
AcDbMText
 10
7198.479173968309
 20
-473.1754732159604
 30
0.0
 40
24.4326171875
 41
0.0
 46
0.0
 71
     1
 72
     1
  1
160
  7
ＭＳ ゴシック
 11
0.0
 21
1.0
 31
0.0
 73
     1
 44
0.7828267384257843
  0
POINT
  5
132
330
33
100
AcDbEntity
  8
Defpoints
 62
     0
370
     0
390
1D
100
AcDbPoint
 10
7352.356791155808
 20
-529.362971533785
 30
0.0
  0
POINT
  5
133
330
33
100
AcDbEntity
  8
Defpoints
 62
     0
370
     0
390
1D
100
AcDbPoint
 10
7352.356791155808
 20
-369.362971533785
 30
0.0
  0
POINT
  5
134
330
33
100
AcDbEntity
  8
Defpoints
 62
     0
370
     0
390
1D
100
AcDbPoint
 10
7232.356791155808
 20
-369.362971533785
 30
0.0
  0
ENDBLK
  5
135
330
33
100
AcDbEntity
  8
notes
390
1D
100
AcDbBlockEnd
  0
BLOCK
  5
136
330
34
100
AcDbEntity
  8
notes
390
1D
100
AcDbBlockBegin
  2
*D19
 70
     1
 10
0.0
 20
0.0
 30
0.0
  3
*D19
  1
*D19
  0
LINE
  5
137
330
34
100
AcDbEntity
  8
0
  6
Continuous
 62
     0
370
    -2
390
1D
100
AcDbLine
 10
7327.356791155808
 20
-89.36297153378507
 30
0.0
 11
7232.356791155808
 21
-89.36297153378507
 31
0.0
  0
LINE
  5
138
330
34
100
AcDbEntity
  8
0
  6
Continuous
 62
     0
370
    -2
390
1D
100
AcDbLine
 10
7327.356791155808
 20
70.63702846621493
 30
0.0
 11
7232.356791155808
 21
70.63702846621493
 31
0.0
  0
LINE
  5
139
330
34
100
AcDbEntity
  8
0
  6
Continuous
 62
     0
370
    -2
390
1D
100
AcDbLine
 10
7232.356791155808
 20
-89.36297153378507
 30
0.0
 11
7232.356791155808
 21
70.63702846621493
 31
0.0
  0
CIRCLE
  5
13A
102
{ACAD_REACTORS
330
13B
102
}
330
34
100
AcDbEntity
  8
0
  6
Continuous
 62
     0
370
    -2
390
1D
100
AcDbCircle
 10
7232.356791155808
 20
-89.36297153378507
 30
0.0
 40
4.99969482421875
  0
HATCH
  5
13B
330
34
100
AcDbEntity
  8
0
  6
Continuous
 62
     0
370
    -2
390
1D
100
AcDbHatch
 10
0.0
 20
0.0
 30
0.0
210
0.0
220
0.0
230
1.0
  2
SOLID
 70
     1
 71
     1
 91
        1
 92
        1
 93
        1
 72
     2
 10
7232.356791155808
 20
-89.36297153378507
 40
4.99969482421875
 50
0.0
 51
360.0
 73
     0
 97
        1
330
13A
 75
     0
 76
     1
 98
        1
 10
0.0
 20
0.0
  0
CIRCLE
  5
13C
102
{ACAD_REACTORS
330
13D
102
}
330
34
100
AcDbEntity
  8
0
  6
Continuous
 62
     0
370
    -2
390
1D
100
AcDbCircle
 10
7232.356791155808
 20
70.63702846621493
 30
0.0
 40
4.99969482421875
  0
HATCH
  5
13D
330
34
100
AcDbEntity
  8
0
  6
Continuous
 62
     0
370
    -2
390
1D
100
AcDbHatch
 10
0.0
 20
0.0
 30
0.0
210
0.0
220
0.0
230
1.0
  2
SOLID
 70
     1
 71
     1
 91
        1
 92
        1
 93
        1
 72
     2
 10
7232.356791155808
 20
70.63702846621493
 40
4.99969482421875
 50
0.0
 51
360.0
 73
     0
 97
        1
330
13C
 75
     0
 76
     1
 98
        1
 10
0.0
 20
0.0
  0
MTEXT
  5
13E
330
34
100
AcDbEntity
  8
0
 62
     0
390
1D
100
AcDbMText
 10
7198.479173968309
 20
-33.17547321596061
 30
0.0
 40
24.4326171875
 41
0.0
 46
0.0
 71
     1
 72
     1
  1
160
  7
ＭＳ ゴシック
 11
0.0
 21
1.0
 31
0.0
 73
     1
 44
0.7828267384257843
  0
POINT
  5
13F
330
34
100
AcDbEntity
  8
Defpoints
 62
     0
370
     0
390
1D
100
AcDbPoint
 10
7352.356791155808
 20
70.63702846621493
 30
0.0
  0
POINT
  5
140
330
34
100
AcDbEntity
  8
Defpoints
 62
     0
370
     0
390
1D
100
AcDbPoint
 10
7352.356791155808
 20
-89.36297153378507
 30
0.0
  0
POINT
  5
141
330
34
100
AcDbEntity
  8
Defpoints
 62
     0
370
     0
390
1D
100
AcDbPoint
 10
7232.356791155808
 20
-89.36297153378507
 30
0.0
  0
ENDBLK
  5
142
330
34
100
AcDbEntity
  8
notes
390
1D
100
AcDbBlockEnd
  0
BLOCK
  5
143
330
35
100
AcDbEntity
  8
notes
390
1D
100
AcDbBlockBegin
  2
*D20
 70
     1
 10
0.0
 20
0.0
 30
0.0
  3
*D20
  1
*D20
  0
LINE
  5
144
330
35
100
AcDbEntity
  8
0
  6
Continuous
 62
     0
370
    -2
390
1D
100
AcDbLine
 10
6012.80890773958
 20
-129.3629715339329
 30
0.0
 11
5940.0
 21
-129.3629715339329
 31
0.0
  0
LINE
  5
145
330
35
100
AcDbEntity
  8
0
  6
Continuous
 62
     0
370
    -2
390
1D
100
AcDbLine
 10
6011.308907739571
 20
-229.3629715339292
 30
0.0
 11
5940.0
 21
-229.3629715339292
 31
0.0
  0
LINE
  5
146
330
35
100
AcDbEntity
  8
0
  6
Continuous
 62
     0
370
    -2
390
1D
100
AcDbLine
 10
5940.0
 20
-129.3629715339329
 30
0.0
 11
5940.0
 21
-229.3629715339292
 31
0.0
  0
CIRCLE
  5
147
102
{ACAD_REACTORS
330
148
102
}
330
35
100
AcDbEntity
  8
0
  6
Continuous
 62
     0
370
    -2
390
1D
100
AcDbCircle
 10
5940.0
 20
-129.3629715339329
 30
0.0
 40
4.99969482421875
  0
HATCH
  5
148
330
35
100
AcDbEntity
  8
0
  6
Continuous
 62
     0
370
    -2
390
1D
100
AcDbHatch
 10
0.0
 20
0.0
 30
0.0
210
0.0
220
0.0
230
1.0
  2
SOLID
 70
     1
 71
     1
 91
        1
 92
        1
 93
        1
 72
     2
 10
5940.0
 20
-129.3629715339329
 40
4.99969482421875
 50
0.0
 51
360.0
 73
     0
 97
        1
330
147
 75
     0
 76
     1
 98
        1
 10
0.0
 20
0.0
  0
CIRCLE
  5
149
102
{ACAD_REACTORS
330
14A
102
}
330
35
100
AcDbEntity
  8
0
  6
Continuous
 62
     0
370
    -2
390
1D
100
AcDbCircle
 10
5940.0
 20
-229.3629715339292
 30
0.0
 40
4.99969482421875
  0
HATCH
  5
14A
330
35
100
AcDbEntity
  8
0
  6
Continuous
 62
     0
370
    -2
390
1D
100
AcDbHatch
 10
0.0
 20
0.0
 30
0.0
210
0.0
220
0.0
230
1.0
  2
SOLID
 70
     1
 71
     1
 91
        1
 92
        1
 93
        1
 72
     2
 10
5940.0
 20
-229.3629715339292
 40
4.99969482421875
 50
0.0
 51
360.0
 73
     0
 97
        1
330
149
 75
     0
 76
     1
 98
        1
 10
0.0
 20
0.0
  0
MTEXT
  5
14B
330
35
100
AcDbEntity
  8
0
 62
     0
390
1D
100
AcDbMText
 10
5906.1223828125
 20
-203.1754732161066
 30
0.0
 40
24.4326171875
 41
0.0
 46
0.0
 71
     1
 72
     1
  1
100
  7
ＭＳ ゴシック
 11
0.0
 21
1.0
 31
0.0
 73
     1
 44
0.7828267384257843
  0
POINT
  5
14C
330
35
100
AcDbEntity
  8
Defpoints
 62
     0
370
     0
390
1D
100
AcDbPoint
 10
6036.308907739571
 20
-229.3629715339292
 30
0.0
  0
POINT
  5
14D
330
35
100
AcDbEntity
  8
Defpoints
 62
     0
370
     0
390
1D
100
AcDbPoint
 10
6037.80890773958
 20
-129.3629715339329
 30
0.0
  0
POINT
  5
14E
330
35
100
AcDbEntity
  8
Defpoints
 62
     0
370
     0
390
1D
100
AcDbPoint
 10
5940.0
 20
-129.3629715339329
 30
0.0
  0
ENDBLK
  5
14F
330
35
100
AcDbEntity
  8
notes
390
1D
100
AcDbBlockEnd
  0
BLOCK
  5
150
330
36
100
AcDbEntity
  8
notes
390
1D
100
AcDbBlockBegin
  2
*D21
 70
     1
 10
0.0
 20
0.0
 30
0.0
  3
*D21
  1
*D21
  0
LINE
  5
151
330
36
100
AcDbEntity
  8
0
  6
Continuous
 62
     0
370
    -2
390
1D
100
AcDbLine
 10
6011.308907739571
 20
-229.3629715339292
 30
0.0
 11
5940.0
 21
-229.3629715339292
 31
0.0
  0
LINE
  5
152
330
36
100
AcDbEntity
  8
0
  6
Continuous
 62
     0
370
    -2
390
1D
100
AcDbLine
 10
6012.808907739571
 20
-329.3629715339292
 30
0.0
 11
5940.0
 21
-329.3629715339292
 31
0.0
  0
LINE
  5
153
330
36
100
AcDbEntity
  8
0
  6
Continuous
 62
     0
370
    -2
390
1D
100
AcDbLine
 10
5940.0
 20
-229.3629715339292
 30
0.0
 11
5940.0
 21
-329.3629715339292
 31
0.0
  0
CIRCLE
  5
154
102
{ACAD_REACTORS
330
155
102
}
330
36
100
AcDbEntity
  8
0
  6
Continuous
 62
     0
370
    -2
390
1D
100
AcDbCircle
 10
5940.0
 20
-229.3629715339292
 30
0.0
 40
4.99969482421875
  0
HATCH
  5
155
330
36
100
AcDbEntity
  8
0
  6
Continuous
 62
     0
370
    -2
390
1D
100
AcDbHatch
 10
0.0
 20
0.0
 30
0.0
210
0.0
220
0.0
230
1.0
  2
SOLID
 70
     1
 71
     1
 91
        1
 92
        1
 93
        1
 72
     2
 10
5940.0
 20
-229.3629715339292
 40
4.99969482421875
 50
0.0
 51
360.0
 73
     0
 97
        1
330
154
 75
     0
 76
     1
 98
        1
 10
0.0
 20
0.0
  0
CIRCLE
  5
156
102
{ACAD_REACTORS
330
157
102
}
330
36
100
AcDbEntity
  8
0
  6
Continuous
 62
     0
370
    -2
390
1D
100
AcDbCircle
 10
5940.0
 20
-329.3629715339292
 30
0.0
 40
4.99969482421875
  0
HATCH
  5
157
330
36
100
AcDbEntity
  8
0
  6
Continuous
 62
     0
370
    -2
390
1D
100
AcDbHatch
 10
0.0
 20
0.0
 30
0.0
210
0.0
220
0.0
230
1.0
  2
SOLID
 70
     1
 71
     1
 91
        1
 92
        1
 93
        1
 72
     2
 10
5940.0
 20
-329.3629715339292
 40
4.99969482421875
 50
0.0
 51
360.0
 73
     0
 97
        1
330
156
 75
     0
 76
     1
 98
        1
 10
0.0
 20
0.0
  0
MTEXT
  5
158
330
36
100
AcDbEntity
  8
0
 62
     0
390
1D
100
AcDbMText
 10
5906.1223828125
 20
-303.1754732161048
 30
0.0
 40
24.4326171875
 41
0.0
 46
0.0
 71
     1
 72
     1
  1
100
  7
ＭＳ ゴシック
 11
0.0
 21
1.0
 31
0.0
 73
     1
 44
0.7828267384257843
  0
POINT
  5
159
330
36
100
AcDbEntity
  8
Defpoints
 62
     0
370
     0
390
1D
100
AcDbPoint
 10
6037.808907739571
 20
-329.3629715339292
 30
0.0
  0
POINT
  5
15A
330
36
100
AcDbEntity
  8
Defpoints
 62
     0
370
     0
390
1D
100
AcDbPoint
 10
6036.308907739571
 20
-229.3629715339292
 30
0.0
  0
POINT
  5
15B
330
36
100
AcDbEntity
  8
Defpoints
 62
     0
370
     0
390
1D
100
AcDbPoint
 10
5940.0
 20
-229.3629715339292
 30
0.0
  0
ENDBLK
  5
15C
330
36
100
AcDbEntity
  8
notes
390
1D
100
AcDbBlockEnd
  0
BLOCK
  5
15D
330
37
100
AcDbEntity
  8
notes
390
1D
100
AcDbBlockBegin
  2
*D22
 70
     1
 10
0.0
 20
0.0
 30
0.0
  3
*D22
  1
*D22
  0
LINE
  5
15E
330
37
100
AcDbEntity
  8
0
  6
Continuous
 62
     0
370
    -2
390
1D
100
AcDbLine
 10
6012.80890773958
 20
-129.3629715339329
 30
0.0
 11
5940.0
 21
-129.3629715339329
 31
0.0
  0
LINE
  5
15F
330
37
100
AcDbEntity
  8
0
  6
Continuous
 62
     0
370
    -2
390
1D
100
AcDbLine
 10
6012.80890773958
 20
25.63702846606714
 30
0.0
 11
5940.0
 21
25.63702846606714
 31
0.0
  0
LINE
  5
160
330
37
100
AcDbEntity
  8
0
  6
Continuous
 62
     0
370
    -2
390
1D
100
AcDbLine
 10
5940.0
 20
-129.3629715339329
 30
0.0
 11
5940.0
 21
25.63702846606714
 31
0.0
  0
CIRCLE
  5
161
102
{ACAD_REACTORS
330
162
102
}
330
37
100
AcDbEntity
  8
0
  6
Continuous
 62
     0
370
    -2
390
1D
100
AcDbCircle
 10
5940.0
 20
-129.3629715339329
 30
0.0
 40
4.99969482421875
  0
HATCH
  5
162
330
37
100
AcDbEntity
  8
0
  6
Continuous
 62
     0
370
    -2
390
1D
100
AcDbHatch
 10
0.0
 20
0.0
 30
0.0
210
0.0
220
0.0
230
1.0
  2
SOLID
 70
     1
 71
     1
 91
        1
 92
        1
 93
        1
 72
     2
 10
5940.0
 20
-129.3629715339329
 40
4.99969482421875
 50
0.0
 51
360.0
 73
     0
 97
        1
330
161
 75
     0
 76
     1
 98
        1
 10
0.0
 20
0.0
  0
CIRCLE
  5
163
102
{ACAD_REACTORS
330
164
102
}
330
37
100
AcDbEntity
  8
0
  6
Continuous
 62
     0
370
    -2
390
1D
100
AcDbCircle
 10
5940.0
 20
25.63702846606714
 30
0.0
 40
4.99969482421875
  0
HATCH
  5
164
330
37
100
AcDbEntity
  8
0
  6
Continuous
 62
     0
370
    -2
390
1D
100
AcDbHatch
 10
0.0
 20
0.0
 30
0.0
210
0.0
220
0.0
230
1.0
  2
SOLID
 70
     1
 71
     1
 91
        1
 92
        1
 93
        1
 72
     2
 10
5940.0
 20
25.63702846606714
 40
4.99969482421875
 50
0.0
 51
360.0
 73
     0
 97
        1
330
163
 75
     0
 76
     1
 98
        1
 10
0.0
 20
0.0
  0
MTEXT
  5
165
330
37
100
AcDbEntity
  8
0
 62
     0
390
1D
100
AcDbMText
 10
5906.1223828125
 20
-75.6754732161084
 30
0.0
 40
24.4326171875
 41
0.0
 46
0.0
 71
     1
 72
     1
  1
155
  7
ＭＳ ゴシック
 11
0.0
 21
1.0
 31
0.0
 73
     1
 44
0.7828267384257843
  0
POINT
  5
166
330
37
100
AcDbEntity
  8
Defpoints
 62
     0
370
     0
390
1D
100
AcDbPoint
 10
6037.80890773958
 20
25.63702846606714
 30
0.0
  0
POINT
  5
167
330
37
100
AcDbEntity
  8
Defpoints
 62
     0
370
     0
390
1D
100
AcDbPoint
 10
6037.80890773958
 20
-129.3629715339329
 30
0.0
  0
POINT
  5
168
330
37
100
AcDbEntity
  8
Defpoints
 62
     0
370
     0
390
1D
100
AcDbPoint
 10
5940.0
 20
-129.3629715339329
 30
0.0
  0
ENDBLK
  5
169
330
37
100
AcDbEntity
  8
notes
390
1D
100
AcDbBlockEnd
  0
BLOCK
  5
16A
330
38
100
AcDbEntity
  8
notes
390
1D
100
AcDbBlockBegin
  2
*D23
 70
     1
 10
0.0
 20
0.0
 30
0.0
  3
*D23
  1
*D23
  0
LINE
  5
16B
330
38
100
AcDbEntity
  8
0
  6
Continuous
 62
     0
370
    -2
390
1D
100
AcDbLine
 10
6012.808907739571
 20
-329.3629715339292
 30
0.0
 11
5940.0
 21
-329.3629715339292
 31
0.0
  0
LINE
  5
16C
330
38
100
AcDbEntity
  8
0
  6
Continuous
 62
     0
370
    -2
390
1D
100
AcDbLine
 10
6012.808907739571
 20
-484.3629715339292
 30
0.0
 11
5940.0
 21
-484.3629715339292
 31
0.0
  0
LINE
  5
16D
330
38
100
AcDbEntity
  8
0
  6
Continuous
 62
     0
370
    -2
390
1D
100
AcDbLine
 10
5940.0
 20
-329.3629715339292
 30
0.0
 11
5940.0
 21
-484.3629715339292
 31
0.0
  0
CIRCLE
  5
16E
102
{ACAD_REACTORS
330
16F
102
}
330
38
100
AcDbEntity
  8
0
  6
Continuous
 62
     0
370
    -2
390
1D
100
AcDbCircle
 10
5940.0
 20
-329.3629715339292
 30
0.0
 40
4.99969482421875
  0
HATCH
  5
16F
330
38
100
AcDbEntity
  8
0
  6
Continuous
 62
     0
370
    -2
390
1D
100
AcDbHatch
 10
0.0
 20
0.0
 30
0.0
210
0.0
220
0.0
230
1.0
  2
SOLID
 70
     1
 71
     1
 91
        1
 92
        1
 93
        1
 72
     2
 10
5940.0
 20
-329.3629715339292
 40
4.99969482421875
 50
0.0
 51
360.0
 73
     0
 97
        1
330
16E
 75
     0
 76
     1
 98
        1
 10
0.0
 20
0.0
  0
CIRCLE
  5
170
102
{ACAD_REACTORS
330
171
102
}
330
38
100
AcDbEntity
  8
0
  6
Continuous
 62
     0
370
    -2
390
1D
100
AcDbCircle
 10
5940.0
 20
-484.3629715339292
 30
0.0
 40
4.99969482421875
  0
HATCH
  5
171
330
38
100
AcDbEntity
  8
0
  6
Continuous
 62
     0
370
    -2
390
1D
100
AcDbHatch
 10
0.0
 20
0.0
 30
0.0
210
0.0
220
0.0
230
1.0
  2
SOLID
 70
     1
 71
     1
 91
        1
 92
        1
 93
        1
 72
     2
 10
5940.0
 20
-484.3629715339292
 40
4.99969482421875
 50
0.0
 51
360.0
 73
     0
 97
        1
330
170
 75
     0
 76
     1
 98
        1
 10
0.0
 20
0.0
  0
MTEXT
  5
172
330
38
100
AcDbEntity
  8
0
 62
     0
390
1D
100
AcDbMText
 10
5906.1223828125
 20
-430.6754732161047
 30
0.0
 40
24.4326171875
 41
0.0
 46
0.0
 71
     1
 72
     1
  1
155
  7
ＭＳ ゴシック
 11
0.0
 21
1.0
 31
0.0
 73
     1
 44
0.7828267384257843
  0
POINT
  5
173
330
38
100
AcDbEntity
  8
Defpoints
 62
     0
370
     0
390
1D
100
AcDbPoint
 10
6037.808907739571
 20
-484.3629715339292
 30
0.0
  0
POINT
  5
174
330
38
100
AcDbEntity
  8
Defpoints
 62
     0
370
     0
390
1D
100
AcDbPoint
 10
6037.808907739571
 20
-329.3629715339292
 30
0.0
  0
POINT
  5
175
330
38
100
AcDbEntity
  8
Defpoints
 62
     0
370
     0
390
1D
100
AcDbPoint
 10
5940.0
 20
-329.3629715339292
 30
0.0
  0
ENDBLK
  5
176
330
38
100
AcDbEntity
  8
notes
390
1D
100
AcDbBlockEnd
  0
BLOCK
  5
289
330
27F
100
AcDbEntity
  8
0
100
AcDbBlockBegin
  2
*D24
 70
     1
 10
0.0
 20
0.0
 30
0.0
  3
*D24
  1
*D24
  0
LINE
  5
280
330
27F
100
AcDbEntity
  8
notes
  6
Continuous
 62
     0
370
    -2
100
AcDbLine
 10
7332.356845573383
 20
716.6099341969916
 30
0.0
 11
7077.875288138837
 21
716.6099341969916
 31
0.0
  0
LINE
  5
281
330
27F
100
AcDbEntity
  8
notes
  6
Continuous
 62
     0
370
    -2
100
AcDbLine
 10
7332.356860361378
 20
1054.919824721834
 30
0.0
 11
7077.875288138837
 21
1054.919824721834
 31
0.0
  0
LINE
  5
282
330
27F
100
AcDbEntity
  8
notes
  6
Continuous
 62
     0
370
    -2
100
AcDbLine
 10
7097.875288138834
 20
748.3599341969916
 30
0.0
 11
7097.875288138834
 21
1023.169824721834
 31
0.0
  0
INSERT
  5
283
330
27F
100
AcDbEntity
  8
notes
 62
     0
370
    -2
100
AcDbBlockReference
  2
VW_FILLEDARROW
 10
7097.875288138834
 20
716.6099341969916
 30
0.0
 41
31.75
 42
31.75
 43
31.75
 50
270.0
  0
INSERT
  5
284
330
27F
100
AcDbEntity
  8
notes
 62
     0
370
    -2
100
AcDbBlockReference
  2
VW_FILLEDARROW
 10
7097.875288138834
 20
1054.919824721834
 30
0.0
 41
31.75
 42
31.75
 43
31.75
 50
90.0
  0
MTEXT
  5
285
330
27F
100
AcDbEntity
  8
notes
  6
Continuous
 62
     0
370
     0
100
AcDbMText
 10
7084.658979545083
 20
885.7648794594129
 30
0.0
 40
24.4326171875
 41
0.0
 46
0.0
 71
     5
 72
     1
  1
\A1;338.3
  7
ＭＳ ゴシック
 11
0.0
 21
1.0
 31
0.0
 73
     1
 44
1.0
  0
POINT
  5
286
330
27F
100
AcDbEntity
  8
Defpoints
 62
     0
100
AcDbPoint
 10
7332.356845573383
 20
716.6099341969916
 30
0.0
  0
POINT
  5
287
330
27F
100
AcDbEntity
  8
Defpoints
 62
     0
100
AcDbPoint
 10
7332.356860361378
 20
1054.919824721834
 30
0.0
  0
POINT
  5
288
330
27F
100
AcDbEntity
  8
Defpoints
 62
     0
100
AcDbPoint
 10
7097.875288138834
 20
1054.919824721834
 30
0.0
  0
ENDBLK
  5
28A
330
27F
100
AcDbEntity
  8
0
100
AcDbBlockEnd
  0
BLOCK
  5
2A7
330
29D
100
AcDbEntity
  8
0
100
AcDbBlockBegin
  2
*D25
 70
     1
 10
0.0
 20
0.0
 30
0.0
  3
*D25
  1
*D25
  0
LINE
  5
29E
330
29D
100
AcDbEntity
  8
notes
  6
Continuous
 62
     0
370
    -2
100
AcDbLine
 10
7487.356882731751
 20
1177.421814979606
 30
0.0
 11
7808.1270004097
 21
1177.421814979606
 31
0.0
  0
LINE
  5
29F
330
29D
100
AcDbEntity
  8
notes
  6
Continuous
 62
     0
370
    -2
100
AcDbLine
 10
7487.356862726662
 20
719.7586845668361
 30
0.0
 11
7808.1270004097
 21
719.7586845668361
 31
0.0
  0
LINE
  5
2A0
330
29D
100
AcDbEntity
  8
notes
  6
Continuous
 62
     0
370
    -2
100
AcDbLine
 10
7808.1270004097
 20
1168.421814979606
 30
0.0
 11
7808.1270004097
 21
728.7586845668361
 31
0.0
  0
INSERT
  5
2A1
330
29D
100
AcDbEntity
  8
notes
 62
     0
370
    -2
100
AcDbBlockReference
  2
_DOT
 10
7808.1270004097
 20
1177.421814979606
 30
0.0
 41
9.0
 42
9.0
 43
9.0
 50
90.0
  0
INSERT
  5
2A2
330
29D
100
AcDbEntity
  8
notes
 62
     0
370
    -2
100
AcDbBlockReference
  2
_DOT
 10
7808.1270004097
 20
719.7586845668361
 30
0.0
 41
9.0
 42
9.0
 43
9.0
 50
270.0
  0
MTEXT
  5
2A3
330
29D
100
AcDbEntity
  8
notes
  6
Continuous
 62
     0
370
     0
100
AcDbMText
 10
7794.91069181595
 20
948.5902497732209
 30
0.0
 40
24.4326171875
 41
0.0
 46
0.0
 71
     5
 72
     1
  1
\A1;457.7
  7
ＭＳ ゴシック
 11
0.0
 21
1.0
 31
0.0
 73
     1
 44
1.0
  0
POINT
  5
2A4
330
29D
100
AcDbEntity
  8
Defpoints
 62
     0
100
AcDbPoint
 10
7462.356882731751
 20
1177.421814979606
 30
0.0
  0
POINT
  5
2A5
330
29D
100
AcDbEntity
  8
Defpoints
 62
     0
100
AcDbPoint
 10
7462.356862726662
 20
719.7586845668361
 30
0.0
  0
POINT
  5
2A6
330
29D
100
AcDbEntity
  8
Defpoints
 62
     0
100
AcDbPoint
 10
7808.1270004097
 20
719.7586845668361
 30
0.0
  0
ENDBLK
  5
2A8
330
29D
100
AcDbEntity
  8
0
100
AcDbBlockEnd
  0
BLOCK
  5
2B6
330
2AC
100
AcDbEntity
  8
0
100
AcDbBlockBegin
  2
*D26
 70
     1
 10
0.0
 20
0.0
 30
0.0
  3
*D26
  1
*D26
  0
LINE
  5
2AD
330
2AC
100
AcDbEntity
  8
notes
  6
Continuous
 62
     0
370
    -2
100
AcDbLine
 10
7462.356882731751
 20
1177.421814979606
 30
0.0
 11
7778.716991620016
 21
1177.421814979606
 31
0.0
  0
LINE
  5
2AE
330
2AC
100
AcDbEntity
  8
notes
  6
Continuous
 62
     0
370
    -2
100
AcDbLine
 10
7462.356862726662
 20
719.7586845668361
 30
0.0
 11
7778.716991620016
 21
719.7586845668361
 31
0.0
  0
LINE
  5
2AF
330
2AC
100
AcDbEntity
  8
notes
  6
Continuous
 62
     0
370
    -2
100
AcDbLine
 10
7778.716991620016
 20
1168.421814979606
 30
0.0
 11
7778.716991620016
 21
728.7586845668361
 31
0.0
  0
INSERT
  5
2B0
330
2AC
100
AcDbEntity
  8
notes
 62
     0
370
    -2
100
AcDbBlockReference
  2
_DOT
 10
7778.716991620016
 20
1177.421814979606
 30
0.0
 41
9.0
 42
9.0
 43
9.0
 50
90.0
  0
INSERT
  5
2B1
330
2AC
100
AcDbEntity
  8
notes
 62
     0
370
    -2
100
AcDbBlockReference
  2
_DOT
 10
7778.716991620016
 20
719.7586845668361
 30
0.0
 41
9.0
 42
9.0
 43
9.0
 50
270.0
  0
MTEXT
  5
2B2
330
2AC
100
AcDbEntity
  8
notes
  6
Continuous
 62
     0
370
     0
100
AcDbMText
 10
7756.500683026266
 20
948.5902497732209
 30
0.0
 40
24.4326171875
 41
0.0
 46
0.0
 71
     5
 72
     1
  1
\A1;457.7
  7
ＭＳ ゴシック
 11
0.0
 21
1.0
 31
0.0
 73
     1
 44
1.0
  0
POINT
  5
2B3
330
2AC
100
AcDbEntity
  8
Defpoints
 62
     0
100
AcDbPoint
 10
7462.356882731751
 20
1177.421814979606
 30
0.0
  0
POINT
  5
2B4
330
2AC
100
AcDbEntity
  8
Defpoints
 62
     0
100
AcDbPoint
 10
7462.356862726662
 20
719.7586845668361
 30
0.0
  0
POINT
  5
2B5
330
2AC
100
AcDbEntity
  8
Defpoints
 62
     0
100
AcDbPoint
 10
7778.716991620016
 20
719.7586845668361
 30
0.0
  0
ENDBLK
  5
2B7
330
2AC
100
AcDbEntity
  8
0
100
AcDbBlockEnd
  0
BLOCK
  5
2D0
330
2C6
100
AcDbEntity
  8
0
100
AcDbBlockBegin
  2
*D27
 70
     1
 10
0.0
 20
0.0
 30
0.0
  3
*D27
  1
*D27
  0
LINE
  5
2C7
330
2C6
100
AcDbEntity
  8
notes
  6
Continuous
 62
     0
370
    -2
100
AcDbLine
 10
7462.356882731751
 20
1177.421814979606
 30
0.0
 11
7787.539994256922
 21
1177.421814979606
 31
0.0
  0
LINE
  5
2C8
330
2C6
100
AcDbEntity
  8
notes
  6
Continuous
 62
     0
370
    -2
100
AcDbLine
 10
7462.356862726662
 20
719.7586845668361
 30
0.0
 11
7787.539994256922
 21
719.7586845668361
 31
0.0
  0
LINE
  5
2C9
330
2C6
100
AcDbEntity
  8
notes
  6
Continuous
 62
     0
370
    -2
100
AcDbLine
 10
7787.539994256922
 20
1168.421814979606
 30
0.0
 11
7787.539994256922
 21
728.7586845668361
 31
0.0
  0
INSERT
  5
2CA
330
2C6
100
AcDbEntity
  8
notes
 62
     0
370
    -2
100
AcDbBlockReference
  2
_DOT
 10
7787.539994256922
 20
1177.421814979606
 30
0.0
 41
9.0
 42
9.0
 43
9.0
 50
90.0
  0
INSERT
  5
2CB
330
2C6
100
AcDbEntity
  8
notes
 62
     0
370
    -2
100
AcDbBlockReference
  2
_DOT
 10
7787.539994256922
 20
719.7586845668361
 30
0.0
 41
9.0
 42
9.0
 43
9.0
 50
270.0
  0
MTEXT
  5
2CC
330
2C6
100
AcDbEntity
  8
notes
  6
Continuous
 62
     0
370
     0
100
AcDbMText
 10
7765.323685663172
 20
948.5902497732209
 30
0.0
 40
24.4326171875
 41
0.0
 46
0.0
 71
     5
 72
     1
  1
\A1;457.7
  7
ＭＳ ゴシック
 11
0.0
 21
1.0
 31
0.0
 73
     1
 44
1.0
  0
POINT
  5
2CD
330
2C6
100
AcDbEntity
  8
Defpoints
 62
     0
100
AcDbPoint
 10
7462.356882731751
 20
1177.421814979606
 30
0.0
  0
POINT
  5
2CE
330
2C6
100
AcDbEntity
  8
Defpoints
 62
     0
100
AcDbPoint
 10
7462.356862726662
 20
719.7586845668361
 30
0.0
  0
POINT
  5
2CF
330
2C6
100
AcDbEntity
  8
Defpoints
 62
     0
100
AcDbPoint
 10
7787.539994256922
 20
719.7586845668361
 30
0.0
  0
ENDBLK
  5
2D1
330
2C6
100
AcDbEntity
  8
0
100
AcDbBlockEnd
  0
BLOCK
  5
2DF
330
2D5
100
AcDbEntity
  8
0
100
AcDbBlockBegin
  2
*D28
 70
     1
 10
0.0
 20
0.0
 30
0.0
  3
*D28
  1
*D28
  0
LINE
  5
2D6
330
2D5
100
AcDbEntity
  8
notes
  6
Continuous
 62
     0
370
    -2
100
AcDbLine
 10
7462.356882731751
 20
1177.421814979606
 30
0.0
 11
7752.247983709301
 21
1177.421814979606
 31
0.0
  0
LINE
  5
2D7
330
2D5
100
AcDbEntity
  8
notes
  6
Continuous
 62
     0
370
    -2
100
AcDbLine
 10
7462.356862726662
 20
719.7586845668361
 30
0.0
 11
7752.247983709301
 21
719.7586845668361
 31
0.0
  0
LINE
  5
2D8
330
2D5
100
AcDbEntity
  8
notes
  6
Continuous
 62
     0
370
    -2
100
AcDbLine
 10
7752.247983709301
 20
1168.421814979606
 30
0.0
 11
7752.247983709301
 21
728.7586845668361
 31
0.0
  0
INSERT
  5
2D9
330
2D5
100
AcDbEntity
  8
notes
 62
     0
370
    -2
100
AcDbBlockReference
  2
_DOT
 10
7752.247983709301
 20
1177.421814979606
 30
0.0
 41
9.0
 42
9.0
 43
9.0
 50
90.0
  0
INSERT
  5
2DA
330
2D5
100
AcDbEntity
  8
notes
 62
     0
370
    -2
100
AcDbBlockReference
  2
_DOT
 10
7752.247983709301
 20
719.7586845668361
 30
0.0
 41
9.0
 42
9.0
 43
9.0
 50
270.0
  0
MTEXT
  5
2DB
330
2D5
100
AcDbEntity
  8
notes
  6
Continuous
 62
     0
370
     0
100
AcDbMText
 10
7730.031675115551
 20
948.5902497732209
 30
0.0
 40
24.4326171875
 41
0.0
 46
0.0
 71
     5
 72
     1
  1
\A1;457.7
  7
ＭＳ ゴシック
 11
0.0
 21
1.0
 31
0.0
 73
     1
 44
1.0
  0
POINT
  5
2DC
330
2D5
100
AcDbEntity
  8
Defpoints
 62
     0
100
AcDbPoint
 10
7462.356882731751
 20
1177.421814979606
 30
0.0
  0
POINT
  5
2DD
330
2D5
100
AcDbEntity
  8
Defpoints
 62
     0
100
AcDbPoint
 10
7462.356862726662
 20
719.7586845668361
 30
0.0
  0
POINT
  5
2DE
330
2D5
100
AcDbEntity
  8
Defpoints
 62
     0
100
AcDbPoint
 10
7752.247983709301
 20
719.7586845668361
 30
0.0
  0
ENDBLK
  5
2E0
330
2D5
100
AcDbEntity
  8
0
100
AcDbBlockEnd
  0
BLOCK
  5
2F2
330
2E8
100
AcDbEntity
  8
0
100
AcDbBlockBegin
  2
*D29
 70
     1
 10
0.0
 20
0.0
 30
0.0
  3
*D29
  1
*D29
  0
LINE
  5
2E9
330
2E8
100
AcDbEntity
  8
notes
  6
Continuous
 62
     0
370
    -2
100
AcDbLine
 10
7332.356845573383
 20
716.6099341969916
 30
0.0
 11
7033.173268801529
 21
716.6099341969916
 31
0.0
  0
LINE
  5
2EA
330
2E8
100
AcDbEntity
  8
notes
  6
Continuous
 62
     0
370
    -2
100
AcDbLine
 10
7332.356860361378
 20
1054.919824721834
 30
0.0
 11
7033.173268801529
 21
1054.919824721834
 31
0.0
  0
LINE
  5
2EB
330
2E8
100
AcDbEntity
  8
notes
  6
Continuous
 62
     0
370
    -2
100
AcDbLine
 10
7033.173268801529
 20
725.6099341969916
 30
0.0
 11
7033.173268801529
 21
1045.919824721834
 31
0.0
  0
INSERT
  5
2EC
330
2E8
100
AcDbEntity
  8
notes
 62
     0
370
    -2
100
AcDbBlockReference
  2
_DOT
 10
7033.173268801529
 20
716.6099341969916
 30
0.0
 41
9.0
 42
9.0
 43
9.0
 50
270.0
  0
INSERT
  5
2ED
330
2E8
100
AcDbEntity
  8
notes
 62
     0
370
    -2
100
AcDbBlockReference
  2
_DOT
 10
7033.173268801529
 20
1054.919824721834
 30
0.0
 41
9.0
 42
9.0
 43
9.0
 50
90.0
  0
MTEXT
  5
2EE
330
2E8
100
AcDbEntity
  8
notes
  6
Continuous
 62
     0
370
     0
100
AcDbMText
 10
7010.956960207779
 20
885.7648794594129
 30
0.0
 40
24.4326171875
 41
0.0
 46
0.0
 71
     5
 72
     1
  1
\A1;338
  7
ＭＳ ゴシック
 11
0.0
 21
1.0
 31
0.0
 73
     1
 44
1.0
  0
POINT
  5
2EF
330
2E8
100
AcDbEntity
  8
Defpoints
 62
     0
100
AcDbPoint
 10
7332.356845573383
 20
716.6099341969916
 30
0.0
  0
POINT
  5
2F0
330
2E8
100
AcDbEntity
  8
Defpoints
 62
     0
100
AcDbPoint
 10
7332.356860361378
 20
1054.919824721834
 30
0.0
  0
POINT
  5
2F1
330
2E8
100
AcDbEntity
  8
Defpoints
 62
     0
100
AcDbPoint
 10
7033.173268801529
 20
1054.919824721834
 30
0.0
  0
ENDBLK
  5
2F3
330
2E8
100
AcDbEntity
  8
0
100
AcDbBlockEnd
  0
BLOCK
  5
301
330
2F7
100
AcDbEntity
  8
0
100
AcDbBlockBegin
  2
*D30
 70
     1
 10
0.0
 20
0.0
 30
0.0
  3
*D30
  1
*D30
  0
LINE
  5
2F8
330
2F7
100
AcDbEntity
  8
notes
  6
Continuous
 62
     0
370
    -2
100
AcDbLine
 10
7332.356845573383
 20
716.6099341969916
 30
0.0
 11
7141.255051103617
 21
716.6099341969916
 31
0.0
  0
LINE
  5
2F9
330
2F7
100
AcDbEntity
  8
notes
  6
Continuous
 62
     0
370
    -2
100
AcDbLine
 10
7332.356860361378
 20
1054.919824721834
 30
0.0
 11
7141.255051103617
 21
1054.919824721834
 31
0.0
  0
LINE
  5
2FA
330
2F7
100
AcDbEntity
  8
notes
  6
Continuous
 62
     0
370
    -2
100
AcDbLine
 10
7141.255051103617
 20
725.6099341969916
 30
0.0
 11
7141.255051103617
 21
1045.919824721834
 31
0.0
  0
INSERT
  5
2FB
330
2F7
100
AcDbEntity
  8
notes
 62
     0
370
    -2
100
AcDbBlockReference
  2
_DOT
 10
7141.255051103617
 20
716.6099341969916
 30
0.0
 41
9.0
 42
9.0
 43
9.0
 50
270.0
  0
INSERT
  5
2FC
330
2F7
100
AcDbEntity
  8
notes
 62
     0
370
    -2
100
AcDbBlockReference
  2
_DOT
 10
7141.255051103617
 20
1054.919824721834
 30
0.0
 41
9.0
 42
9.0
 43
9.0
 50
90.0
  0
MTEXT
  5
2FD
330
2F7
100
AcDbEntity
  8
notes
  6
Continuous
 62
     0
370
     0
100
AcDbMText
 10
7119.038742509867
 20
885.7648794594129
 30
0.0
 40
24.4326171875
 41
0.0
 46
0.0
 71
     5
 72
     1
  1
\A1;338
  7
ＭＳ ゴシック
 11
0.0
 21
1.0
 31
0.0
 73
     1
 44
1.0
  0
POINT
  5
2FE
330
2F7
100
AcDbEntity
  8
Defpoints
 62
     0
100
AcDbPoint
 10
7332.356845573383
 20
716.6099341969916
 30
0.0
  0
POINT
  5
2FF
330
2F7
100
AcDbEntity
  8
Defpoints
 62
     0
100
AcDbPoint
 10
7332.356860361378
 20
1054.919824721834
 30
0.0
  0
POINT
  5
300
330
2F7
100
AcDbEntity
  8
Defpoints
 62
     0
100
AcDbPoint
 10
7141.255051103617
 20
1054.919824721834
 30
0.0
  0
ENDBLK
  5
302
330
2F7
100
AcDbEntity
  8
0
100
AcDbBlockEnd
  0
BLOCK
  5
310
330
306
100
AcDbEntity
  8
0
100
AcDbBlockBegin
  2
*D31
 70
     1
 10
0.0
 20
0.0
 30
0.0
  3
*D31
  1
*D31
  0
LINE
  5
307
330
306
100
AcDbEntity
  8
notes
  6
Continuous
 62
     0
370
    -2
100
AcDbLine
 10
7332.356845573383
 20
716.6099341969916
 30
0.0
 11
7147.137052861553
 21
716.6099341969916
 31
0.0
  0
LINE
  5
308
330
306
100
AcDbEntity
  8
notes
  6
Continuous
 62
     0
370
    -2
100
AcDbLine
 10
7332.356860361378
 20
1054.919824721834
 30
0.0
 11
7147.137052861553
 21
1054.919824721834
 31
0.0
  0
LINE
  5
309
330
306
100
AcDbEntity
  8
notes
  6
Continuous
 62
     0
370
    -2
100
AcDbLine
 10
7147.137052861553
 20
725.6099341969916
 30
0.0
 11
7147.137052861553
 21
1045.919824721834
 31
0.0
  0
INSERT
  5
30A
330
306
100
AcDbEntity
  8
notes
 62
     0
370
    -2
100
AcDbBlockReference
  2
_DOT
 10
7147.137052861553
 20
716.6099341969916
 30
0.0
 41
9.0
 42
9.0
 43
9.0
 50
270.0
  0
INSERT
  5
30B
330
306
100
AcDbEntity
  8
notes
 62
     0
370
    -2
100
AcDbBlockReference
  2
_DOT
 10
7147.137052861553
 20
1054.919824721834
 30
0.0
 41
9.0
 42
9.0
 43
9.0
 50
90.0
  0
MTEXT
  5
30C
330
306
100
AcDbEntity
  8
notes
  6
Continuous
 62
     0
370
     0
100
AcDbMText
 10
7124.920744267803
 20
885.7648794594129
 30
0.0
 40
24.4326171875
 41
0.0
 46
0.0
 71
     5
 72
     1
  1
\A1;338
  7
ＭＳ ゴシック
 11
0.0
 21
1.0
 31
0.0
 73
     1
 44
1.0
  0
POINT
  5
30D
330
306
100
AcDbEntity
  8
Defpoints
 62
     0
100
AcDbPoint
 10
7332.356845573383
 20
716.6099341969916
 30
0.0
  0
POINT
  5
30E
330
306
100
AcDbEntity
  8
Defpoints
 62
     0
100
AcDbPoint
 10
7332.356860361378
 20
1054.919824721834
 30
0.0
  0
POINT
  5
30F
330
306
100
AcDbEntity
  8
Defpoints
 62
     0
100
AcDbPoint
 10
7147.137052861553
 20
1054.919824721834
 30
0.0
  0
ENDBLK
  5
311
330
306
100
AcDbEntity
  8
0
100
AcDbBlockEnd
  0
BLOCK
  5
31F
330
315
100
AcDbEntity
  8
0
100
AcDbBlockBegin
  2
*D32
 70
     1
 10
0.0
 20
0.0
 30
0.0
  3
*D32
  1
*D32
  0
LINE
  5
316
330
315
100
AcDbEntity
  8
notes
  6
Continuous
 62
     0
370
    -2
100
AcDbLine
 10
7307.356845573383
 20
716.6099341969916
 30
0.0
 11
7060.377526931986
 21
716.6099341969916
 31
0.0
  0
LINE
  5
317
330
315
100
AcDbEntity
  8
notes
  6
Continuous
 62
     0
370
    -2
100
AcDbLine
 10
7307.356860361378
 20
1054.919824721834
 30
0.0
 11
7060.377526931986
 21
1054.919824721834
 31
0.0
  0
LINE
  5
318
330
315
100
AcDbEntity
  8
notes
  6
Continuous
 62
     0
370
    -2
100
AcDbLine
 10
7060.377526931986
 20
725.6099341969916
 30
0.0
 11
7060.377526931986
 21
1045.919824721834
 31
0.0
  0
INSERT
  5
319
330
315
100
AcDbEntity
  8
notes
 62
     0
370
    -2
100
AcDbBlockReference
  2
_DOT
 10
7060.377526931986
 20
716.6099341969916
 30
0.0
 41
9.0
 42
9.0
 43
9.0
 50
270.0
  0
INSERT
  5
31A
330
315
100
AcDbEntity
  8
notes
 62
     0
370
    -2
100
AcDbBlockReference
  2
_DOT
 10
7060.377526931986
 20
1054.919824721834
 30
0.0
 41
9.0
 42
9.0
 43
9.0
 50
90.0
  0
MTEXT
  5
31B
330
315
100
AcDbEntity
  8
notes
  6
Continuous
 62
     0
370
     0
100
AcDbMText
 10
7038.161218338236
 20
885.7648794594129
 30
0.0
 40
24.4326171875
 41
0.0
 46
0.0
 71
     5
 72
     1
  1
\A1;338
  7
ＭＳ ゴシック
 11
0.0
 21
1.0
 31
0.0
 73
     1
 44
1.0
  0
POINT
  5
31C
330
315
100
AcDbEntity
  8
Defpoints
 62
     0
100
AcDbPoint
 10
7332.356845573383
 20
716.6099341969916
 30
0.0
  0
POINT
  5
31D
330
315
100
AcDbEntity
  8
Defpoints
 62
     0
100
AcDbPoint
 10
7332.356860361378
 20
1054.919824721834
 30
0.0
  0
POINT
  5
31E
330
315
100
AcDbEntity
  8
Defpoints
 62
     0
100
AcDbPoint
 10
7060.377526931986
 20
1054.919824721834
 30
0.0
  0
ENDBLK
  5
320
330
315
100
AcDbEntity
  8
0
100
AcDbBlockEnd
  0
BLOCK
  5
32E
330
324
100
AcDbEntity
  8
0
100
AcDbBlockBegin
  2
*D33
 70
     1
 10
0.0
 20
0.0
 30
0.0
  3
*D33
  1
*D33
  0
LINE
  5
325
330
324
100
AcDbEntity
  8
notes
  6
Continuous
 62
     0
370
    -2
100
AcDbLine
 10
7460.356882819174
 20
1204.421815067026
 30
0.0
 11
7460.356882819174
 21
1243.577528838752
 31
0.0
  0
LINE
  5
326
330
324
100
AcDbEntity
  8
notes
  6
Continuous
 62
     0
370
    -2
100
AcDbLine
 10
7335.356865803537
 20
1204.421837546592
 30
0.0
 11
7335.356865803537
 21
1243.577528838752
 31
0.0
  0
LINE
  5
327
330
324
100
AcDbEntity
  8
notes
  6
Continuous
 62
     0
370
    -2
100
AcDbLine
 10
7451.356882819174
 20
1243.577528838752
 30
0.0
 11
7344.356865803537
 21
1243.577528838752
 31
0.0
  0
INSERT
  5
328
330
324
100
AcDbEntity
  8
notes
 62
     0
370
    -2
100
AcDbBlockReference
  2
_DOT
 10
7460.356882819174
 20
1243.577528838752
 30
0.0
 41
9.0
 42
9.0
 43
9.0
  0
INSERT
  5
329
330
324
100
AcDbEntity
  8
notes
 62
     0
370
    -2
100
AcDbBlockReference
  2
_DOT
 10
7335.356865803537
 20
1243.577528838752
 30
0.0
 41
9.0
 42
9.0
 43
9.0
 50
180.0
  0
MTEXT
  5
32A
330
324
100
AcDbEntity
  8
notes
  6
Continuous
 62
     0
370
     0
100
AcDbMText
 10
7397.856874311356
 20
1265.793837432502
 30
0.0
 40
24.4326171875
 41
0.0
 46
0.0
 71
     5
 72
     1
  1
\A1;125
  7
ＭＳ ゴシック
 73
     1
 44
1.0
  0
POINT
  5
32B
330
324
100
AcDbEntity
  8
Defpoints
 62
     0
100
AcDbPoint
 10
7460.356882819174
 20
1179.421815067026
 30
0.0
  0
POINT
  5
32C
330
324
100
AcDbEntity
  8
Defpoints
 62
     0
100
AcDbPoint
 10
7335.356865803537
 20
1179.421837546592
 30
0.0
  0
POINT
  5
32D
330
324
100
AcDbEntity
  8
Defpoints
 62
     0
100
AcDbPoint
 10
7335.356865803537
 20
1243.577528838752
 30
0.0
  0
ENDBLK
  5
32F
330
324
100
AcDbEntity
  8
0
100
AcDbBlockEnd
  0
BLOCK
  5
33F
330
33E
100
AcDbEntity
  8
0
100
AcDbBlockBegin
  2
backbolt
 70
     0
 10
0.0
 20
0.0
 30
0.0
  3
backbolt
  1
backbolt
  0
CIRCLE
  5
341
330
33E
100
AcDbEntity
  8
notes
  6
STYLE_12
370
     0
100
AcDbCircle
 10
7530.260157420053
 20
-386.7722041591232
 30
0.0
 40
10.0
  0
LINE
  5
342
330
33E
100
AcDbEntity
  8
notes
  6
STYLE_12
370
     0
100
AcDbLine
 10
7530.260157420053
 20
-406.7722041591232
 30
0.0
 11
7530.260157420053
 21
-366.7722041591232
 31
0.0
  0
LINE
  5
343
330
33E
100
AcDbEntity
  8
notes
  6
STYLE_12
370
     0
100
AcDbLine
 10
7510.260157420053
 20
-386.7722041591232
 30
0.0
 11
7550.260157420053
 21
-386.7722041591232
 31
0.0
  0
ENDBLK
  5
340
330
33E
100
AcDbEntity
  8
0
100
AcDbBlockEnd
  0
BLOCK
  5
491
330
487
100
AcDbEntity
  8
0
100
AcDbBlockBegin
  2
*D35
 70
     1
 10
0.0
 20
0.0
 30
0.0
  3
*D35
  1
*D35
  0
LINE
  5
488
330
487
100
AcDbEntity
  8
MODEL
  6
Continuous
 62
     0
370
    -2
100
AcDbLine
 10
293.0462951865044
 20
639.2189903041746
 30
0.0
 11
245.4314014042801
 21
639.2189903041746
 31
0.0
  0
LINE
  5
489
330
487
100
AcDbEntity
  8
MODEL
  6
Continuous
 62
     0
370
    -2
100
AcDbLine
 10
293.0462951865044
 20
464.2189903041746
 30
0.0
 11
245.4314014042801
 21
464.2189903041746
 31
0.0
  0
LINE
  5
48A
330
487
100
AcDbEntity
  8
MODEL
  6
Continuous
 62
     0
370
    -2
100
AcDbLine
 10
245.4314014042801
 20
630.2189903041746
 30
0.0
 11
245.4314014042801
 21
473.2189903041746
 31
0.0
  0
INSERT
  5
48B
330
487
100
AcDbEntity
  8
MODEL
 62
     0
370
    -2
100
AcDbBlockReference
  2
_DOT
 10
245.4314014042801
 20
639.2189903041746
 30
0.0
 41
9.0
 42
9.0
 43
9.0
 50
90.0
  0
INSERT
  5
48C
330
487
100
AcDbEntity
  8
MODEL
 62
     0
370
    -2
100
AcDbBlockReference
  2
_DOT
 10
245.4314014042801
 20
464.2189903041746
 30
0.0
 41
9.0
 42
9.0
 43
9.0
 50
270.0
  0
MTEXT
  5
48D
330
487
100
AcDbEntity
  8
MODEL
  6
Continuous
 62
     0
370
     0
100
AcDbMText
 10
223.2150928105301
 20
551.7189903041746
 30
0.0
 40
24.4326171875
 41
0.0
 46
0.0
 71
     5
 72
     1
  1
\A1;175
  7
ＭＳ ゴシック
 11
0.0
 21
1.0
 31
0.0
 73
     1
 44
1.0
  0
POINT
  5
48E
330
487
100
AcDbEntity
  8
Defpoints
 62
     0
100
AcDbPoint
 10
318.0462951865044
 20
639.2189903041746
 30
0.0
  0
POINT
  5
48F
330
487
100
AcDbEntity
  8
Defpoints
 62
     0
100
AcDbPoint
 10
318.0462951865044
 20
464.2189903041746
 30
0.0
  0
POINT
  5
490
330
487
100
AcDbEntity
  8
Defpoints
 62
     0
100
AcDbPoint
 10
245.4314014042801
 20
464.2189903041746
 30
0.0
  0
ENDBLK
  5
492
330
487
100
AcDbEntity
  8
0
100
AcDbBlockEnd
  0
BLOCK
  5
542
330
538
100
AcDbEntity
  8
0
100
AcDbBlockBegin
  2
*D36
 70
     1
 10
0.0
 20
0.0
 30
0.0
  3
*D36
  1
*D36
  0
LINE
  5
539
330
538
100
AcDbEntity
  8
MODEL
  6
Continuous
 62
     0
370
    -2
100
AcDbLine
 10
595.124881913167
 20
735.8741187771586
 30
0.0
 11
567.5036818212434
 21
735.8741187771586
 31
0.0
  0
LINE
  5
53A
330
538
100
AcDbEntity
  8
MODEL
  6
Continuous
 62
     0
370
    -2
100
AcDbLine
 10
595.124881913167
 20
460.8741187771586
 30
0.0
 11
567.5036818212434
 21
460.8741187771586
 31
0.0
  0
LINE
  5
53B
330
538
100
AcDbEntity
  8
MODEL
  6
Continuous
 62
     0
370
    -2
100
AcDbLine
 10
567.5036818212434
 20
726.8741187771586
 30
0.0
 11
567.5036818212434
 21
469.8741187771586
 31
0.0
  0
INSERT
  5
53C
330
538
100
AcDbEntity
  8
MODEL
 62
     0
370
    -2
100
AcDbBlockReference
  2
_DOT
 10
567.5036818212434
 20
735.8741187771586
 30
0.0
 41
9.0
 42
9.0
 43
9.0
 50
90.0
  0
INSERT
  5
53D
330
538
100
AcDbEntity
  8
MODEL
 62
     0
370
    -2
100
AcDbBlockReference
  2
_DOT
 10
567.5036818212434
 20
460.8741187771586
 30
0.0
 41
9.0
 42
9.0
 43
9.0
 50
270.0
  0
MTEXT
  5
53E
330
538
100
AcDbEntity
  8
MODEL
  6
Continuous
 62
     0
370
     0
100
AcDbMText
 10
545.2873732274934
 20
598.3741187771586
 30
0.0
 40
24.4326171875
 41
0.0
 46
0.0
 71
     5
 72
     1
  1
\A1;275
  7
ＭＳ ゴシック
 11
0.0
 21
1.0
 31
0.0
 73
     1
 44
1.0
  0
POINT
  5
53F
330
538
100
AcDbEntity
  8
Defpoints
 62
     0
100
AcDbPoint
 10
620.124881913167
 20
735.8741187771586
 30
0.0
  0
POINT
  5
540
330
538
100
AcDbEntity
  8
Defpoints
 62
     0
100
AcDbPoint
 10
620.124881913167
 20
460.8741187771586
 30
0.0
  0
POINT
  5
541
330
538
100
AcDbEntity
  8
Defpoints
 62
     0
100
AcDbPoint
 10
567.5036818212434
 20
460.8741187771586
 30
0.0
  0
ENDBLK
  5
543
330
538
100
AcDbEntity
  8
0
100
AcDbBlockEnd
  0
BLOCK
  5
55A
330
550
100
AcDbEntity
  8
0
100
AcDbBlockBegin
  2
*D37
 70
     1
 10
0.0
 20
0.0
 30
0.0
  3
*D37
  1
*D37
  0
LINE
  5
551
330
550
100
AcDbEntity
  8
MODEL
  6
Continuous
 62
     0
370
    -2
100
AcDbLine
 10
325.1622329815488
 20
1111.603915408276
 30
0.0
 11
325.1622329815488
 21
1211.412297977067
 31
0.0
  0
LINE
  5
552
330
550
100
AcDbEntity
  8
MODEL
  6
Continuous
 62
     0
370
    -2
100
AcDbLine
 10
647.0010344375917
 20
1111.603915408276
 30
0.0
 11
647.0010344375917
 21
1211.412297977067
 31
0.0
  0
LINE
  5
553
330
550
100
AcDbEntity
  8
MODEL
  6
Continuous
 62
     0
370
    -2
100
AcDbLine
 10
334.1622329815488
 20
1211.412297977067
 30
0.0
 11
638.0010344375917
 21
1211.412297977067
 31
0.0
  0
INSERT
  5
554
330
550
100
AcDbEntity
  8
MODEL
 62
     0
370
    -2
100
AcDbBlockReference
  2
_DOT
 10
325.1622329815488
 20
1211.412297977067
 30
0.0
 41
9.0
 42
9.0
 43
9.0
 50
180.0
  0
INSERT
  5
555
330
550
100
AcDbEntity
  8
MODEL
 62
     0
370
    -2
100
AcDbBlockReference
  2
_DOT
 10
647.0010344375917
 20
1211.412297977067
 30
0.0
 41
9.0
 42
9.0
 43
9.0
  0
MTEXT
  5
556
330
550
100
AcDbEntity
  8
MODEL
  6
Continuous
 62
     0
370
     0
100
AcDbMText
 10
486.0816337095702
 20
1227.412297977067
 30
0.0
 40
12.0
 41
0.0
 46
0.0
 71
     5
 72
     1
  1
\A1;322
  7
ＭＳ ゴシック
 73
     1
 44
1.0
  0
POINT
  5
557
330
550
100
AcDbEntity
  8
Defpoints
 62
     0
100
AcDbPoint
 10
325.1622329815488
 20
1086.603915408276
 30
0.0
  0
POINT
  5
558
330
550
100
AcDbEntity
  8
Defpoints
 62
     0
100
AcDbPoint
 10
647.0010344375917
 20
1086.603915408276
 30
0.0
  0
POINT
  5
559
330
550
100
AcDbEntity
  8
Defpoints
 62
     0
100
AcDbPoint
 10
647.0010344375917
 20
1211.412297977067
 30
0.0
  0
ENDBLK
  5
55B
330
550
100
AcDbEntity
  8
0
100
AcDbBlockEnd
  0
BLOCK
  5
590
330
586
100
AcDbEntity
  8
0
100
AcDbBlockBegin
  2
*D38
 70
     1
 10
0.0
 20
0.0
 30
0.0
  3
*D38
  1
*D38
  0
LINE
  5
587
330
586
100
AcDbEntity
  8
MODEL
  6
Continuous
 62
     0
370
    -2
100
AcDbLine
 10
225.708573882367
 20
755.5170260868847
 30
0.0
 11
225.708573882367
 21
463.7090758874813
 31
0.0
  0
LINE
  5
588
330
586
100
AcDbEntity
  8
MODEL
  6
Continuous
 62
     0
370
    -2
100
AcDbLine
 10
486.0816337095702
 20
566.3449249755374
 30
0.0
 11
486.0816337095702
 21
463.7090758874813
 31
0.0
  0
LINE
  5
589
330
586
100
AcDbEntity
  8
MODEL
  6
Continuous
 62
     0
370
    -2
100
AcDbLine
 10
231.708573882367
 20
463.7090758874813
 30
0.0
 11
480.0816337095702
 21
463.7090758874813
 31
0.0
  0
INSERT
  5
58A
330
586
100
AcDbEntity
  8
MODEL
 62
     0
370
    -2
100
AcDbBlockReference
  2
_DOT
 10
225.708573882367
 20
463.7090758874813
 30
0.0
 41
6.0
 42
6.0
 43
6.0
 50
180.0
  0
INSERT
  5
58B
330
586
100
AcDbEntity
  8
MODEL
 62
     0
370
    -2
100
AcDbBlockReference
  2
_DOT
 10
486.0816337095702
 20
463.7090758874813
 30
0.0
 41
6.0
 42
6.0
 43
6.0
  0
MTEXT
  5
58C
330
586
100
AcDbEntity
  8
MODEL
  6
Continuous
 62
     0
370
     0
100
AcDbMText
 10
355.8951037959686
 20
479.7090758874813
 30
0.0
 40
12.0
 41
0.0
 46
0.0
 71
     5
 72
     1
  1
\A1;260
  7
ＭＳ ゴシック
 73
     1
 44
1.0
  0
POINT
  5
58D
330
586
100
AcDbEntity
  8
Defpoints
 62
     0
100
AcDbPoint
 10
225.708573882367
 20
780.5170260868847
 30
0.0
  0
POINT
  5
58E
330
586
100
AcDbEntity
  8
Defpoints
 62
     0
100
AcDbPoint
 10
486.0816337095702
 20
591.3449249755374
 30
0.0
  0
POINT
  5
58F
330
586
100
AcDbEntity
  8
Defpoints
 62
     0
100
AcDbPoint
 10
486.0816337095702
 20
463.7090758874813
 30
0.0
  0
ENDBLK
  5
591
330
586
100
AcDbEntity
  8
0
100
AcDbBlockEnd
  0
BLOCK
  5
5CD
330
5C2
100
AcDbEntity
  8
0
100
AcDbBlockBegin
  2
*D39
 70
     1
 10
0.0
 20
0.0
 30
0.0
  3
*D39
  1
*D39
  0
LINE
  5
5C3
330
5C2
100
AcDbEntity
  8
MODEL
  6
Continuous
 62
     0
370
    -2
100
AcDbLine
 10
8.553477427310556
 20
1448.878337120723
 30
0.0
 11
8.553477427310556
 21
1469.156427243134
 31
0.0
  0
LINE
  5
5C4
330
5C2
100
AcDbEntity
  8
MODEL
  6
Continuous
 62
     0
370
    -2
100
AcDbLine
 10
0.0
 20
1448.878337120723
 30
0.0
 11
0.0
 21
1469.156427243134
 31
0.0
  0
LINE
  5
5C5
330
5C2
100
AcDbEntity
  8
MODEL
  6
Continuous
 62
     0
370
    -2
100
AcDbLine
 10
8.553477427310556
 20
1469.156427243134
 30
0.0
 11
20.55347742731055
 21
1469.156427243134
 31
0.0
  0
LINE
  5
5C6
330
5C2
100
AcDbEntity
  8
MODEL
  6
Continuous
 62
     0
370
    -2
100
AcDbLine
 10
0.0
 20
1469.156427243134
 30
0.0
 11
-12.0
 21
1469.156427243134
 31
0.0
  0
INSERT
  5
5C7
330
5C2
100
AcDbEntity
  8
MODEL
 62
     0
370
    -2
100
AcDbBlockReference
  2
_DOT
 10
8.553477427310556
 20
1469.156427243134
 30
0.0
 41
6.0
 42
6.0
 43
6.0
 50
180.0
  0
INSERT
  5
5C8
330
5C2
100
AcDbEntity
  8
MODEL
 62
     0
370
    -2
100
AcDbBlockReference
  2
_DOT
 10
0.0
 20
1469.156427243134
 30
0.0
 41
6.0
 42
6.0
 43
6.0
  0
MTEXT
  5
5C9
330
5C2
100
AcDbEntity
  8
MODEL
  6
Continuous
 62
     0
370
     0
100
AcDbMText
 10
4.276738713655278
 20
1485.156427243134
 30
0.0
 40
12.0
 41
0.0
 46
0.0
 71
     5
 72
     1
  1
\A1;9
  7
ＭＳ ゴシック
 73
     1
 44
1.0
  0
POINT
  5
5CA
330
5C2
100
AcDbEntity
  8
Defpoints
 62
     0
100
AcDbPoint
 10
8.553477427310556
 20
1423.878337120723
 30
0.0
  0
POINT
  5
5CB
330
5C2
100
AcDbEntity
  8
Defpoints
 62
     0
100
AcDbPoint
 10
0.0
 20
1423.878337120723
 30
0.0
  0
POINT
  5
5CC
330
5C2
100
AcDbEntity
  8
Defpoints
 62
     0
100
AcDbPoint
 10
0.0
 20
1469.156427243134
 30
0.0
  0
ENDBLK
  5
5CE
330
5C2
100
AcDbEntity
  8
0
100
AcDbBlockEnd
  0
BLOCK
  5
5DB
330
5D0
100
AcDbEntity
  8
0
100
AcDbBlockBegin
  2
*D40
 70
     1
 10
0.0
 20
0.0
 30
0.0
  3
*D40
  1
*D40
  0
LINE
  5
5D1
330
5D0
100
AcDbEntity
  8
MODEL
  6
Continuous
 62
     0
370
    -2
100
AcDbLine
 10
983.5534774273104
 20
1404.251301444297
 30
0.0
 11
983.5534774273104
 21
1463.900137607118
 31
0.0
  0
LINE
  5
5D2
330
5D0
100
AcDbEntity
  8
MODEL
  6
Continuous
 62
     0
370
    -2
100
AcDbLine
 10
992.5534774273104
 20
1404.251301444297
 30
0.0
 11
992.5534774273104
 21
1463.900137607118
 31
0.0
  0
LINE
  5
5D3
330
5D0
100
AcDbEntity
  8
MODEL
  6
Continuous
 62
     0
370
    -2
100
AcDbLine
 10
983.5534774273104
 20
1463.900137607118
 30
0.0
 11
971.5534774273104
 21
1463.900137607118
 31
0.0
  0
LINE
  5
5D4
330
5D0
100
AcDbEntity
  8
MODEL
  6
Continuous
 62
     0
370
    -2
100
AcDbLine
 10
992.5534774273104
 20
1463.900137607118
 30
0.0
 11
1004.55347742731
 21
1463.900137607118
 31
0.0
  0
INSERT
  5
5D5
330
5D0
100
AcDbEntity
  8
MODEL
 62
     0
370
    -2
100
AcDbBlockReference
  2
_DOT
 10
983.5534774273104
 20
1463.900137607118
 30
0.0
 41
6.0
 42
6.0
 43
6.0
  0
INSERT
  5
5D6
330
5D0
100
AcDbEntity
  8
MODEL
 62
     0
370
    -2
100
AcDbBlockReference
  2
_DOT
 10
992.5534774273104
 20
1463.900137607118
 30
0.0
 41
6.0
 42
6.0
 43
6.0
 50
180.0
  0
MTEXT
  5
5D7
330
5D0
100
AcDbEntity
  8
MODEL
  6
Continuous
 62
     0
370
     0
100
AcDbMText
 10
988.0534774273104
 20
1479.900137607118
 30
0.0
 40
12.0
 41
0.0
 46
0.0
 71
     5
 72
     1
  1
\A1;9
  7
ＭＳ ゴシック
 73
     1
 44
1.0
  0
POINT
  5
5D8
330
5D0
100
AcDbEntity
  8
Defpoints
 62
     0
100
AcDbPoint
 10
983.5534774273104
 20
1379.251301444297
 30
0.0
  0
POINT
  5
5D9
330
5D0
100
AcDbEntity
  8
Defpoints
 62
     0
100
AcDbPoint
 10
992.5534774273104
 20
1379.251301444297
 30
0.0
  0
POINT
  5
5DA
330
5D0
100
AcDbEntity
  8
Defpoints
 62
     0
100
AcDbPoint
 10
992.5534774273104
 20
1463.900137607118
 30
0.0
  0
ENDBLK
  5
5DC
330
5D0
100
AcDbEntity
  8
0
100
AcDbBlockEnd
  0
BLOCK
  5
660
330
656
100
AcDbEntity
  8
0
100
AcDbBlockBegin
  2
*D41
 70
     1
 10
0.0
 20
0.0
 30
0.0
  3
*D41
  1
*D41
  0
LINE
  5
657
330
656
100
AcDbEntity
  8
MODEL
  6
Continuous
 62
     0
370
    -2
100
AcDbLine
 10
461.1186201844516
 20
877.2129712682115
 30
0.0
 11
420.7089418279587
 21
877.2129712682115
 31
0.0
  0
LINE
  5
658
330
656
100
AcDbEntity
  8
MODEL
  6
Continuous
 62
     0
370
    -2
100
AcDbLine
 10
461.1186201844516
 20
702.2129712682115
 30
0.0
 11
420.7089418279587
 21
702.2129712682115
 31
0.0
  0
LINE
  5
659
330
656
100
AcDbEntity
  8
MODEL
  6
Continuous
 62
     0
370
    -2
100
AcDbLine
 10
420.7089418279587
 20
871.2129712682115
 30
0.0
 11
420.7089418279587
 21
708.2129712682115
 31
0.0
  0
INSERT
  5
65A
330
656
100
AcDbEntity
  8
MODEL
 62
     0
370
    -2
100
AcDbBlockReference
  2
_DOT
 10
420.7089418279587
 20
877.2129712682115
 30
0.0
 41
6.0
 42
6.0
 43
6.0
 50
90.0
  0
INSERT
  5
65B
330
656
100
AcDbEntity
  8
MODEL
 62
     0
370
    -2
100
AcDbBlockReference
  2
_DOT
 10
420.7089418279587
 20
702.2129712682115
 30
0.0
 41
6.0
 42
6.0
 43
6.0
 50
270.0
  0
MTEXT
  5
65C
330
656
100
AcDbEntity
  8
MODEL
  6
Continuous
 62
     0
370
     0
100
AcDbMText
 10
404.7089418279587
 20
789.7129712682115
 30
0.0
 40
12.0
 41
0.0
 46
0.0
 71
     5
 72
     1
  1
\A1;175
  7
ＭＳ ゴシック
 11
0.0
 21
1.0
 31
0.0
 73
     1
 44
1.0
  0
POINT
  5
65D
330
656
100
AcDbEntity
  8
Defpoints
 62
     0
100
AcDbPoint
 10
486.1186201844516
 20
877.2129712682115
 30
0.0
  0
POINT
  5
65E
330
656
100
AcDbEntity
  8
Defpoints
 62
     0
100
AcDbPoint
 10
486.1186201844516
 20
702.2129712682115
 30
0.0
  0
POINT
  5
65F
330
656
100
AcDbEntity
  8
Defpoints
 62
     0
100
AcDbPoint
 10
420.7089418279587
 20
702.2129712682115
 30
0.0
  0
ENDBLK
  5
661
330
656
100
AcDbEntity
  8
0
100
AcDbBlockEnd
  0
BLOCK
  5
68B
330
68A
100
AcDbEntity
  8
0
100
AcDbBlockBegin
  2
名称未設定-1
 70
     0
 10
0.0
 20
0.0
 30
0.0
  3
名称未設定-1
  1
名称未設定-1
  0
INSERT
  5
68C
330
68A
100
AcDbEntity
  8
レイヤー 1
100
AcDbBlockReference
  2
block 2
 10
0.0
 20
0.0
 30
0.0
  0
ENDBLK
  5
6B1
330
68A
100
AcDbEntity
  8
0
100
AcDbBlockEnd
  0
BLOCK
  5
68E
330
68D
100
AcDbEntity
  8
0
100
AcDbBlockBegin
  2
block 2
 70
     0
 10
0.0
 20
0.0
 30
0.0
  3
block 2
  1
block 2
  0
INSERT
  5
68F
330
68D
100
AcDbEntity
  8
レイヤー 1
100
AcDbBlockReference
  2
block 3
 10
0.0
 20
0.0
 30
0.0
  0
ENDBLK
  5
6B0
330
68D
100
AcDbEntity
  8
0
100
AcDbBlockEnd
  0
BLOCK
  5
691
330
690
100
AcDbEntity
  8
0
100
AcDbBlockBegin
  2
block 3
 70
     0
 10
0.0
 20
0.0
 30
0.0
  3
block 3
  1
block 3
  0
INSERT
  5
692
330
690
100
AcDbEntity
  8
レイヤー 1
100
AcDbBlockReference
  2
block 4
 10
0.0
 20
0.0
 30
0.0
  0
ENDBLK
  5
6AF
330
690
100
AcDbEntity
  8
0
100
AcDbBlockEnd
  0
BLOCK
  5
694
330
693
100
AcDbEntity
  8
0
100
AcDbBlockBegin
  2
block 4
 70
     0
 10
0.0
 20
0.0
 30
0.0
  3
block 4
  1
block 4
  0
POLYLINE
  5
695
330
693
100
AcDbEntity
  8
レイヤー 1
370
     0
100
AcDb2dPolyline
 66
     1
 10
0.0
 20
0.0
 30
0.0
  0
VERTEX
  5
696
330
695
100
AcDbEntity
  8
レイヤー 1
370
     0
100
AcDbVertex
100
AcDb2dVertex
 10
83.79545727667795
 20
167.6444858234922
 30
0.0
  0
VERTEX
  5
697
330
695
100
AcDbEntity
  8
レイヤー 1
370
     0
100
AcDbVertex
100
AcDb2dVertex
 10
83.79545727667795
 20
159.7968976406313
 30
0.0
  0
VERTEX
  5
698
330
695
100
AcDbEntity
  8
レイヤー 1
370
     0
100
AcDbVertex
100
AcDb2dVertex
 10
71.3631329975216
 20
159.7968976406313
 30
0.0
  0
VERTEX
  5
699
330
695
100
AcDbEntity
  8
レイヤー 1
370
     0
100
AcDbVertex
100
AcDb2dVertex
 10
71.3631329975216
 20
127.8027915271048
 30
0.0
  0
VERTEX
  5
69A
330
695
100
AcDbEntity
  8
レイヤー 1
370
     0
100
AcDbVertex
100
AcDb2dVertex
 10
60.43011526263018
 20
127.8027915271048
 30
0.0
  0
VERTEX
  5
69B
330
695
100
AcDbEntity
  8
レイヤー 1
370
     0
100
AcDbVertex
100
AcDb2dVertex
 10
60.43011526263018
 20
159.7968976406313
 30
0.0
  0
VERTEX
  5
69C
330
695
100
AcDbEntity
  8
レイヤー 1
370
     0
100
AcDbVertex
100
AcDb2dVertex
 10
48.21793273020759
 20
159.7968976406313
 30
0.0
  0
VERTEX
  5
69D
330
695
100
AcDbEntity
  8
レイヤー 1
370
     0
100
AcDbVertex
100
AcDb2dVertex
 10
48.21793273020759
 20
167.6444858234922
 30
0.0
  0
VERTEX
  5
69E
330
695
100
AcDbEntity
  8
レイヤー 1
370
     0
100
AcDbVertex
100
AcDb2dVertex
 10
83.79545727667795
 20
167.6444858234922
 30
0.0
  0
SEQEND
  5
69F
330
695
100
AcDbEntity
  8
レイヤー 1
370
     0
  0
HATCH
  5
6A0
330
693
100
AcDbEntity
  8
レイヤー 1
 62
   250
420
  2234388
100
AcDbHatch
 10
0.0
 20
0.0
 30
0.0
210
0.0
220
0.0
230
1.0
  2
SOLID
 70
     1
 71
     0
 91
        1
 92
        1
 93
        8
 72
     1
 10
83.79545727667795
 20
167.6444858234922
 11
83.79545727667795
 21
159.7968976406313
 72
     1
 10
83.79545727667795
 20
159.7968976406313
 11
71.3631329975216
 21
159.7968976406313
 72
     1
 10
71.3631329975216
 20
159.7968976406313
 11
71.3631329975216
 21
127.8027915271048
 72
     1
 10
71.3631329975216
 20
127.8027915271048
 11
60.43011526263018
 21
127.8027915271048
 72
     1
 10
60.43011526263018
 20
127.8027915271048
 11
60.43011526263018
 21
159.7968976406313
 72
     1
 10
60.43011526263018
 20
159.7968976406313
 11
48.21793273020759
 21
159.7968976406313
 72
     1
 10
48.21793273020759
 20
159.7968976406313
 11
48.21793273020759
 21
167.6444858234922
 72
     1
 10
48.21793273020759
 20
167.6444858234922
 11
83.79545727667795
 21
167.6444858234922
 97
        0
 75
     2
 76
     1
 98
        0
  0
INSERT
  5
6A1
330
693
100
AcDbEntity
  8
レイヤー 1
100
AcDbBlockReference
  2
block 5
 10
0.0
 20
0.0
 30
0.0
  0
ENDBLK
  5
6AE
330
693
100
AcDbEntity
  8
0
100
AcDbBlockEnd
  0
BLOCK
  5
6A3
330
6A2
100
AcDbEntity
  8
0
100
AcDbBlockBegin
  2
block 5
 70
     0
 10
0.0
 20
0.0
 30
0.0
  3
block 5
  1
block 5
  0
SPLINE
  5
6A4
330
6A2
100
AcDbEntity
  8
レイヤー 1
370
     0
100
AcDbSpline
210
0.0
220
0.0
230
1.0
 70
    11
 71
     3
 72
    56
 73
    52
 74
     0
 42
0.000000001
 43
0.0000000001
 40
0.0
 40
0.0
 40
0.0
 40
0.0
 40
1.0
 40
1.0
 40
1.0
 40
2.0
 40
2.0
 40
2.0
 40
3.0
 40
3.0
 40
3.0
 40
4.0
 40
4.0
 40
4.0
 40
5.0
 40
5.0
 40
5.0
 40
6.0
 40
6.0
 40
6.0
 40
7.0
 40
7.0
 40
7.0
 40
8.0
 40
8.0
 40
8.0
 40
9.0
 40
9.0
 40
9.0
 40
10.0
 40
10.0
 40
10.0
 40
11.0
 40
11.0
 40
11.0
 40
12.0
 40
12.0
 40
12.0
 40
13.0
 40
13.0
 40
13.0
 40
14.0
 40
14.0
 40
14.0
 40
15.0
 40
15.0
 40
15.0
 40
16.0
 40
16.0
 40
16.0
 40
17.0
 40
17.0
 40
17.0
 40
17.0
 10
100.4504378777679
 20
166.69157178364
 30
0.0
 10
101.9848844191641
 20
167.1313385124438
 30
0.0
 10
103.9637485713373
 20
166.7649523658846
 30
0.0
 10
103.9637485713373
 20
166.7649523658846
 30
0.0
 10
103.9637485713373
 20
166.7649523658846
 30
0.0
 10
103.0132460999156
 20
163.911205638077
 30
0.0
 10
103.0132460999156
 20
163.911205638077
 30
0.0
 10
103.0132460999156
 20
163.911205638077
 30
0.0
 10
101.0674548862189
 20
164.3601018759394
 30
0.0
 10
99.57090442016032
 20
163.1805004036133
 30
0.0
 10
98.40508333886608
 20
162.258247733807
 30
0.0
 10
97.65301849830304
 20
159.804132345923
 30
0.0
 10
97.3598406791005
 20
158.8699940888517
 30
0.0
 10
97.3598406791005
 20
158.8699940888517
 30
0.0
 10
96.07137411762282
 20
154.9119212747295
 30
0.0
 10
96.07137411762282
 20
154.9119212747295
 30
0.0
 10
96.07137411762282
 20
154.9119212747295
 30
0.0
 10
100.3012651448482
 20
154.9119212747295
 30
0.0
 10
100.3012651448482
 20
154.9119212747295
 30
0.0
 10
100.3012651448482
 20
154.9119212747295
 30
0.0
 10
99.64152892419852
 20
152.4199098115079
 30
0.0
 10
99.64152892419852
 20
152.4199098115079
 30
0.0
 10
99.64152892419852
 20
152.4199098115079
 30
0.0
 10
95.38097652692731
 20
152.4199098115079
 30
0.0
 10
95.38097652692731
 20
152.4199098115079
 30
0.0
 10
95.38097652692731
 20
152.4199098115079
 30
0.0
 10
87.75353009080013
 20
127.8027915271048
 30
0.0
 10
87.75353009080013
 20
127.8027915271048
 30
0.0
 10
87.75353009080013
 20
127.8027915271048
 30
0.0
 10
85.36538832498108
 20
127.8027915271048
 30
0.0
 10
85.36538832498108
 20
127.8027915271048
 30
0.0
 10
85.36538832498108
 20
127.8027915271048
 30
0.0
 10
93.00006946639998
 20
152.4199098115079
 30
0.0
 10
93.00006946639998
 20
152.4199098115079
 30
0.0
 10
93.00006946639998
 20
152.4199098115079
 30
0.0
 10
89.85297266450198
 20
152.4199098115079
 30
0.0
 10
89.85297266450198
 20
152.4199098115079
 30
0.0
 10
89.85297266450198
 20
152.4199098115079
 30
0.0
 10
90.51270888515164
 20
154.9119212747295
 30
0.0
 10
90.51270888515164
 20
154.9119212747295
 30
0.0
 10
90.51270888515164
 20
154.9119212747295
 30
0.0
 10
93.6904670570955
 20
154.9119212747295
 30
0.0
 10
93.6904670570955
 20
154.9119212747295
 30
0.0
 10
93.6904670570955
 20
154.9119212747295
 30
0.0
 10
94.81598049462158
 20
158.3616699146644
 30
0.0
 10
94.81598049462158
 20
158.3616699146644
 30
0.0
 10
95.7237637538445
 20
161.2605474231013
 30
0.0
 10
96.4968436907311
 20
162.8139420021662
 30
0.0
 10
97.15657991138076
 20
163.9844139654337
 30
0.0
 10
97.81183750494507
 20
165.1523021053827
 30
0.0
 10
99.1047826935081
 20
166.3084769129547
 30
0.0
 10
100.4504378777679
 20
166.69157178364
 30
0.0
  0
HATCH
  5
6A5
330
6A2
100
AcDbEntity
  8
レイヤー 1
 62
   250
420
  2234388
100
AcDbHatch
 10
0.0
 20
0.0
 30
0.0
210
0.0
220
0.0
230
1.0
  2
SOLID
 70
     1
 71
     0
 91
        1
 92
        1
 93
        1
 72
     4
 94
        3
 73
     0
 74
     1
 95
       56
 96
       52
 40
0.0
 40
0.0
 40
0.0
 40
0.0
 40
1.0
 40
1.0
 40
1.0
 40
2.0
 40
2.0
 40
2.0
 40
3.0
 40
3.0
 40
3.0
 40
4.0
 40
4.0
 40
4.0
 40
5.0
 40
5.0
 40
5.0
 40
6.0
 40
6.0
 40
6.0
 40
7.0
 40
7.0
 40
7.0
 40
8.0
 40
8.0
 40
8.0
 40
9.0
 40
9.0
 40
9.0
 40
10.0
 40
10.0
 40
10.0
 40
11.0
 40
11.0
 40
11.0
 40
12.0
 40
12.0
 40
12.0
 40
13.0
 40
13.0
 40
13.0
 40
14.0
 40
14.0
 40
14.0
 40
15.0
 40
15.0
 40
15.0
 40
16.0
 40
16.0
 40
16.0
 40
17.0
 40
17.0
 40
17.0
 40
17.0
 10
100.4504378777679
 20
166.69157178364
 10
101.9848844191641
 20
167.1313385124438
 10
103.9637485713373
 20
166.7649523658846
 10
103.9637485713373
 20
166.7649523658846
 10
103.9637485713373
 20
166.7649523658846
 10
103.0132460999156
 20
163.911205638077
 10
103.0132460999156
 20
163.911205638077
 10
103.0132460999156
 20
163.911205638077
 10
101.0674548862189
 20
164.3601018759394
 10
99.57090442016032
 20
163.1805004036133
 10
98.40508333886608
 20
162.258247733807
 10
97.65301849830304
 20
159.804132345923
 10
97.3598406791005
 20
158.8699940888517
 10
97.3598406791005
 20
158.8699940888517
 10
96.07137411762282
 20
154.9119212747295
 10
96.07137411762282
 20
154.9119212747295
 10
96.07137411762282
 20
154.9119212747295
 10
100.3012651448482
 20
154.9119212747295
 10
100.3012651448482
 20
154.9119212747295
 10
100.3012651448482
 20
154.9119212747295
 10
99.64152892419852
 20
152.4199098115079
 10
99.64152892419852
 20
152.4199098115079
 10
99.64152892419852
 20
152.4199098115079
 10
95.38097652692731
 20
152.4199098115079
 10
95.38097652692731
 20
152.4199098115079
 10
95.38097652692731
 20
152.4199098115079
 10
87.75353009080013
 20
127.8027915271048
 10
87.75353009080013
 20
127.8027915271048
 10
87.75353009080013
 20
127.8027915271048
 10
85.36538832498108
 20
127.8027915271048
 10
85.36538832498108
 20
127.8027915271048
 10
85.36538832498108
 20
127.8027915271048
 10
93.00006946639998
 20
152.4199098115079
 10
93.00006946639998
 20
152.4199098115079
 10
93.00006946639998
 20
152.4199098115079
 10
89.85297266450198
 20
152.4199098115079
 10
89.85297266450198
 20
152.4199098115079
 10
89.85297266450198
 20
152.4199098115079
 10
90.51270888515164
 20
154.9119212747295
 10
90.51270888515164
 20
154.9119212747295
 10
90.51270888515164
 20
154.9119212747295
 10
93.6904670570955
 20
154.9119212747295
 10
93.6904670570955
 20
154.9119212747295
 10
93.6904670570955
 20
154.9119212747295
 10
94.81598049462158
 20
158.3616699146644
 10
94.81598049462158
 20
158.3616699146644
 10
95.7237637538445
 20
161.2605474231013
 10
96.4968436907311
 20
162.8139420021662
 10
97.15657991138076
 20
163.9844139654337
 10
97.81183750494507
 20
165.1523021053827
 10
99.1047826935081
 20
166.3084769129547
 10
100.4504378777679
 20
166.69157178364
 97
        0
 75
     2
 76
     1
 98
        0
  0
SPLINE
  5
6A6
330
6A2
100
AcDbEntity
  8
レイヤー 1
370
     0
100
AcDbSpline
210
0.0
220
0.0
230
1.0
 70
    11
 71
     3
 72
    38
 73
    34
 74
     0
 42
0.000000001
 43
0.0000000001
 40
0.0
 40
0.0
 40
0.0
 40
0.0
 40
1.0
 40
1.0
 40
1.0
 40
2.0
 40
2.0
 40
2.0
 40
3.0
 40
3.0
 40
3.0
 40
4.0
 40
4.0
 40
4.0
 40
5.0
 40
5.0
 40
5.0
 40
6.0
 40
6.0
 40
6.0
 40
7.0
 40
7.0
 40
7.0
 40
8.0
 40
8.0
 40
8.0
 40
9.0
 40
9.0
 40
9.0
 40
10.0
 40
10.0
 40
10.0
 40
11.0
 40
11.0
 40
11.0
 40
11.0
 10
126.377554584636
 20
154.8151140277308
 30
0.0
 10
126.377554584636
 20
154.8151140277308
 30
0.0
 10
128.8311532078563
 20
154.8151140277308
 30
0.0
 10
128.8311532078563
 20
154.8151140277308
 30
0.0
 10
128.8311532078563
 20
154.8151140277308
 30
0.0
 10
127.7345785914971
 20
151.3062819612468
 30
0.0
 10
127.7345785914971
 20
151.3062819612468
 30
0.0
 10
128.571392836906
 20
152.2922689395754
 30
0.0
 10
129.8860421413442
 20
153.604506675583
 30
0.0
 10
131.0163787157314
 20
154.2664822097754
 30
0.0
 10
132.7044766171327
 20
155.2500576196734
 30
0.0
 10
133.6642808525008
 20
155.3847609420097
 30
0.0
 10
134.7284715499351
 20
155.3565111403944
 30
0.0
 10
134.7284715499351
 20
155.3565111403944
 30
0.0
 10
133.6877075172549
 20
152.0345756272799
 30
0.0
 10
133.6877075172549
 20
152.0345756272799
 30
0.0
 10
133.011434827367
 20
152.3184516825359
 30
0.0
 10
130.930940291334
 20
151.7768823149844
 30
0.0
 10
129.739280976855
 20
150.9162968950455
 30
0.0
 10
128.66613302525
 20
150.1454562717016
 30
0.0
 10
127.9192358313239
 20
149.4857200510519
 30
0.0
 10
127.0393578639405
 20
147.8282835196966
 30
0.0
 10
126.164647543194
 20
146.1699857139017
 30
0.0
 10
125.4742499524985
 20
143.5262176944419
 30
0.0
 10
124.2822461282437
 20
139.6959580071401
 30
0.0
 10
124.2822461282437
 20
139.6959580071401
 30
0.0
 10
120.5753209406769
 20
127.8027915271048
 30
0.0
 10
120.5753209406769
 20
127.8027915271048
 30
0.0
 10
120.5753209406769
 20
127.8027915271048
 30
0.0
 10
118.1964809388044
 20
127.8027915271048
 30
0.0
 10
118.1964809388044
 20
127.8027915271048
 30
0.0
 10
118.1964809388044
 20
127.8027915271048
 30
0.0
 10
126.377554584636
 20
154.8151140277308
 30
0.0
 10
126.377554584636
 20
154.8151140277308
 30
0.0
  0
HATCH
  5
6A7
330
6A2
100
AcDbEntity
  8
レイヤー 1
 62
   250
420
  2234388
100
AcDbHatch
 10
0.0
 20
0.0
 30
0.0
210
0.0
220
0.0
230
1.0
  2
SOLID
 70
     1
 71
     0
 91
        1
 92
        1
 93
        1
 72
     4
 94
        3
 73
     0
 74
     1
 95
       38
 96
       34
 40
0.0
 40
0.0
 40
0.0
 40
0.0
 40
1.0
 40
1.0
 40
1.0
 40
2.0
 40
2.0
 40
2.0
 40
3.0
 40
3.0
 40
3.0
 40
4.0
 40
4.0
 40
4.0
 40
5.0
 40
5.0
 40
5.0
 40
6.0
 40
6.0
 40
6.0
 40
7.0
 40
7.0
 40
7.0
 40
8.0
 40
8.0
 40
8.0
 40
9.0
 40
9.0
 40
9.0
 40
10.0
 40
10.0
 40
10.0
 40
11.0
 40
11.0
 40
11.0
 40
11.0
 10
126.377554584636
 20
154.8151140277308
 10
126.377554584636
 20
154.8151140277308
 10
128.8311532078563
 20
154.8151140277308
 10
128.8311532078563
 20
154.8151140277308
 10
128.8311532078563
 20
154.8151140277308
 10
127.7345785914971
 20
151.3062819612468
 10
127.7345785914971
 20
151.3062819612468
 10
128.571392836906
 20
152.2922689395754
 10
129.8860421413442
 20
153.604506675583
 10
131.0163787157314
 20
154.2664822097754
 10
132.7044766171327
 20
155.2500576196734
 10
133.6642808525008
 20
155.3847609420097
 10
134.7284715499351
 20
155.3565111403944
 10
134.7284715499351
 20
155.3565111403944
 10
133.6877075172549
 20
152.0345756272799
 10
133.6877075172549
 20
152.0345756272799
 10
133.011434827367
 20
152.3184516825359
 10
130.930940291334
 20
151.7768823149844
 10
129.739280976855
 20
150.9162968950455
 10
128.66613302525
 20
150.1454562717016
 10
127.9192358313239
 20
149.4857200510519
 10
127.0393578639405
 20
147.8282835196966
 10
126.164647543194
 20
146.1699857139017
 10
125.4742499524985
 20
143.5262176944419
 10
124.2822461282437
 20
139.6959580071401
 10
124.2822461282437
 20
139.6959580071401
 10
120.5753209406769
 20
127.8027915271048
 10
120.5753209406769
 20
127.8027915271048
 10
120.5753209406769
 20
127.8027915271048
 10
118.1964809388044
 20
127.8027915271048
 10
118.1964809388044
 20
127.8027915271048
 10
118.1964809388044
 20
127.8027915271048
 10
126.377554584636
 20
154.8151140277308
 10
126.377554584636
 20
154.8151140277308
 97
        0
 75
     2
 76
     1
 98
        0
  0
SPLINE
  5
6A8
330
6A2
100
AcDbEntity
  8
レイヤー 1
370
     0
100
AcDbSpline
210
0.0
220
0.0
230
1.0
 70
    11
 71
     3
 72
   104
 73
   100
 74
     0
 42
0.000000001
 43
0.0000000001
 40
0.0
 40
0.0
 40
0.0
 40
0.0
 40
1.0
 40
1.0
 40
1.0
 40
2.0
 40
2.0
 40
2.0
 40
3.0
 40
3.0
 40
3.0
 40
4.0
 40
4.0
 40
4.0
 40
5.0
 40
5.0
 40
5.0
 40
6.0
 40
6.0
 40
6.0
 40
7.0
 40
7.0
 40
7.0
 40
8.0
 40
8.0
 40
8.0
 40
9.0
 40
9.0
 40
9.0
 40
10.0
 40
10.0
 40
10.0
 40
11.0
 40
11.0
 40
11.0
 40
12.0
 40
12.0
 40
12.0
 40
13.0
 40
13.0
 40
13.0
 40
14.0
 40
14.0
 40
14.0
 40
15.0
 40
15.0
 40
15.0
 40
16.0
 40
16.0
 40
16.0
 40
17.0
 40
17.0
 40
17.0
 40
18.0
 40
18.0
 40
18.0
 40
19.0
 40
19.0
 40
19.0
 40
20.0
 40
20.0
 40
20.0
 40
21.0
 40
21.0
 40
21.0
 40
22.0
 40
22.0
 40
22.0
 40
23.0
 40
23.0
 40
23.0
 40
24.0
 40
24.0
 40
24.0
 40
25.0
 40
25.0
 40
25.0
 40
26.0
 40
26.0
 40
26.0
 40
27.0
 40
27.0
 40
27.0
 40
28.0
 40
28.0
 40
28.0
 40
29.0
 40
29.0
 40
29.0
 40
30.0
 40
30.0
 40
30.0
 40
31.0
 40
31.0
 40
31.0
 40
32.0
 40
32.0
 40
32.0
 40
33.0
 40
33.0
 40
33.0
 40
33.0
 10
139.8926730891197
 20
154.8294111834263
 30
0.0
 10
139.8926730891197
 20
154.8294111834263
 30
0.0
 10
142.0344903652445
 20
154.8294111834263
 30
0.0
 10
142.0344903652445
 20
154.8294111834263
 30
0.0
 10
142.0344903652445
 20
154.8294111834263
 30
0.0
 10
140.9516961399171
 20
151.3157559800812
 30
0.0
 10
140.9516961399171
 20
151.3157559800812
 30
0.0
 10
141.8928968473923
 20
152.7887075264977
 30
0.0
 10
142.7341897198865
 20
153.4484437471474
 30
0.0
 10
143.8552245303272
 20
154.2926649527359
 30
0.0
 10
144.9803934580775
 20
155.1296514530327
 30
0.0
 10
146.3139908001845
 20
155.3044901642492
 30
0.0
 10
147.241066606852
 20
155.3044901642492
 30
0.0
 10
148.3855280820469
 20
155.3044901642492
 30
0.0
 10
149.4969166187653
 20
155.0752189084569
 30
0.0
 10
150.0784491203092
 20
153.8172414621372
 30
0.0
 10
150.5228667310863
 20
152.833838307127
 30
0.0
 10
150.5414702589793
 20
152.7201500811143
 30
0.0
 10
150.4140016419347
 20
150.7765981809602
 30
0.0
 10
151.5818897818837
 20
152.7699317437168
 30
0.0
 10
152.4424752018226
 20
153.6256940267945
 30
0.0
 10
153.9038856707499
 20
154.4507949398263
 30
0.0
 10
155.4455669174378
 20
155.3044901642492
 30
0.0
 10
156.339225275853
 20
155.3659851592288
 30
0.0
 10
157.3748216618963
 20
155.2147453676543
 30
0.0
 10
158.911679771723
 20
154.9877134254046
 30
0.0
 10
159.8859534176746
 20
154.4390816074493
 30
0.0
 10
160.3965169054045
 20
152.7816450760939
 30
0.0
 10
160.9070803931344
 20
151.1219692311958
 30
0.0
 10
160.6328506116007
 20
150.2303779314354
 30
0.0
 10
159.9992971339115
 20
147.597634224801
 30
0.0
 10
159.7105979417943
 20
146.4014962832367
 30
0.0
 10
159.2947746424084
 20
144.9400858143094
 30
0.0
 10
158.7463150793409
 20
143.2092687007094
 30
0.0
 10
158.7463150793409
 20
143.2092687007094
 30
0.0
 10
153.9038856707499
 20
127.8027915271048
 30
0.0
 10
153.9038856707499
 20
127.8027915271048
 30
0.0
 10
153.9038856707499
 20
127.8027915271048
 30
0.0
 10
151.3882752878863
 20
127.8027915271048
 30
0.0
 10
151.3882752878863
 20
127.8027915271048
 30
0.0
 10
151.3882752878863
 20
127.8027915271048
 30
0.0
 10
155.6250565106276
 20
141.2751908193897
 30
0.0
 10
155.6250565106276
 20
141.2751908193897
 30
0.0
 10
156.5094131050963
 20
144.0936252951782
 30
0.0
 10
157.109893644309
 20
146.1506931664571
 30
0.0
 10
157.4220195011804
 20
147.4415712963654
 30
0.0
 10
157.8095929989511
 20
149.0530157726519
 30
0.0
 10
157.9656559273867
 20
149.5826995529385
 30
0.0
 10
157.7816877071116
 20
150.7529992613181
 30
0.0
 10
157.6111553680925
 20
151.8430281919372
 30
0.0
 10
157.0582171779396
 20
152.5547853887321
 30
0.0
 10
156.1170164704645
 20
152.5547853887321
 30
0.0
 10
155.1096698860365
 20
152.5547853887321
 30
0.0
 10
154.2962823053817
 20
152.4412694176073
 30
0.0
 10
153.156643967048
 20
151.2945686288697
 30
0.0
 10
152.0170056287143
 20
150.1476955852443
 30
0.0
 10
151.076149431015
 20
148.7930831468137
 30
0.0
 10
150.3337308641742
 20
147.2290087646991
 30
0.0
 10
149.5957909244188
 20
145.6683794803425
 30
0.0
 10
148.8530278478023
 20
143.6822806228776
 30
0.0
 10
148.0964843801539
 20
141.2751908193897
 30
0.0
 10
148.0964843801539
 20
141.2751908193897
 30
0.0
 10
143.8552245303272
 20
127.8027915271048
 30
0.0
 10
143.8552245303272
 20
127.8027915271048
 30
0.0
 10
143.8552245303272
 20
127.8027915271048
 30
0.0
 10
141.486030802177
 20
127.8027915271048
 30
0.0
 10
141.486030802177
 20
127.8027915271048
 30
0.0
 10
141.486030802177
 20
127.8027915271048
 30
0.0
 10
146.3329388378533
 20
143.2092687007094
 30
0.0
 10
146.3329388378533
 20
143.2092687007094
 30
0.0
 10
146.8483254624444
 20
144.8408669988801
 30
0.0
 10
147.2314203331297
 20
146.1837661049335
 30
0.0
 10
147.4867020769946
 20
147.224185627838
 30
0.0
 10
147.9169947869641
 20
149.0197705792876
 30
0.0
 10
148.0306830129768
 20
150.2400242051577
 30
0.0
 10
147.709255392159
 20
151.3157559800812
 30
0.0
 10
147.3874832615654
 20
152.3916600098926
 30
0.0
 10
146.8245542879144
 20
152.6683013598569
 30
0.0
 10
145.8840425999909
 20
152.6683013598569
 30
0.0
 10
145.0989048209514
 20
152.6683013598569
 30
0.0
 10
144.3282364524954
 20
152.3275811915945
 30
0.0
 10
143.4531816219731
 20
151.6538923250251
 30
0.0
 10
142.34627171234
 20
150.8074318058939
 30
0.0
 10
141.901854101563
 20
150.1097995099067
 30
0.0
 10
141.3578731655808
 20
149.289521733736
 30
0.0
 10
140.6299240093235
 20
148.192602607601
 30
0.0
 10
140.2850697237515
 20
147.455696197173
 30
0.0
 10
139.6652966370942
 20
145.8385673095858
 30
0.0
 10
139.0506911970739
 20
144.2214384219986
 30
0.0
 10
138.463991048893
 20
142.3252566160164
 30
0.0
 10
138.0571250036777
 20
141.0154304484394
 30
0.0
 10
138.0571250036777
 20
141.0154304484394
 30
0.0
 10
133.9009590684727
 20
127.8027915271048
 30
0.0
 10
133.9009590684727
 20
127.8027915271048
 30
0.0
 10
133.9009590684727
 20
127.8027915271048
 30
0.0
 10
131.4180771143097
 20
127.8027915271048
 30
0.0
 10
131.4180771143097
 20
127.8027915271048
 30
0.0
 10
131.4180771143097
 20
127.8027915271048
 30
0.0
 10
139.8926730891197
 20
154.8294111834263
 30
0.0
 10
139.8926730891197
 20
154.8294111834263
 30
0.0
  0
HATCH
  5
6A9
330
6A2
100
AcDbEntity
  8
レイヤー 1
 62
   250
420
  2234388
100
AcDbHatch
 10
0.0
 20
0.0
 30
0.0
210
0.0
220
0.0
230
1.0
  2
SOLID
 70
     1
 71
     0
 91
        1
 92
        1
 93
        1
 72
     4
 94
        3
 73
     0
 74
     1
 95
      104
 96
      100
 40
0.0
 40
0.0
 40
0.0
 40
0.0
 40
1.0
 40
1.0
 40
1.0
 40
2.0
 40
2.0
 40
2.0
 40
3.0
 40
3.0
 40
3.0
 40
4.0
 40
4.0
 40
4.0
 40
5.0
 40
5.0
 40
5.0
 40
6.0
 40
6.0
 40
6.0
 40
7.0
 40
7.0
 40
7.0
 40
8.0
 40
8.0
 40
8.0
 40
9.0
 40
9.0
 40
9.0
 40
10.0
 40
10.0
 40
10.0
 40
11.0
 40
11.0
 40
11.0
 40
12.0
 40
12.0
 40
12.0
 40
13.0
 40
13.0
 40
13.0
 40
14.0
 40
14.0
 40
14.0
 40
15.0
 40
15.0
 40
15.0
 40
16.0
 40
16.0
 40
16.0
 40
17.0
 40
17.0
 40
17.0
 40
18.0
 40
18.0
 40
18.0
 40
19.0
 40
19.0
 40
19.0
 40
20.0
 40
20.0
 40
20.0
 40
21.0
 40
21.0
 40
21.0
 40
22.0
 40
22.0
 40
22.0
 40
23.0
 40
23.0
 40
23.0
 40
24.0
 40
24.0
 40
24.0
 40
25.0
 40
25.0
 40
25.0
 40
26.0
 40
26.0
 40
26.0
 40
27.0
 40
27.0
 40
27.0
 40
28.0
 40
28.0
 40
28.0
 40
29.0
 40
29.0
 40
29.0
 40
30.0
 40
30.0
 40
30.0
 40
31.0
 40
31.0
 40
31.0
 40
32.0
 40
32.0
 40
32.0
 40
33.0
 40
33.0
 40
33.0
 40
33.0
 10
139.8926730891197
 20
154.8294111834263
 10
139.8926730891197
 20
154.8294111834263
 10
142.0344903652445
 20
154.8294111834263
 10
142.0344903652445
 20
154.8294111834263
 10
142.0344903652445
 20
154.8294111834263
 10
140.9516961399171
 20
151.3157559800812
 10
140.9516961399171
 20
151.3157559800812
 10
141.8928968473923
 20
152.7887075264977
 10
142.7341897198865
 20
153.4484437471474
 10
143.8552245303272
 20
154.2926649527359
 10
144.9803934580775
 20
155.1296514530327
 10
146.3139908001845
 20
155.3044901642492
 10
147.241066606852
 20
155.3044901642492
 10
148.3855280820469
 20
155.3044901642492
 10
149.4969166187653
 20
155.0752189084569
 10
150.0784491203092
 20
153.8172414621372
 10
150.5228667310863
 20
152.833838307127
 10
150.5414702589793
 20
152.7201500811143
 10
150.4140016419347
 20
150.7765981809602
 10
151.5818897818837
 20
152.7699317437168
 10
152.4424752018226
 20
153.6256940267945
 10
153.9038856707499
 20
154.4507949398263
 10
155.4455669174378
 20
155.3044901642492
 10
156.339225275853
 20
155.3659851592288
 10
157.3748216618963
 20
155.2147453676543
 10
158.911679771723
 20
154.9877134254046
 10
159.8859534176746
 20
154.4390816074493
 10
160.3965169054045
 20
152.7816450760939
 10
160.9070803931344
 20
151.1219692311958
 10
160.6328506116007
 20
150.2303779314354
 10
159.9992971339115
 20
147.597634224801
 10
159.7105979417943
 20
146.4014962832367
 10
159.2947746424084
 20
144.9400858143094
 10
158.7463150793409
 20
143.2092687007094
 10
158.7463150793409
 20
143.2092687007094
 10
153.9038856707499
 20
127.8027915271048
 10
153.9038856707499
 20
127.8027915271048
 10
153.9038856707499
 20
127.8027915271048
 10
151.3882752878863
 20
127.8027915271048
 10
151.3882752878863
 20
127.8027915271048
 10
151.3882752878863
 20
127.8027915271048
 10
155.6250565106276
 20
141.2751908193897
 10
155.6250565106276
 20
141.2751908193897
 10
156.5094131050963
 20
144.0936252951782
 10
157.109893644309
 20
146.1506931664571
 10
157.4220195011804
 20
147.4415712963654
 10
157.8095929989511
 20
149.0530157726519
 10
157.9656559273867
 20
149.5826995529385
 10
157.7816877071116
 20
150.7529992613181
 10
157.6111553680925
 20
151.8430281919372
 10
157.0582171779396
 20
152.5547853887321
 10
156.1170164704645
 20
152.5547853887321
 10
155.1096698860365
 20
152.5547853887321
 10
154.2962823053817
 20
152.4412694176073
 10
153.156643967048
 20
151.2945686288697
 10
152.0170056287143
 20
150.1476955852443
 10
151.076149431015
 20
148.7930831468137
 10
150.3337308641742
 20
147.2290087646991
 10
149.5957909244188
 20
145.6683794803425
 10
148.8530278478023
 20
143.6822806228776
 10
148.0964843801539
 20
141.2751908193897
 10
148.0964843801539
 20
141.2751908193897
 10
143.8552245303272
 20
127.8027915271048
 10
143.8552245303272
 20
127.8027915271048
 10
143.8552245303272
 20
127.8027915271048
 10
141.486030802177
 20
127.8027915271048
 10
141.486030802177
 20
127.8027915271048
 10
141.486030802177
 20
127.8027915271048
 10
146.3329388378533
 20
143.2092687007094
 10
146.3329388378533
 20
143.2092687007094
 10
146.8483254624444
 20
144.8408669988801
 10
147.2314203331297
 20
146.1837661049335
 10
147.4867020769946
 20
147.224185627838
 10
147.9169947869641
 20
149.0197705792876
 10
148.0306830129768
 20
150.2400242051577
 10
147.709255392159
 20
151.3157559800812
 10
147.3874832615654
 20
152.3916600098926
 10
146.8245542879144
 20
152.6683013598569
 10
145.8840425999909
 20
152.6683013598569
 10
145.0989048209514
 20
152.6683013598569
 10
144.3282364524954
 20
152.3275811915945
 10
143.4531816219731
 20
151.6538923250251
 10
142.34627171234
 20
150.8074318058939
 10
141.901854101563
 20
150.1097995099067
 10
141.3578731655808
 20
149.289521733736
 10
140.6299240093235
 20
148.192602607601
 10
140.2850697237515
 20
147.455696197173
 10
139.6652966370942
 20
145.8385673095858
 10
139.0506911970739
 20
144.2214384219986
 10
138.463991048893
 20
142.3252566160164
 10
138.0571250036777
 20
141.0154304484394
 10
138.0571250036777
 20
141.0154304484394
 10
133.9009590684727
 20
127.8027915271048
 10
133.9009590684727
 20
127.8027915271048
 10
133.9009590684727
 20
127.8027915271048
 10
131.4180771143097
 20
127.8027915271048
 10
131.4180771143097
 20
127.8027915271048
 10
131.4180771143097
 20
127.8027915271048
 10
139.8926730891197
 20
154.8294111834263
 10
139.8926730891197
 20
154.8294111834263
 97
        0
 75
     2
 76
     1
 98
        0
  0
SPLINE
  5
6AA
330
6A2
100
AcDbEntity
  8
レイヤー 1
370
     0
100
AcDbSpline
210
0.0
220
0.0
230
1.0
 70
    11
 71
     3
 72
    29
 73
    25
 74
     0
 42
0.000000001
 43
0.0000000001
 40
0.0
 40
0.0
 40
0.0
 40
0.0
 40
1.0
 40
1.0
 40
1.0
 40
2.0
 40
2.0
 40
2.0
 40
3.0
 40
3.0
 40
3.0
 40
4.0
 40
4.0
 40
4.0
 40
5.0
 40
5.0
 40
5.0
 40
6.0
 40
6.0
 40
6.0
 40
7.0
 40
7.0
 40
7.0
 40
8.0
 40
8.0
 40
8.0
 40
8.0
 10
101.6420971922469
 20
132.8388354296931
 30
0.0
 10
101.630039350094
 20
134.7164137077823
 30
0.0
 10
102.2236296937908
 20
138.0598810818841
 30
0.0
 10
103.7487744712405
 20
142.5378191476827
 30
0.0
 10
105.819967243327
 20
148.5896501242061
 30
0.0
 10
107.0602024361932
 20
150.8074318058939
 30
0.0
 10
108.1522984254671
 20
151.8833358357054
 30
0.0
 10
109.741177511439
 20
153.4532668840085
 30
0.0
 10
111.8740375333931
 20
153.5290590346837
 30
0.0
 10
112.5075910110823
 20
153.4532668840085
 30
0.0
 10
113.4012493694975
 20
153.3490526768302
 30
0.0
 10
114.6683563248758
 20
152.7580461564518
 30
0.0
 10
114.7493161221879
 20
150.7838328862519
 30
0.0
 10
114.8106388622796
 20
149.0909118479895
 30
0.0
 10
114.3186789024427
 20
145.9191825971221
 30
0.0
 10
112.6164561002338
 20
140.9489400617108
 30
0.0
 10
110.6444821435766
 20
135.1746117095912
 30
0.0
 10
109.4669477299053
 20
132.8960240524753
 30
0.0
 10
108.5212683953448
 20
131.9072809959403
 30
0.0
 10
106.7346406980658
 20
130.0538184021569
 30
0.0
 10
104.8222669326213
 20
130.2336525051225
 30
0.0
 10
104.5408024457958
 20
130.2336525051225
 30
0.0
 10
104.1721769856939
 20
130.2336525051225
 30
0.0
 10
101.6465758193322
 20
130.6305277668397
 30
0.0
 10
101.6420971922469
 20
132.8388354296931
 30
0.0
  0
SPLINE
  5
6AB
330
6A2
100
AcDbEntity
  8
レイヤー 1
370
     0
100
AcDbSpline
210
0.0
220
0.0
230
1.0
 70
    11
 71
     3
 72
    32
 73
    28
 74
     0
 42
0.000000001
 43
0.0000000001
 40
0.0
 40
0.0
 40
0.0
 40
0.0
 40
1.0
 40
1.0
 40
1.0
 40
2.0
 40
2.0
 40
2.0
 40
3.0
 40
3.0
 40
3.0
 40
4.0
 40
4.0
 40
4.0
 40
5.0
 40
5.0
 40
5.0
 40
6.0
 40
6.0
 40
6.0
 40
7.0
 40
7.0
 40
7.0
 40
8.0
 40
8.0
 40
8.0
 40
9.0
 40
9.0
 40
9.0
 40
9.0
 10
106.2595617172429
 20
153.4105476718098
 30
0.0
 10
104.8222669326213
 20
151.5474388043041
 30
0.0
 10
103.7177685914188
 20
149.8758773721411
 30
0.0
 10
101.9232171692965
 20
144.6141795664062
 30
0.0
 10
100.2754269116635
 20
139.7999999594306
 30
0.0
 10
99.22777268346732
 20
136.3052927937542
 30
0.0
 10
99.06964269637689
 20
132.039572749846
 30
0.0
 10
98.94665270641765
 20
128.8673267343149
 30
0.0
 10
100.8807305877373
 20
127.8027915271048
 30
0.0
 10
103.7129454545577
 20
127.8027915271048
 30
0.0
 10
104.9352661390825
 20
127.8027915271048
 30
0.0
 10
108.0151835347002
 20
127.8827177950895
 30
0.0
 10
110.2045431598849
 20
130.5926316915021
 30
0.0
 10
111.7417457794874
 20
132.4984597712065
 30
0.0
 10
113.155269389579
 20
134.475256864725
 30
0.0
 10
115.0562743324223
 20
140.9489400617108
 30
0.0
 10
116.6361961642235
 20
146.3680788349845
 30
0.0
 10
117.7282921534974
 20
149.8639917848761
 30
0.0
 10
117.6480213757369
 20
151.8595646611754
 30
0.0
 10
117.6480213757369
 20
151.8595646611754
 30
0.0
 10
117.6480213757369
 20
151.8595646611754
 30
0.0
 10
117.6480213757369
 20
151.8595646611754
 30
0.0
 10
117.13229024137
 20
155.18150017429
 30
0.0
 10
114.7162431837115
 20
155.886194920681
 30
0.0
 10
113.3351034925446
 20
155.886194920681
 30
0.0
 10
111.9829026225447
 20
155.886194920681
 30
0.0
 10
108.3414342923792
 20
156.1251124501957
 30
0.0
 10
106.2595617172429
 20
153.4105476718098
 30
0.0
  0
HATCH
  5
6AC
330
6A2
100
AcDbEntity
  8
レイヤー 1
 62
   250
420
  2234388
100
AcDbHatch
 10
0.0
 20
0.0
 30
0.0
210
0.0
220
0.0
230
1.0
  2
SOLID
 70
     1
 71
     0
 91
        2
 92
        1
 93
        1
 72
     4
 94
        3
 73
     0
 74
     1
 95
       29
 96
       25
 40
0.0
 40
0.0
 40
0.0
 40
0.0
 40
1.0
 40
1.0
 40
1.0
 40
2.0
 40
2.0
 40
2.0
 40
3.0
 40
3.0
 40
3.0
 40
4.0
 40
4.0
 40
4.0
 40
5.0
 40
5.0
 40
5.0
 40
6.0
 40
6.0
 40
6.0
 40
7.0
 40
7.0
 40
7.0
 40
8.0
 40
8.0
 40
8.0
 40
8.0
 10
101.6420971922469
 20
132.8388354296931
 10
101.630039350094
 20
134.7164137077823
 10
102.2236296937908
 20
138.0598810818841
 10
103.7487744712405
 20
142.5378191476827
 10
105.819967243327
 20
148.5896501242061
 10
107.0602024361932
 20
150.8074318058939
 10
108.1522984254671
 20
151.8833358357054
 10
109.741177511439
 20
153.4532668840085
 10
111.8740375333931
 20
153.5290590346837
 10
112.5075910110823
 20
153.4532668840085
 10
113.4012493694975
 20
153.3490526768302
 10
114.6683563248758
 20
152.7580461564518
 10
114.7493161221879
 20
150.7838328862519
 10
114.8106388622796
 20
149.0909118479895
 10
114.3186789024427
 20
145.9191825971221
 10
112.6164561002338
 20
140.9489400617108
 10
110.6444821435766
 20
135.1746117095912
 10
109.4669477299053
 20
132.8960240524753
 10
108.5212683953448
 20
131.9072809959403
 10
106.7346406980658
 20
130.0538184021569
 10
104.8222669326213
 20
130.2336525051225
 10
104.5408024457958
 20
130.2336525051225
 10
104.1721769856939
 20
130.2336525051225
 10
101.6465758193322
 20
130.6305277668397
 10
101.6420971922469
 20
132.8388354296931
 97
        0
 92
        1
 93
        1
 72
     4
 94
        3
 73
     0
 74
     1
 95
       32
 96
       28
 40
0.0
 40
0.0
 40
0.0
 40
0.0
 40
1.0
 40
1.0
 40
1.0
 40
2.0
 40
2.0
 40
2.0
 40
3.0
 40
3.0
 40
3.0
 40
4.0
 40
4.0
 40
4.0
 40
5.0
 40
5.0
 40
5.0
 40
6.0
 40
6.0
 40
6.0
 40
7.0
 40
7.0
 40
7.0
 40
8.0
 40
8.0
 40
8.0
 40
9.0
 40
9.0
 40
9.0
 40
9.0
 10
106.2595617172429
 20
153.4105476718098
 10
104.8222669326213
 20
151.5474388043041
 10
103.7177685914188
 20
149.8758773721411
 10
101.9232171692965
 20
144.6141795664062
 10
100.2754269116635
 20
139.7999999594306
 10
99.22777268346732
 20
136.3052927937542
 10
99.06964269637689
 20
132.039572749846
 10
98.94665270641765
 20
128.8673267343149
 10
100.8807305877373
 20
127.8027915271048
 10
103.7129454545577
 20
127.8027915271048
 10
104.9352661390825
 20
127.8027915271048
 10
108.0151835347002
 20
127.8827177950895
 10
110.2045431598849
 20
130.5926316915021
 10
111.7417457794874
 20
132.4984597712065
 10
113.155269389579
 20
134.475256864725
 10
115.0562743324223
 20
140.9489400617108
 10
116.6361961642235
 20
146.3680788349845
 10
117.7282921534974
 20
149.8639917848761
 10
117.6480213757369
 20
151.8595646611754
 10
117.6480213757369
 20
151.8595646611754
 10
117.6480213757369
 20
151.8595646611754
 10
117.6480213757369
 20
151.8595646611754
 10
117.13229024137
 20
155.18150017429
 10
114.7162431837115
 20
155.886194920681
 10
113.3351034925446
 20
155.886194920681
 10
111.9829026225447
 20
155.886194920681
 10
108.3414342923792
 20
156.1251124501957
 10
106.2595617172429
 20
153.4105476718098
 97
        0
 75
     2
 76
     1
 98
        0
  0
ENDBLK
  5
6AD
330
6A2
100
AcDbEntity
  8
0
100
AcDbBlockEnd
  0
BLOCK
  5
D88
330
D87
100
AcDbEntity
  8
0
100
AcDbBlockBegin
  2
*D47
 70
     1
 10
0.0
 20
0.0
 30
0.0
  3
*D47
  1
*D47
  0
LINE
  5
D8A
330
D87
100
AcDbEntity
  8
MODEL
  6
Continuous
 62
     0
370
    -2
100
AcDbLine
 10
569.5946292445353
 20
901.9709580668701
 30
0.0
 11
569.5946292445353
 21
946.4099478381838
 31
0.0
  0
LINE
  5
D8B
330
D87
100
AcDbEntity
  8
MODEL
  6
Continuous
 62
     0
370
    -2
100
AcDbLine
 10
769.5946292445353
 20
864.64407784182
 30
0.0
 11
769.5946292445353
 21
946.4099478381838
 31
0.0
  0
LINE
  5
D8C
330
D87
100
AcDbEntity
  8
MODEL
  6
Continuous
 62
     0
370
    -2
100
AcDbLine
 10
575.5946292445353
 20
946.4099478381838
 30
0.0
 11
763.5946292445353
 21
946.4099478381838
 31
0.0
  0
INSERT
  5
D8D
330
D87
100
AcDbEntity
  8
MODEL
 62
     0
370
    -2
100
AcDbBlockReference
  2
_DOT
 10
569.5946292445353
 20
946.4099478381838
 30
0.0
 41
6.0
 42
6.0
 43
6.0
 50
180.0
  0
INSERT
  5
D8E
330
D87
100
AcDbEntity
  8
MODEL
 62
     0
370
    -2
100
AcDbBlockReference
  2
_DOT
 10
769.5946292445353
 20
946.4099478381838
 30
0.0
 41
6.0
 42
6.0
 43
6.0
  0
MTEXT
  5
D8F
330
D87
100
AcDbEntity
  8
MODEL
  6
Continuous
 62
     0
370
     0
100
AcDbMText
 10
669.5946292445353
 20
962.4099478381838
 30
0.0
 40
12.0
 41
0.0
 46
0.0
 71
     5
 72
     1
  1
\A1;200
  7
ＭＳ ゴシック
 73
     1
 44
1.0
  0
POINT
  5
D90
330
D87
100
AcDbEntity
  8
Defpoints
 62
     0
100
AcDbPoint
 10
569.5946292445353
 20
876.9709580668701
 30
0.0
  0
POINT
  5
D91
330
D87
100
AcDbEntity
  8
Defpoints
 62
     0
100
AcDbPoint
 10
769.5946292445353
 20
839.64407784182
 30
0.0
  0
POINT
  5
D92
330
D87
100
AcDbEntity
  8
Defpoints
 62
     0
100
AcDbPoint
 10
769.5946292445353
 20
946.4099478381838
 30
0.0
  0
ENDBLK
  5
D89
330
D87
100
AcDbEntity
  8
0
100
AcDbBlockEnd
  0
BLOCK
  5
D95
330
D94
100
AcDbEntity
  8
0
100
AcDbBlockBegin
  2
*D48
 70
     1
 10
0.0
 20
0.0
 30
0.0
  3
*D48
  1
*D48
  0
LINE
  5
D97
330
D94
100
AcDbEntity
  8
MODEL
  6
Continuous
 62
     0
370
    -2
100
AcDbLine
 10
569.5946292445353
 20
926.9709580668701
 30
0.0
 11
569.5946292445353
 21
1012.373003480183
 31
0.0
  0
LINE
  5
D98
330
D94
100
AcDbEntity
  8
MODEL
  6
Continuous
 62
     0
370
    -2
100
AcDbLine
 10
2569.594629244535
 20
926.9709580668701
 30
0.0
 11
2569.594629244535
 21
1012.373003480183
 31
0.0
  0
LINE
  5
D99
330
D94
100
AcDbEntity
  8
MODEL
  6
Continuous
 62
     0
370
    -2
100
AcDbLine
 10
575.5946292445353
 20
1012.373003480183
 30
0.0
 11
2563.594629244535
 21
1012.373003480183
 31
0.0
  0
INSERT
  5
D9A
330
D94
100
AcDbEntity
  8
MODEL
 62
     0
370
    -2
100
AcDbBlockReference
  2
_DOT
 10
569.5946292445353
 20
1012.373003480183
 30
0.0
 41
6.0
 42
6.0
 43
6.0
 50
180.0
  0
INSERT
  5
D9B
330
D94
100
AcDbEntity
  8
MODEL
 62
     0
370
    -2
100
AcDbBlockReference
  2
_DOT
 10
2569.594629244535
 20
1012.373003480183
 30
0.0
 41
6.0
 42
6.0
 43
6.0
  0
MTEXT
  5
D9C
330
D94
100
AcDbEntity
  8
MODEL
  6
Continuous
 62
     0
370
     0
100
AcDbMText
 10
1569.594629244535
 20
1028.373003480183
 30
0.0
 40
12.0
 41
0.0
 46
0.0
 71
     5
 72
     1
  1
\A1;2000
  7
ＭＳ ゴシック
 73
     1
 44
1.0
  0
POINT
  5
D9D
330
D94
100
AcDbEntity
  8
Defpoints
 62
     0
100
AcDbPoint
 10
569.5946292445353
 20
901.9709580668701
 30
0.0
  0
POINT
  5
D9E
330
D94
100
AcDbEntity
  8
Defpoints
 62
     0
100
AcDbPoint
 10
2569.594629244535
 20
901.9709580668701
 30
0.0
  0
POINT
  5
D9F
330
D94
100
AcDbEntity
  8
Defpoints
 62
     0
100
AcDbPoint
 10
2569.594629244535
 20
1012.373003480183
 30
0.0
  0
ENDBLK
  5
D96
330
D94
100
AcDbEntity
  8
0
100
AcDbBlockEnd
  0
BLOCK
  5
DA6
330
DA5
100
AcDbEntity
  8
0
100
AcDbBlockBegin
  2
*D49
 70
     1
 10
0.0
 20
0.0
 30
0.0
  3
*D49
  1
*D49
  0
LINE
  5
DA8
330
DA5
100
AcDbEntity
  8
MODEL
  6
Continuous
 62
     0
370
    -2
100
AcDbLine
 10
794.5946292445353
 20
839.64407784182
 30
0.0
 11
844.3820284049416
 21
839.64407784182
 31
0.0
  0
LINE
  5
DA9
330
DA5
100
AcDbEntity
  8
MODEL
  6
Continuous
 62
     0
370
    -2
100
AcDbLine
 10
747.61641494253
 20
877.5169863814765
 30
0.0
 11
844.3820284049416
 21
877.5169863814765
 31
0.0
  0
LINE
  5
DAA
330
DA5
100
AcDbEntity
  8
MODEL
  6
Continuous
 62
     0
370
    -2
100
AcDbLine
 10
844.3820284049416
 20
845.64407784182
 30
0.0
 11
844.3820284049416
 21
871.5169863814765
 31
0.0
  0
INSERT
  5
DAB
330
DA5
100
AcDbEntity
  8
MODEL
 62
     0
370
    -2
100
AcDbBlockReference
  2
_DOT
 10
844.3820284049416
 20
839.64407784182
 30
0.0
 41
6.0
 42
6.0
 43
6.0
 50
270.0
  0
INSERT
  5
DAC
330
DA5
100
AcDbEntity
  8
MODEL
 62
     0
370
    -2
100
AcDbBlockReference
  2
_DOT
 10
844.3820284049416
 20
877.5169863814765
 30
0.0
 41
6.0
 42
6.0
 43
6.0
 50
90.0
  0
MTEXT
  5
DAD
330
DA5
100
AcDbEntity
  8
MODEL
  6
Continuous
 62
     0
370
     0
100
AcDbMText
 10
828.3820284049416
 20
858.5805321116483
 30
0.0
 40
12.0
 41
0.0
 46
0.0
 71
     5
 72
     1
  1
\A1;38
  7
ＭＳ ゴシック
 11
0.0
 21
1.0
 31
0.0
 73
     1
 44
1.0
  0
POINT
  5
DAE
330
DA5
100
AcDbEntity
  8
Defpoints
 62
     0
100
AcDbPoint
 10
769.5946292445353
 20
839.64407784182
 30
0.0
  0
POINT
  5
DAF
330
DA5
100
AcDbEntity
  8
Defpoints
 62
     0
100
AcDbPoint
 10
722.61641494253
 20
877.5169863814765
 30
0.0
  0
POINT
  5
DB0
330
DA5
100
AcDbEntity
  8
Defpoints
 62
     0
100
AcDbPoint
 10
844.3820284049416
 20
877.5169863814765
 30
0.0
  0
ENDBLK
  5
DA7
330
DA5
100
AcDbEntity
  8
0
100
AcDbBlockEnd
  0
BLOCK
  5
E4A
330
E49
100
AcDbEntity
  8
0
100
AcDbBlockBegin
  2
*D50
 70
     1
 10
0.0
 20
0.0
 30
0.0
  3
*D50
  1
*D50
  0
LINE
  5
E4C
330
E49
100
AcDbEntity
  8
MODEL
  6
Continuous
 62
     0
370
    -2
100
AcDbLine
 10
319.1535553071673
 20
903.6641163229335
 30
0.0
 11
319.1535553071673
 21
920.9380013435754
 31
0.0
  0
LINE
  5
E4D
330
E49
100
AcDbEntity
  8
MODEL
  6
Continuous
 62
     0
370
    -2
100
AcDbLine
 10
259.1535553071673
 20
903.6641163229335
 30
0.0
 11
259.1535553071673
 21
920.9380013435754
 31
0.0
  0
LINE
  5
E4E
330
E49
100
AcDbEntity
  8
MODEL
  6
Continuous
 62
     0
370
    -2
100
AcDbLine
 10
313.1535553071673
 20
920.9380013435754
 30
0.0
 11
265.1535553071673
 21
920.9380013435754
 31
0.0
  0
INSERT
  5
E4F
330
E49
100
AcDbEntity
  8
MODEL
 62
     0
370
    -2
100
AcDbBlockReference
  2
_DOT
 10
319.1535553071673
 20
920.9380013435754
 30
0.0
 41
6.0
 42
6.0
 43
6.0
  0
INSERT
  5
E50
330
E49
100
AcDbEntity
  8
MODEL
 62
     0
370
    -2
100
AcDbBlockReference
  2
_DOT
 10
259.1535553071673
 20
920.9380013435754
 30
0.0
 41
6.0
 42
6.0
 43
6.0
 50
180.0
  0
MTEXT
  5
E51
330
E49
100
AcDbEntity
  8
MODEL
  6
Continuous
 62
     0
370
     0
100
AcDbMText
 10
289.1535553071673
 20
936.9380013435754
 30
0.0
 40
12.0
 41
0.0
 46
0.0
 71
     5
 72
     1
  1
\A1;60
  7
ＭＳ ゴシック
 73
     1
 44
1.0
  0
POINT
  5
E52
330
E49
100
AcDbEntity
  8
Defpoints
 62
     0
100
AcDbPoint
 10
319.1535553071673
 20
878.6641163229335
 30
0.0
  0
POINT
  5
E53
330
E49
100
AcDbEntity
  8
Defpoints
 62
     0
100
AcDbPoint
 10
259.1535553071673
 20
878.6641163229335
 30
0.0
  0
POINT
  5
E54
330
E49
100
AcDbEntity
  8
Defpoints
 62
     0
100
AcDbPoint
 10
259.1535553071673
 20
920.9380013435754
 30
0.0
  0
ENDBLK
  5
E4B
330
E49
100
AcDbEntity
  8
0
100
AcDbBlockEnd
  0
BLOCK
  5
E59
330
E58
100
AcDbEntity
  8
0
100
AcDbBlockBegin
  2
*D51
 70
     1
 10
0.0
 20
0.0
 30
0.0
  3
*D51
  1
*D51
  0
LINE
  5
E5B
330
E58
100
AcDbEntity
  8
MODEL
  6
Continuous
 62
     0
370
    -2
100
AcDbLine
 10
301.0891753922509
 20
826.1406540918742
 30
0.0
 11
301.0891753922509
 21
758.7561696516537
 31
0.0
  0
LINE
  5
E5C
330
E58
100
AcDbEntity
  8
MODEL
  6
Continuous
 62
     0
370
    -2
100
AcDbLine
 10
277.2198155762131
 20
827.4678068455555
 30
0.0
 11
277.2198155762131
 21
758.7561696516537
 31
0.0
  0
LINE
  5
E5D
330
E58
100
AcDbEntity
  8
MODEL
  6
Continuous
 62
     0
370
    -2
100
AcDbLine
 10
307.0891753922509
 20
758.7561696516537
 30
0.0
 11
313.0891753922509
 21
758.7561696516537
 31
0.0
  0
LINE
  5
E5E
330
E58
100
AcDbEntity
  8
MODEL
  6
Continuous
 62
     0
370
    -2
100
AcDbLine
 10
271.2198155762131
 20
758.7561696516537
 30
0.0
 11
265.2198155762131
 21
758.7561696516537
 31
0.0
  0
INSERT
  5
E5F
330
E58
100
AcDbEntity
  8
MODEL
 62
     0
370
    -2
100
AcDbBlockReference
  2
_DOT
 10
301.0891753922509
 20
758.7561696516537
 30
0.0
 41
6.0
 42
6.0
 43
6.0
 50
180.0
  0
INSERT
  5
E60
330
E58
100
AcDbEntity
  8
MODEL
 62
     0
370
    -2
100
AcDbBlockReference
  2
_DOT
 10
277.2198155762131
 20
758.7561696516537
 30
0.0
 41
6.0
 42
6.0
 43
6.0
  0
MTEXT
  5
E61
330
E58
100
AcDbEntity
  8
MODEL
  6
Continuous
 62
     0
370
     0
100
AcDbMText
 10
289.154495484232
 20
774.7561696516537
 30
0.0
 40
12.0
 41
0.0
 46
0.0
 71
     5
 72
     1
  1
\A1;24
  7
ＭＳ ゴシック
 73
     1
 44
1.0
  0
POINT
  5
E62
330
E58
100
AcDbEntity
  8
Defpoints
 62
     0
100
AcDbPoint
 10
301.0891753922509
 20
851.1406540918742
 30
0.0
  0
POINT
  5
E63
330
E58
100
AcDbEntity
  8
Defpoints
 62
     0
100
AcDbPoint
 10
277.2198155762131
 20
852.4678068455555
 30
0.0
  0
POINT
  5
E64
330
E58
100
AcDbEntity
  8
Defpoints
 62
     0
100
AcDbPoint
 10
277.2198155762131
 20
758.7561696516537
 30
0.0
  0
ENDBLK
  5
E5A
330
E58
100
AcDbEntity
  8
0
100
AcDbBlockEnd
  0
BLOCK
  5
E69
330
E68
100
AcDbEntity
  8
0
100
AcDbBlockBegin
  2
*D52
 70
     1
 10
0.0
 20
0.0
 30
0.0
  3
*D52
  1
*D52
  0
LINE
  5
E6B
330
E68
100
AcDbEntity
  8
MODEL
  6
Continuous
 62
     0
370
    -2
100
AcDbLine
 10
457.2696954657412
 20
903.8045723719206
 30
0.0
 11
457.2696954657412
 21
951.8738511070686
 31
0.0
  0
LINE
  5
E6C
330
E68
100
AcDbEntity
  8
MODEL
  6
Continuous
 62
     0
370
    -2
100
AcDbLine
 10
367.4935497179288
 20
903.7945563674735
 30
0.0
 11
367.4935497179288
 21
951.8738511070686
 31
0.0
  0
LINE
  5
E6D
330
E68
100
AcDbEntity
  8
MODEL
  6
Continuous
 62
     0
370
    -2
100
AcDbLine
 10
451.2696954657412
 20
951.8738511070686
 30
0.0
 11
373.4935497179288
 21
951.8738511070686
 31
0.0
  0
INSERT
  5
E6E
330
E68
100
AcDbEntity
  8
MODEL
 62
     0
370
    -2
100
AcDbBlockReference
  2
_DOT
 10
457.2696954657412
 20
951.8738511070686
 30
0.0
 41
6.0
 42
6.0
 43
6.0
  0
INSERT
  5
E6F
330
E68
100
AcDbEntity
  8
MODEL
 62
     0
370
    -2
100
AcDbBlockReference
  2
_DOT
 10
367.4935497179288
 20
951.8738511070686
 30
0.0
 41
6.0
 42
6.0
 43
6.0
 50
180.0
  0
MTEXT
  5
E70
330
E68
100
AcDbEntity
  8
MODEL
  6
Continuous
 62
     0
370
     0
100
AcDbMText
 10
412.381622591835
 20
967.8738511070686
 30
0.0
 40
12.0
 41
0.0
 46
0.0
 71
     5
 72
     1
  1
\A1;90
  7
ＭＳ ゴシック
 73
     1
 44
1.0
  0
POINT
  5
E71
330
E68
100
AcDbEntity
  8
Defpoints
 62
     0
100
AcDbPoint
 10
457.2696954657412
 20
878.8045723719206
 30
0.0
  0
POINT
  5
E72
330
E68
100
AcDbEntity
  8
Defpoints
 62
     0
100
AcDbPoint
 10
367.4935497179288
 20
878.7945563674735
 30
0.0
  0
POINT
  5
E73
330
E68
100
AcDbEntity
  8
Defpoints
 62
     0
100
AcDbPoint
 10
367.4935497179288
 20
951.8738511070686
 30
0.0
  0
ENDBLK
  5
E6A
330
E68
100
AcDbEntity
  8
0
100
AcDbBlockEnd
  0
BLOCK
  5
EA0
330
E9F
100
AcDbEntity
  8
0
100
AcDbBlockBegin
  2
*D53
 70
     1
 10
0.0
 20
0.0
 30
0.0
  3
*D53
  1
*D53
  0
LINE
  5
EA2
330
E9F
100
AcDbEntity
  8
MODEL
  6
Continuous
 62
     0
370
    -2
100
AcDbLine
 10
372.3817795485613
 20
903.6641163229335
 30
0.0
 11
372.3817795485613
 21
984.1486725155577
 31
0.0
  0
LINE
  5
EA3
330
E9F
100
AcDbEntity
  8
MODEL
  6
Continuous
 62
     0
370
    -2
100
AcDbLine
 10
452.3817795485613
 20
903.6641163229335
 30
0.0
 11
452.3817795485613
 21
984.1486725155577
 31
0.0
  0
LINE
  5
EA4
330
E9F
100
AcDbEntity
  8
MODEL
  6
Continuous
 62
     0
370
    -2
100
AcDbLine
 10
378.3817795485613
 20
984.1486725155577
 30
0.0
 11
446.3817795485613
 21
984.1486725155577
 31
0.0
  0
INSERT
  5
EA5
330
E9F
100
AcDbEntity
  8
MODEL
 62
     0
370
    -2
100
AcDbBlockReference
  2
_DOT
 10
372.3817795485613
 20
984.1486725155577
 30
0.0
 41
6.0
 42
6.0
 43
6.0
 50
180.0
  0
INSERT
  5
EA6
330
E9F
100
AcDbEntity
  8
MODEL
 62
     0
370
    -2
100
AcDbBlockReference
  2
_DOT
 10
452.3817795485613
 20
984.1486725155577
 30
0.0
 41
6.0
 42
6.0
 43
6.0
  0
MTEXT
  5
EA7
330
E9F
100
AcDbEntity
  8
MODEL
  6
Continuous
 62
     0
370
     0
100
AcDbMText
 10
412.3817795485613
 20
1000.148672515558
 30
0.0
 40
12.0
 41
0.0
 46
0.0
 71
     5
 72
     1
  1
\A1;80
  7
ＭＳ ゴシック
 73
     1
 44
1.0
  0
POINT
  5
EA8
330
E9F
100
AcDbEntity
  8
Defpoints
 62
     0
100
AcDbPoint
 10
372.3817795485613
 20
878.6641163229335
 30
0.0
  0
POINT
  5
EA9
330
E9F
100
AcDbEntity
  8
Defpoints
 62
     0
100
AcDbPoint
 10
452.3817795485613
 20
878.6641163229335
 30
0.0
  0
POINT
  5
EAA
330
E9F
100
AcDbEntity
  8
Defpoints
 62
     0
100
AcDbPoint
 10
452.3817795485613
 20
984.1486725155577
 30
0.0
  0
ENDBLK
  5
EA1
330
E9F
100
AcDbEntity
  8
0
100
AcDbBlockEnd
  0
BLOCK
  5
EAF
330
EAE
100
AcDbEntity
  8
0
100
AcDbBlockBegin
  2
*D54
 70
     1
 10
0.0
 20
0.0
 30
0.0
  3
*D54
  1
*D54
  0
LINE
  5
EB1
330
EAE
100
AcDbEntity
  8
MODEL
  6
Continuous
 62
     0
370
    -2
100
AcDbLine
 10
387.3817795485613
 20
903.6641163229335
 30
0.0
 11
387.3817795485613
 21
949.3784113401538
 31
0.0
  0
LINE
  5
EB2
330
EAE
100
AcDbEntity
  8
MODEL
  6
Continuous
 62
     0
370
    -2
100
AcDbLine
 10
437.3817795485613
 20
903.6641163229335
 30
0.0
 11
437.3817795485613
 21
949.3784113401538
 31
0.0
  0
LINE
  5
EB3
330
EAE
100
AcDbEntity
  8
MODEL
  6
Continuous
 62
     0
370
    -2
100
AcDbLine
 10
393.3817795485613
 20
949.3784113401538
 30
0.0
 11
431.3817795485613
 21
949.3784113401538
 31
0.0
  0
INSERT
  5
EB4
330
EAE
100
AcDbEntity
  8
MODEL
 62
     0
370
    -2
100
AcDbBlockReference
  2
_DOT
 10
387.3817795485613
 20
949.3784113401538
 30
0.0
 41
6.0
 42
6.0
 43
6.0
 50
180.0
  0
INSERT
  5
EB5
330
EAE
100
AcDbEntity
  8
MODEL
 62
     0
370
    -2
100
AcDbBlockReference
  2
_DOT
 10
437.3817795485613
 20
949.3784113401538
 30
0.0
 41
6.0
 42
6.0
 43
6.0
  0
MTEXT
  5
EB6
330
EAE
100
AcDbEntity
  8
MODEL
  6
Continuous
 62
     0
370
     0
100
AcDbMText
 10
412.3817795485613
 20
965.3784113401538
 30
0.0
 40
12.0
 41
0.0
 46
0.0
 71
     5
 72
     1
  1
\A1;50
  7
ＭＳ ゴシック
 73
     1
 44
1.0
  0
POINT
  5
EB7
330
EAE
100
AcDbEntity
  8
Defpoints
 62
     0
100
AcDbPoint
 10
387.3817795485613
 20
878.6641163229335
 30
0.0
  0
POINT
  5
EB8
330
EAE
100
AcDbEntity
  8
Defpoints
 62
     0
100
AcDbPoint
 10
437.3817795485613
 20
878.6641163229335
 30
0.0
  0
POINT
  5
EB9
330
EAE
100
AcDbEntity
  8
Defpoints
 62
     0
100
AcDbPoint
 10
437.3817795485613
 20
949.3784113401538
 30
0.0
  0
ENDBLK
  5
EB0
330
EAE
100
AcDbEntity
  8
0
100
AcDbBlockEnd
  0
BLOCK
  5
EBE
330
EBD
100
AcDbEntity
  8
0
100
AcDbBlockBegin
  2
*D55
 70
     1
 10
0.0
 20
0.0
 30
0.0
  3
*D55
  1
*D55
  0
LINE
  5
EC0
330
EBD
100
AcDbEntity
  8
MODEL
  6
Continuous
 62
     0
370
    -2
100
AcDbLine
 10
319.1535553071673
 20
903.6641163229335
 30
0.0
 11
319.1535553071673
 21
948.6057388695892
 31
0.0
  0
LINE
  5
EC1
330
EBD
100
AcDbEntity
  8
MODEL
  6
Continuous
 62
     0
370
    -2
100
AcDbLine
 10
259.1535553071673
 20
903.6641163229335
 30
0.0
 11
259.1535553071673
 21
948.6057388695892
 31
0.0
  0
LINE
  5
EC2
330
EBD
100
AcDbEntity
  8
MODEL
  6
Continuous
 62
     0
370
    -2
100
AcDbLine
 10
313.1535553071673
 20
948.6057388695892
 30
0.0
 11
265.1535553071673
 21
948.6057388695892
 31
0.0
  0
INSERT
  5
EC3
330
EBD
100
AcDbEntity
  8
MODEL
 62
     0
370
    -2
100
AcDbBlockReference
  2
_DOT
 10
319.1535553071673
 20
948.6057388695892
 30
0.0
 41
6.0
 42
6.0
 43
6.0
  0
INSERT
  5
EC4
330
EBD
100
AcDbEntity
  8
MODEL
 62
     0
370
    -2
100
AcDbBlockReference
  2
_DOT
 10
259.1535553071673
 20
948.6057388695892
 30
0.0
 41
6.0
 42
6.0
 43
6.0
 50
180.0
  0
MTEXT
  5
EC5
330
EBD
100
AcDbEntity
  8
MODEL
  6
Continuous
 62
     0
370
     0
100
AcDbMText
 10
289.1535553071673
 20
964.6057388695892
 30
0.0
 40
12.0
 41
0.0
 46
0.0
 71
     5
 72
     1
  1
\A1;60
  7
ＭＳ ゴシック
 73
     1
 44
1.0
  0
POINT
  5
EC6
330
EBD
100
AcDbEntity
  8
Defpoints
 62
     0
100
AcDbPoint
 10
319.1535553071673
 20
878.6641163229335
 30
0.0
  0
POINT
  5
EC7
330
EBD
100
AcDbEntity
  8
Defpoints
 62
     0
100
AcDbPoint
 10
259.1535553071673
 20
878.6641163229335
 30
0.0
  0
POINT
  5
EC8
330
EBD
100
AcDbEntity
  8
Defpoints
 62
     0
100
AcDbPoint
 10
259.1535553071673
 20
948.6057388695892
 30
0.0
  0
ENDBLK
  5
EBF
330
EBD
100
AcDbEntity
  8
0
100
AcDbBlockEnd
  0
BLOCK
  5
ECD
330
ECC
100
AcDbEntity
  8
0
100
AcDbBlockBegin
  2
*D56
 70
     1
 10
0.0
 20
0.0
 30
0.0
  3
*D56
  1
*D56
  0
LINE
  5
ECF
330
ECC
100
AcDbEntity
  8
MODEL
  6
Continuous
 62
     0
370
    -2
100
AcDbLine
 10
437.3817795485613
 20
878.6641163229335
 30
0.0
 11
487.7057294205744
 21
878.6641163229335
 31
0.0
  0
LINE
  5
ED0
330
ECC
100
AcDbEntity
  8
MODEL
  6
Continuous
 62
     0
370
    -2
100
AcDbLine
 10
437.4133966252335
 20
796.8157900464349
 30
0.0
 11
487.7057294205744
 21
796.8157900464349
 31
0.0
  0
LINE
  5
ED1
330
ECC
100
AcDbEntity
  8
MODEL
  6
Continuous
 62
     0
370
    -2
100
AcDbLine
 10
487.7057294205744
 20
872.6641163229335
 30
0.0
 11
487.7057294205744
 21
802.8157900464349
 31
0.0
  0
INSERT
  5
ED2
330
ECC
100
AcDbEntity
  8
MODEL
 62
     0
370
    -2
100
AcDbBlockReference
  2
_DOT
 10
487.7057294205744
 20
878.6641163229335
 30
0.0
 41
6.0
 42
6.0
 43
6.0
 50
90.0
  0
INSERT
  5
ED3
330
ECC
100
AcDbEntity
  8
MODEL
 62
     0
370
    -2
100
AcDbBlockReference
  2
_DOT
 10
487.7057294205744
 20
796.8157900464349
 30
0.0
 41
6.0
 42
6.0
 43
6.0
 50
270.0
  0
MTEXT
  5
ED4
330
ECC
100
AcDbEntity
  8
MODEL
  6
Continuous
 62
     0
370
     0
100
AcDbMText
 10
471.7057294205744
 20
837.7399531846843
 30
0.0
 40
12.0
 41
0.0
 46
0.0
 71
     5
 72
     1
  1
\A1;82
  7
ＭＳ ゴシック
 11
0.0
 21
1.0
 31
0.0
 73
     1
 44
1.0
  0
POINT
  5
ED5
330
ECC
100
AcDbEntity
  8
Defpoints
 62
     0
100
AcDbPoint
 10
412.3817795485613
 20
878.6641163229335
 30
0.0
  0
POINT
  5
ED6
330
ECC
100
AcDbEntity
  8
Defpoints
 62
     0
100
AcDbPoint
 10
412.4133966252335
 20
796.8157900464349
 30
0.0
  0
POINT
  5
ED7
330
ECC
100
AcDbEntity
  8
Defpoints
 62
     0
100
AcDbPoint
 10
487.7057294205744
 20
796.8157900464349
 30
0.0
  0
ENDBLK
  5
ECE
330
ECC
100
AcDbEntity
  8
0
100
AcDbBlockEnd
  0
BLOCK
  5
EDD
330
EDC
100
AcDbEntity
  8
0
100
AcDbBlockBegin
  2
*D57
 70
     1
 10
0.0
 20
0.0
 30
0.0
  3
*D57
  1
*D57
  0
LINE
  5
EDF
330
EDC
100
AcDbEntity
  8
MODEL
  6
Continuous
 62
     0
370
    -2
100
AcDbLine
 10
462.3817795485613
 20
878.6641163229335
 30
0.0
 11
566.72848833015
 21
878.6641163229335
 31
0.0
  0
LINE
  5
EE0
330
EDC
100
AcDbEntity
  8
MODEL
  6
Continuous
 62
     0
370
    -2
100
AcDbLine
 10
442.3951905734273
 20
808.6641163229335
 30
0.0
 11
566.72848833015
 21
808.6641163229335
 31
0.0
  0
LINE
  5
EE1
330
EDC
100
AcDbEntity
  8
MODEL
  6
Continuous
 62
     0
370
    -2
100
AcDbLine
 10
566.72848833015
 20
872.6641163229335
 30
0.0
 11
566.72848833015
 21
814.6641163229335
 31
0.0
  0
INSERT
  5
EE2
330
EDC
100
AcDbEntity
  8
MODEL
 62
     0
370
    -2
100
AcDbBlockReference
  2
_DOT
 10
566.72848833015
 20
878.6641163229335
 30
0.0
 41
6.0
 42
6.0
 43
6.0
 50
90.0
  0
INSERT
  5
EE3
330
EDC
100
AcDbEntity
  8
MODEL
 62
     0
370
    -2
100
AcDbBlockReference
  2
_DOT
 10
566.72848833015
 20
808.6641163229335
 30
0.0
 41
6.0
 42
6.0
 43
6.0
 50
270.0
  0
MTEXT
  5
EE4
330
EDC
100
AcDbEntity
  8
MODEL
  6
Continuous
 62
     0
370
     0
100
AcDbMText
 10
550.72848833015
 20
843.6641163229335
 30
0.0
 40
12.0
 41
0.0
 46
0.0
 71
     5
 72
     1
  1
\A1;70
  7
ＭＳ ゴシック
 11
0.0
 21
1.0
 31
0.0
 73
     1
 44
1.0
  0
POINT
  5
EE5
330
EDC
100
AcDbEntity
  8
Defpoints
 62
     0
100
AcDbPoint
 10
437.3817795485613
 20
878.6641163229335
 30
0.0
  0
POINT
  5
EE6
330
EDC
100
AcDbEntity
  8
Defpoints
 62
     0
100
AcDbPoint
 10
417.3951905734273
 20
808.6641163229335
 30
0.0
  0
POINT
  5
EE7
330
EDC
100
AcDbEntity
  8
Defpoints
 62
     0
100
AcDbPoint
 10
566.72848833015
 20
808.6641163229335
 30
0.0
  0
ENDBLK
  5
EDE
330
EDC
100
AcDbEntity
  8
0
100
AcDbBlockEnd
  0
ENDSEC
  0
SECTION
  2
ENTITIES
  0
MTEXT
  5
177
330
A
100
AcDbEntity
  8
template
 62
     7
390
1D
100
AcDbMText
 10
23.49999999989813
 20
167.2655694517236
 30
0.0
 40
8.144205729166664
 41
0.0
 46
0.0
 71
     1
 72
     1
  1
品名
  7
ＭＳ ゴシック
 73
     1
 44
0.7828267384257843
  0
MTEXT
  5
178
330
A
100
AcDbEntity
  8
template
 62
     7
390
1D
100
AcDbMText
 10
23.49999999989813
 20
124.7655694517235
 30
0.0
 40
8.144205729166664
 41
0.0
 46
0.0
 71
     1
 72
     1
  1
仕様
  7
ＭＳ ゴシック
 73
     1
 44
0.7828267384257843
  0
LINE
  5
179
330
A
100
AcDbEntity
  8
template
  6
Continuous
 62
     7
370
     5
390
1D
100
AcDbLine
 10
994.999999999657
 20
128.9730303892237
 30
0.0
 11
19.99999999965712
 21
128.9730303892237
 31
0.0
  0
LWPOLYLINE
  5
17A
330
A
100
AcDbEntity
  8
template
  6
Continuous
 62
     7
370
     5
390
1D
100
AcDbPolyline
 90
        5
 70
   128
 43
0.0
 10
994.999999999657
 20
1443.973030389223
 10
19.99999999965712
 20
1443.973030389223
 10
19.99999999965712
 20
43.97303038922358
 10
994.999999999657
 20
43.97303038922358
 10
994.999999999657
 20
1443.973030389223
  0
LINE
  5
17B
330
A
100
AcDbEntity
  8
template
  6
Continuous
 62
     7
370
     5
390
1D
100
AcDbLine
 10
994.999999999657
 20
171.4730303892235
 30
0.0
 11
19.99999999965712
 21
171.4730303892235
 31
0.0
  0
LINE
  5
17C
330
A
100
AcDbEntity
  8
template
  6
Continuous
 62
     7
370
     5
390
1D
100
AcDbLine
 10
994.999999999898
 20
86.4730303892236
 30
0.0
 11
618.499999999898
 21
86.4730303892236
 31
0.0
  0
MTEXT
  5
17D
330
A
100
AcDbEntity
  8
template
 62
     7
390
1D
100
AcDbMText
 10
20.0
 20
38.04611936079503
 30
0.0
 40
10.85894097222222
 41
0.0
 46
14.16778224007139
 71
     1
 72
     1
  1
{130724NX}
  7
ＭＳ ゴシック
 73
     1
 44
0.7828267384257843
1001
ACAD
1000
ACAD_MTEXT_DEFINED_HEIGHT_BEGIN
1070
    46
1040
14.16778224007139
1000
ACAD_MTEXT_DEFINED_HEIGHT_END
  0
MTEXT
  5
17E
330
A
100
AcDbEntity
  8
template
 62
     7
390
1D
100
AcDbMText
 10
633.4357031260284
 20
71.51783315256954
 30
0.0
 40
12.21630859375
 41
0.0
 46
0.0
 71
     1
 72
     1
  1
大洋金物株式会社 ティーフォルム事業部
  7
ＭＳ ゴシック
 73
     1
 44
0.7828267384257843
  0
MTEXT
  5
180
330
A
100
AcDbEntity
  8
template
 62
     7
390
1D
100
AcDbMText
 10
899.500000000028
 20
110.4743389829735
 30
0.0
 40
12.21630859375
 41
0.0
 46
31.87751004016064
 71
     1
 72
     1
  1
{1:5}
  7
ＭＳ ゴシック
 73
     1
 44
0.7828267384257843
1001
ACAD
1000
ACAD_MTEXT_DEFINED_HEIGHT_BEGIN
1070
    46
1040
31.87751004016064
1000
ACAD_MTEXT_DEFINED_HEIGHT_END
  0
MTEXT
  5
181
330
A
100
AcDbEntity
  8
template
 62
     7
390
1D
100
AcDbMText
 10
873.000000000028
 20
124.7655694517235
 30
0.0
 40
8.144205729166664
 41
0.0
 46
0.0
 71
     1
 72
     1
  1
縮尺
  7
ＭＳ ゴシック
 73
     1
 44
0.7828267384257843
  0
LINE
  5
182
330
A
100
AcDbEntity
  8
template
  6
Continuous
 62
     7
370
     5
390
1D
100
AcDbLine
 10
869.500000000028
 20
86.4730303892236
 30
0.0
 11
869.500000000028
 21
128.9730303892237
 31
0.0
  0
MTEXT
  5
183
330
A
100
AcDbEntity
  8
template
 62
     7
390
1D
100
AcDbMText
 10
747.500000000028
 20
124.7655694517235
 30
0.0
 40
8.144205729166664
 41
0.0
 46
0.0
 71
     1
 72
     1
  1
容量
  7
ＭＳ ゴシック
 73
     1
 44
0.7828267384257843
  0
LINE
  5
184
330
A
100
AcDbEntity
  8
template
  6
Continuous
 62
     7
370
     5
390
1D
100
AcDbLine
 10
744.000000000028
 20
86.4730303892236
 30
0.0
 11
744.000000000028
 21
128.9730303892237
 31
0.0
  0
MTEXT
  5
185
330
A
100
AcDbEntity
  8
template
 62
     7
390
1D
100
AcDbMText
 10
622.000000000028
 20
167.2655694517236
 30
0.0
 40
8.144205729166664
 41
0.0
 46
0.0
 71
     1
 72
     1
  1
品番
  7
ＭＳ ゴシック
 73
     1
 44
0.7828267384257843
  0
MTEXT
  5
186
330
A
100
AcDbEntity
  8
template
 62
     7
390
1D
100
AcDbMText
 10
622.000000000028
 20
124.7655694517235
 30
0.0
 40
8.144205729166664
 41
0.0
 46
0.0
 71
     1
 72
     1
  1
重量
  7
ＭＳ ゴシック
 73
     1
 44
0.7828267384257843
  0
MTEXT
  5
187
330
A
100
AcDbEntity
  8
template
 62
     7
390
1D
100
AcDbMText
 10
648.500000000028
 20
152.9743389829736
 30
0.0
 40
12.21630859375
 41
0.0
 46
12.21630859375
 71
     1
 72
     1
  1
{AGN73-1675-N01}
  7
ＭＳ ゴシック
 73
     1
 44
0.7828267384257843
1001
ACAD
1000
ACAD_MTEXT_DEFINED_HEIGHT_BEGIN
1070
    46
1040
12.21630859375
1000
ACAD_MTEXT_DEFINED_HEIGHT_END
  0
LINE
  5
188
330
A
100
AcDbEntity
  8
template
  6
Continuous
 62
     7
370
     5
390
1D
100
AcDbLine
 10
618.500000000028
 20
43.97303038922358
 30
0.0
 11
618.500000000028
 21
171.4730303892235
 31
0.0
  0
MTEXT
  5
189
330
A
100
AcDbEntity
  8
template
 62
     7
390
1D
100
AcDbMText
 10
49.99999999989814
 20
152.9743389829736
 30
0.0
 40
12.21630859375
 41
0.0
 46
16.61065199273657
 71
     1
 72
     1
  1
{混合栓 -FANTINI,Cafe-}
  7
ＭＳ ゴシック
 73
     1
 44
0.7828267384257843
1001
ACAD
1000
ACAD_MTEXT_DEFINED_HEIGHT_BEGIN
1070
    46
1040
16.61065199273657
1000
ACAD_MTEXT_DEFINED_HEIGHT_END
  0
INSERT
  5
6B5
330
A
100
AcDbEntity
  8
template
  6
Continuous
370
     0
100
AcDbBlockReference
  2
名称未設定-1
 10
919.2743017702577
 20
8.373076514336368
 30
0.0
 41
0.3809999999999999
 42
0.3809999999999999
 43
0.3809999999999999
  0
MTEXT
  5
850
330
A
100
AcDbEntity
  8
template
 62
     7
390
1D
100
AcDbMText
 10
50.06858677997292
 20
111.5918810749522
 30
0.0
 40
12.21630859375
 41
0.0
 46
12.21630859375
 71
     1
 72
     1
  1
{クローム}
  7
ＭＳ ゴシック
 73
     1
 44
0.7828267384257843
1001
ACAD
1000
ACAD_MTEXT_DEFINED_HEIGHT_BEGIN
1070
    46
1040
12.21630859375
1000
ACAD_MTEXT_DEFINED_HEIGHT_END
  0
SPLINE
  5
AAA
330
A
100
AcDbEntity
  8
MODEL
370
    -3
100
AcDbSpline
210
0.0
220
0.0
230
1.0
 70
    11
 71
     3
 72
    20
 73
    16
 74
     0
 42
0.000000001
 43
0.0000000001
 40
0.0
 40
0.0
 40
0.0
 40
0.0
 40
1.0
 40
1.0
 40
1.0
 40
2.0
 40
2.0
 40
2.0
 40
3.0
 40
3.0
 40
3.0
 40
4.0
 40
4.0
 40
4.0
 40
5.0
 40
5.0
 40
5.0
 40
5.0
 10
280.1300619072513
 20
839.1755445467372
 30
0.0
 10
280.1300619072513
 20
839.1755445467372
 30
0.0
 10
280.1300619072513
 20
838.8637631996423
 30
0.0
 10
280.1300619072513
 20
838.8637631996423
 30
0.0
 10
281.4073319010156
 20
833.2318896398142
 30
0.0
 10
297.1609026737349
 20
833.3059592416103
 30
0.0
 10
298.1238074970852
 20
838.9696999556993
 30
0.0
 10
298.1238074970852
 20
838.9696999556993
 30
0.0
 10
298.1238074970852
 20
839.2306661108653
 30
0.0
 10
298.1238074970852
 20
839.2306661108653
 30
0.0
 10
297.5450310737476
 20
844.9684764267504
 30
0.0
 10
281.4323088597607
 20
845.2010205254123
 30
0.0
 10
280.1300619072513
 20
839.4899097171512
 30
0.0
 10
280.1300619072513
 20
839.4899097171512
 30
0.0
 10
280.1300619072513
 20
839.1755445467372
 30
0.0
 10
280.1300619072513
 20
839.1755445467372
 30
0.0
  0
SPLINE
  5
AAB
330
A
100
AcDbEntity
  8
MODEL
370
    -3
100
AcDbSpline
210
0.0
220
0.0
230
1.0
 70
    11
 71
     3
 72
    47
 73
    43
 74
     0
 42
0.000000001
 43
0.0000000001
 40
0.0
 40
0.0
 40
0.0
 40
0.0
 40
1.0
 40
1.0
 40
1.0
 40
2.0
 40
2.0
 40
2.0
 40
3.0
 40
3.0
 40
3.0
 40
4.0
 40
4.0
 40
4.0
 40
5.0
 40
5.0
 40
5.0
 40
6.0
 40
6.0
 40
6.0
 40
7.0
 40
7.0
 40
7.0
 40
8.0
 40
8.0
 40
8.0
 40
9.0
 40
9.0
 40
9.0
 40
10.0
 40
10.0
 40
10.0
 40
11.0
 40
11.0
 40
11.0
 40
12.0
 40
12.0
 40
12.0
 40
13.0
 40
13.0
 40
13.0
 40
14.0
 40
14.0
 40
14.0
 40
14.0
 10
277.2198155762131
 20
839.1755445467372
 30
0.0
 10
277.2198155762131
 20
839.1755445467372
 30
0.0
 10
277.2198155762131
 20
838.8120867332723
 30
0.0
 10
277.2198155762131
 20
838.8120867332723
 30
0.0
 10
278.671924281194
 20
831.3086638164323
 30
0.0
 10
299.8911426469197
 20
831.3956525348203
 30
0.0
 10
301.0357763770024
 20
838.9180234893304
 30
0.0
 10
301.0357763770024
 20
838.9180234893304
 30
0.0
 10
301.0891753922509
 20
839.0721916139983
 30
0.0
 10
301.0891753922509
 20
839.0721916139983
 30
0.0
 10
301.0891753922509
 20
839.0721916139983
 30
0.0
 10
301.0891753922509
 20
839.2814813027953
 30
0.0
 10
301.0891753922509
 20
839.2814813027953
 30
0.0
 10
301.0891753922509
 20
839.2814813027953
 30
0.0
 10
301.0357763770024
 20
839.4373719763423
 30
0.0
 10
301.0357763770024
 20
839.4373719763423
 30
0.0
 10
300.6800700334928
 20
843.5129226240113
 30
0.0
 10
293.1723407444547
 20
845.1941303298963
 30
0.0
 10
289.9055267954677
 20
845.1045577881894
 30
0.0
 10
289.9055267954677
 20
845.1045577881894
 30
0.0
 10
289.595467997251
 20
845.1570955289983
 30
0.0
 10
289.595467997251
 20
845.1570955289983
 30
0.0
 10
289.595467997251
 20
845.1570955289983
 30
0.0
 10
288.8668298214421
 20
845.1570955289983
 30
0.0
 10
288.8668298214421
 20
845.1570955289983
 30
0.0
 10
286.2881741496079
 20
845.0692455361702
 30
0.0
 10
283.8878022867481
 20
844.7462676213613
 30
0.0
 10
281.4831240516908
 20
843.7532181926292
 30
0.0
 10
281.4831240516908
 20
843.7532181926292
 30
0.0
 10
280.9629142902386
 20
843.5447897782724
 30
0.0
 10
280.9629142902386
 20
843.5447897782724
 30
0.0
 10
279.4143428480348
 20
842.7446658239853
 30
0.0
 10
277.7227998488755
 20
841.6629051279863
 30
0.0
 10
277.2732145914616
 20
839.8533675306162
 30
0.0
 10
277.2732145914616
 20
839.8533675306162
 30
0.0
 10
277.2732145914616
 20
839.6966155826292
 30
0.0
 10
277.2732145914616
 20
839.6966155826292
 30
0.0
 10
277.2732145914616
 20
839.6966155826292
 30
0.0
 10
277.2198155762131
 20
839.5424474579613
 30
0.0
 10
277.2198155762131
 20
839.5424474579613
 30
0.0
 10
277.2198155762131
 20
839.5424474579613
 30
0.0
 10
277.2198155762131
 20
839.1755445467372
 30
0.0
 10
277.2198155762131
 20
839.1755445467372
 30
0.0
  0
SPLINE
  5
AAC
330
A
100
AcDbEntity
  8
MODEL
370
    -3
100
AcDbSpline
210
0.0
220
0.0
230
1.0
 70
     8
 71
     3
 72
    14
 73
    10
 74
     0
 42
0.000000001
 43
0.0000000001
 40
0.0
 40
0.0
 40
0.0
 40
0.0
 40
1.0
 40
1.0
 40
1.0
 40
2.0
 40
2.0
 40
2.0
 40
3.0
 40
3.0
 40
3.0
 40
3.0
 10
301.0891753922509
 20
877.8123159022782
 30
0.0
 10
301.0891753922509
 20
877.8123159022782
 30
0.0
 10
300.9832386361934
 20
879.3729451866343
 30
0.0
 10
300.9832386361934
 20
879.3729451866343
 30
0.0
 10
298.7077515670596
 20
893.1636715117543
 30
0.0
 10
279.5039153897418
 20
893.1826195494232
 30
0.0
 10
277.3223072345128
 20
879.3729451866343
 30
0.0
 10
277.3223072345128
 20
879.3729451866343
 30
0.0
 10
277.2198155762131
 20
877.8123159022782
 30
0.0
 10
277.2198155762131
 20
877.8123159022782
 30
0.0
  0
SPLINE
  5
AB0
330
A
100
AcDbEntity
  8
MODEL
370
    -3
100
AcDbSpline
210
0.0
220
0.0
230
1.0
 70
     8
 71
     3
 72
    14
 73
    10
 74
     0
 42
0.000000001
 43
0.0000000001
 40
0.0
 40
0.0
 40
0.0
 40
0.0
 40
1.0
 40
1.0
 40
1.0
 40
2.0
 40
2.0
 40
2.0
 40
3.0
 40
3.0
 40
3.0
 40
3.0
 10
699.4468362815356
 20
850.7213590453259
 30
0.0
 10
699.4468362815356
 20
850.7213590453259
 30
0.0
 10
698.0929128626566
 20
852.852152008626
 30
0.0
 10
698.0929128626566
 20
852.852152008626
 30
0.0
 10
692.8546417216761
 20
860.545916576594
 30
0.0
 10
684.3659208460584
 20
865.4551808816891
 30
0.0
 10
675.1072206215364
 20
866.2682239525691
 30
0.0
 10
675.1072206215364
 20
866.2682239525691
 30
0.0
 10
672.61641494253
 20
866.321622967816
 30
0.0
 10
672.61641494253
 20
866.321622967816
 30
0.0
  0
SPLINE
  5
AB1
330
A
100
AcDbEntity
  8
MODEL
370
    -3
100
AcDbSpline
210
0.0
220
0.0
230
1.0
 70
     8
 71
     3
 72
    14
 73
    10
 74
     0
 42
0.000000001
 43
0.0000000001
 40
0.0
 40
0.0
 40
0.0
 40
0.0
 40
1.0
 40
1.0
 40
1.0
 40
2.0
 40
2.0
 40
2.0
 40
3.0
 40
3.0
 40
3.0
 40
3.0
 10
720.2982904615984
 20
862.265881632256
 30
0.0
 10
720.2982904615984
 20
862.265881632256
 30
0.0
 10
718.6360307933825
 20
865.0210985641861
 30
0.0
 10
718.6360307933825
 20
865.0210985641861
 30
0.0
 10
709.4427874262616
 20
879.619700313548
 30
0.0
 10
693.0389544517269
 20
889.1617598286621
 30
0.0
 10
675.8375813462245
 20
890.1358612197271
 30
0.0
 10
675.8375813462245
 20
890.1358612197271
 30
0.0
 10
672.61641494253
 20
890.1883989605351
 30
0.0
 10
672.61641494253
 20
890.1883989605351
 30
0.0
  0
LINE
  5
ACF
330
A
100
AcDbEntity
  8
MODEL
370
    -3
100
AcDbLine
 10
591.4813353008662
 20
866.321622967816
 30
0.0
 11
591.4813353008662
 21
856.1646135029059
 31
0.0
  0
LINE
  5
AD0
330
A
100
AcDbEntity
  8
MODEL
370
    -3
100
AcDbLine
 10
591.4813353008662
 20
901.163619142962
 30
0.0
 11
591.4813353008662
 21
890.0893523999939
 31
0.0
  0
LINE
  5
AD2
330
A
100
AcDbEntity
  8
MODEL
370
    -3
100
AcDbLine
 10
590.9680157349298
 20
856.1646135029059
 30
0.0
 11
593.0178489009168
 21
856.228347811428
 31
0.0
  0
LINE
  5
AD3
330
A
100
AcDbEntity
  8
MODEL
370
    -3
100
AcDbLine
 10
593.0178489009168
 20
856.228347811428
 30
0.0
 11
595.0056703072607
 21
856.54701935404
 31
0.0
  0
LINE
  5
AD4
330
A
100
AcDbEntity
  8
MODEL
370
    -3
100
AcDbLine
 10
591.4813353008662
 20
856.1646135029059
 30
0.0
 11
581.9935360754398
 21
856.1646135029059
 31
0.0
  0
LINE
  5
AD5
330
A
100
AcDbEntity
  8
MODEL
370
    -3
100
AcDbLine
 10
570.0063184266116
 20
918.6641163229335
 30
0.0
 11
579.8127891946499
 21
918.6641163229335
 31
0.0
  0
LINE
  5
AD6
330
A
100
AcDbEntity
  8
MODEL
370
    -3
100
AcDbLine
 10
595.0056703072607
 20
900.7166177088659
 30
0.0
 11
593.0178489009168
 21
901.036150525917
 31
0.0
  0
LINE
  5
AD7
330
A
100
AcDbEntity
  8
MODEL
370
    -3
100
AcDbLine
 10
593.0178489009168
 20
901.036150525917
 30
0.0
 11
590.9680157349298
 21
901.163619142962
 31
0.0
  0
LINE
  5
AD8
330
A
100
AcDbEntity
  8
MODEL
370
    -3
100
AcDbLine
 10
591.4813353008662
 20
901.163619142962
 30
0.0
 11
581.9935360754398
 21
901.163619142962
 31
0.0
  0
LINE
  5
AD9
330
A
100
AcDbEntity
  8
MODEL
370
    -3
100
AcDbLine
 10
618.4667860389798
 20
853.6641163229335
 30
0.0
 11
615.8381764496553
 21
853.9836491399847
 31
0.0
  0
LINE
  5
ADA
330
A
100
AcDbEntity
  8
MODEL
370
    -3
100
AcDbLine
 10
615.8381764496553
 20
853.9836491399847
 30
0.0
 11
613.1492776495663
 21
853.9836491399847
 31
0.0
  0
LINE
  5
ADB
330
A
100
AcDbEntity
  8
MODEL
370
    -3
100
AcDbLine
 10
613.1492776495663
 20
853.9836491399847
 30
0.0
 11
610.5189455113623
 21
853.6641163229335
 31
0.0
  0
LINE
  5
ADC
330
A
100
AcDbEntity
  8
MODEL
370
    -3
100
AcDbLine
 10
595.0056703072607
 20
866.3207616933771
 30
0.0
 11
595.0056703072607
 21
853.6641163229335
 31
0.0
  0
LINE
  5
ADD
330
A
100
AcDbEntity
  8
MODEL
370
    -3
100
AcDbLine
 10
595.0056703072607
 20
853.6641163229335
 30
0.0
 11
610.5189455113623
 21
853.6641163229335
 31
0.0
  0
LINE
  5
ADE
330
A
100
AcDbEntity
  8
MODEL
370
    -3
100
AcDbLine
 10
619.2367653878841
 20
903.6641163229335
 30
0.0
 11
595.0056703072607
 21
903.6641163229335
 31
0.0
  0
LINE
  5
ADF
330
A
100
AcDbEntity
  8
MODEL
370
    -3
100
AcDbLine
 10
595.0056703072607
 20
903.6641163229335
 30
0.0
 11
595.0056703072607
 21
890.0893523999939
 31
0.0
  0
LINE
  5
AE0
330
A
100
AcDbEntity
  8
MODEL
370
    -3
100
AcDbLine
 10
622.389235186619
 20
890.1883989605351
 30
0.0
 11
621.9945661431327
 21
893.4700720571245
 31
0.0
  0
LINE
  5
AE1
330
A
100
AcDbEntity
  8
MODEL
370
    -3
100
AcDbLine
 10
621.9945661431327
 20
893.4700720571245
 30
0.0
 11
621.1625750345847
 21
898.2148329442766
 31
0.0
  0
LINE
  5
AE2
330
A
100
AcDbEntity
  8
MODEL
370
    -3
100
AcDbLine
 10
621.1625750345847
 20
898.2148329442766
 30
0.0
 11
620.1979476623558
 21
902.8949982484685
 31
0.0
  0
LINE
  5
AE3
330
A
100
AcDbEntity
  8
MODEL
370
    -3
100
AcDbLine
 10
620.1979476623558
 20
854.4332343973986
 30
0.0
 11
621.1625750345847
 21
859.1108158782706
 31
0.0
  0
LINE
  5
AE4
330
A
100
AcDbEntity
  8
MODEL
370
    -3
100
AcDbLine
 10
621.1625750345847
 20
859.1108158782706
 30
0.0
 11
621.9945661431327
 21
863.8555767654236
 31
0.0
  0
LINE
  5
AE5
330
A
100
AcDbEntity
  8
MODEL
370
    -3
100
AcDbLine
 10
621.9945661431327
 20
863.8555767654236
 30
0.0
 11
622.4096119371277
 21
866.321622967816
 31
0.0
  0
LINE
  5
AE6
330
A
100
AcDbEntity
  8
MODEL
370
    -3
100
AcDbLine
 10
620.0067447367887
 20
866.321622967816
 30
0.0
 11
620.0067447367887
 21
854.0473834485067
 31
0.0
  0
LINE
  5
AE7
330
A
100
AcDbEntity
  8
MODEL
370
    -3
100
AcDbLine
 10
620.0067447367887
 20
903.2791266484815
 30
0.0
 11
620.0067447367887
 21
890.1883989605351
 31
0.0
  0
LINE
  5
AE8
330
A
100
AcDbEntity
  8
MODEL
370
    -3
100
AcDbLine
 10
619.2367653878841
 20
853.6641163229335
 30
0.0
 11
619.6208937878971
 21
853.7933074888567
 31
0.0
  0
LINE
  5
AE9
330
A
100
AcDbEntity
  8
MODEL
370
    -3
100
AcDbLine
 10
619.6208937878971
 20
853.7933074888567
 30
0.0
 11
620.0067447367887
 21
854.0473834485067
 31
0.0
  0
LINE
  5
AEA
330
A
100
AcDbEntity
  8
MODEL
370
    -3
100
AcDbLine
 10
620.0067447367887
 20
854.0473834485067
 30
0.0
 11
620.1979476623558
 21
854.4332343973986
 31
0.0
  0
LINE
  5
AEB
330
A
100
AcDbEntity
  8
MODEL
370
    -3
100
AcDbLine
 10
618.4667860389798
 20
853.6641163229335
 30
0.0
 11
619.2367653878841
 21
853.6641163229335
 31
0.0
  0
LINE
  5
AEC
330
A
100
AcDbEntity
  8
MODEL
370
    -3
100
AcDbLine
 10
620.1979476623558
 20
902.8949982484685
 30
0.0
 11
620.0067447367887
 21
903.2791266484815
 31
0.0
  0
LINE
  5
AED
330
A
100
AcDbEntity
  8
MODEL
370
    -3
100
AcDbLine
 10
620.0067447367887
 20
903.2791266484815
 30
0.0
 11
619.6208937878971
 21
903.5349251570094
 31
0.0
  0
LINE
  5
AEE
330
A
100
AcDbEntity
  8
MODEL
370
    -3
100
AcDbLine
 10
619.6208937878971
 20
903.5349251570094
 30
0.0
 11
619.2367653878841
 21
903.6641163229335
 31
0.0
  0
LINE
  5
AEF
330
A
100
AcDbEntity
  8
MODEL
370
    -3
100
AcDbLine
 10
581.9935360754398
 20
890.0893523999939
 30
0.0
 11
581.9935360754398
 21
901.162757868522
 31
0.0
  0
LINE
  5
AF0
330
A
100
AcDbEntity
  8
MODEL
370
    -3
100
AcDbLine
 10
581.9935360754398
 20
856.1646135029059
 30
0.0
 11
581.9935360754398
 21
866.3207616933771
 31
0.0
  0
LINE
  5
AF7
330
A
100
AcDbEntity
  8
MODEL
370
    -3
100
AcDbLine
 10
581.9935360754398
 20
901.163619142962
 30
0.0
 11
581.9280792180383
 21
904.753841643978
 31
0.0
  0
LINE
  5
AF8
330
A
100
AcDbEntity
  8
MODEL
370
    -3
100
AcDbLine
 10
581.9280792180383
 20
904.753841643978
 30
0.0
 11
581.4802165095032
 21
910.5233503208706
 31
0.0
  0
LINE
  5
AF9
330
A
100
AcDbEntity
  8
MODEL
370
    -3
100
AcDbLine
 10
581.4802165095032
 20
910.5233503208706
 30
0.0
 11
580.8394283265222
 21
917.7658070825455
 31
0.0
  0
LINE
  5
AFA
330
A
100
AcDbEntity
  8
MODEL
370
    -3
100
AcDbLine
 10
580.8394283265222
 20
917.7658070825455
 30
0.0
 11
580.6482254009552
 21
918.2162536143996
 31
0.0
  0
LINE
  5
AFB
330
A
100
AcDbEntity
  8
MODEL
370
    -3
100
AcDbLine
 10
580.6482254009552
 20
918.2162536143996
 30
0.0
 11
580.3261087605863
 21
918.5366477058897
 31
0.0
  0
LINE
  5
AFC
330
A
100
AcDbEntity
  8
MODEL
370
    -3
100
AcDbLine
 10
580.3261087605863
 20
918.5366477058897
 30
0.0
 11
579.8127891946499
 21
918.6641163229335
 31
0.0
  0
LINE
  5
CA3
330
A
100
AcDbEntity
  8
MODEL
370
    -3
100
AcDbLine
 10
277.2198155762131
 20
839.1755445467372
 30
0.0
 11
277.2198155762131
 21
877.8123159022782
 31
0.0
  0
LINE
  5
CA4
330
A
100
AcDbEntity
  8
MODEL
370
    -3
100
AcDbLine
 10
301.0891753922509
 20
839.1755445467372
 30
0.0
 11
301.0891753922509
 21
877.8123159022782
 31
0.0
  0
LINE
  5
CB6
330
A
100
AcDbEntity
  8
MODEL
370
    -3
100
AcDbLine
 10
575.9870081344332
 20
866.321622967816
 30
0.0
 11
672.61641494253
 21
866.321622967816
 31
0.0
  0
LINE
  5
CB7
330
A
100
AcDbEntity
  8
MODEL
370
    -3
100
AcDbLine
 10
575.9870081344332
 20
890.1883989605351
 30
0.0
 11
672.6164149425299
 21
890.1883989605351
 31
0.0
  0
LINE
  5
CB8
330
A
100
AcDbEntity
  8
MODEL
370
    -3
100
AcDbLine
 10
570.0063184266116
 20
848.45103962283
 30
0.0
 11
570.0063184266116
 21
908.1097974974521
 31
0.0
  0
LINE
  5
CB9
330
A
100
AcDbEntity
  8
MODEL
370
    -3
100
AcDbLine
 10
575.9870081344332
 20
848.6641163404357
 30
0.0
 11
575.9870081344332
 21
908.6641163054313
 31
0.0
  0
LINE
  5
CBB
330
A
100
AcDbEntity
  8
MODEL
370
    -3
100
AcDbLine
 10
570.0063184266116
 20
908.6641163054313
 30
0.0
 11
575.9870081344332
 21
908.6641163054313
 31
0.0
  0
LINE
  5
CBC
330
A
100
AcDbEntity
  8
MODEL
370
    -3
100
AcDbLine
 10
709.2722550872426
 20
833.6646800456581
 30
0.0
 11
699.1850088519305
 21
851.187308517091
 31
0.0
  0
LINE
  5
CBD
330
A
100
AcDbEntity
  8
MODEL
370
    -3
100
AcDbLine
 10
719.6213287521595
 20
863.4604692798291
 30
0.0
 11
729.9170034018281
 21
845.623475637982
 31
0.0
  0
LINE
  5
CBE
330
A
100
AcDbEntity
  8
MODEL
370
    -3
100
AcDbLine
 10
729.9170034018281
 20
845.623475637982
 30
0.0
 11
709.2722550872426
 21
833.6646800456581
 31
0.0
  0
LINE
  5
CC3
330
A
100
AcDbEntity
  8
MODEL
  6
Continuous
370
    -3
100
AcDbLine
 10
570.0063184266116
 20
918.6641163229335
 30
0.0
 11
570.0063184266116
 21
828.6652437683827
 31
0.0
  0
MTEXT
  5
CFC
330
A
100
AcDbEntity
  8
template
 62
     7
390
1D
100
AcDbMText
 10
216.0728137281958
 20
373.8285053301942
 30
0.0
 40
12.21630859375
 41
0.0
 46
55.35255156433025
 71
     1
 72
     1
  1
{このDXFデータは意匠図を目的としたもので、給水管などは省略しています。\P配管埋設部や詳細寸法を確認される場合はPDFデータをご参照ください。}
  7
ＭＳ ゴシック
 73
     1
 44
1.304711230709641
1001
ACAD
1000
ACAD_MTEXT_DEFINED_HEIGHT_BEGIN
1070
    46
1040
55.35255156433025
1000
ACAD_MTEXT_DEFINED_HEIGHT_END
  0
LINE
  5
D3C
102
{ACAD_REACTORS
102
}
330
A
100
AcDbEntity
  8
MODEL
370
    -3
100
AcDbLine
 10
417.3951905734273
 20
848.096221757996
 30
0.0
 11
417.3951905734273
 21
803.6641163229335
 31
0.0
  0
LINE
  5
D3E
330
A
100
AcDbEntity
  8
MODEL
370
    -3
100
AcDbLine
 10
407.4316026770398
 20
803.6641163229335
 30
0.0
 11
407.4316026770398
 21
848.096221757996
 31
0.0
  0
LINE
  5
D3F
330
A
100
AcDbEntity
  8
MODEL
370
    -3
100
AcDbLine
 10
407.4316026770398
 20
848.096221757996
 30
0.0
 11
417.3951905734273
 21
848.096221757996
 31
0.0
  0
LINE
  5
D40
330
A
100
AcDbEntity
  8
MODEL
370
    -3
100
AcDbLine
 10
416.739551282766
 20
854.0468495064779
 30
0.0
 11
416.7439155128713
 21
848.096221757996
 31
0.0
  0
LINE
  5
D41
330
A
100
AcDbEntity
  8
MODEL
370
    -3
100
AcDbLine
 10
416.7439155128713
 20
848.096221757996
 30
0.0
 11
408.0057833399683
 21
848.096221757996
 31
0.0
  0
LINE
  5
D42
330
A
100
AcDbEntity
  8
MODEL
370
    -3
100
AcDbLine
 10
408.0057833399683
 20
848.096221757996
 30
0.0
 11
408.0057833399683
 21
854.0500825782915
 31
0.0
  0
LINE
  5
D70
330
A
100
AcDbEntity
  8
MODEL
370
    -3
100
AcDbLine
 10
619.3680599654591
 20
848.096221757996
 30
0.0
 11
619.3680599654591
 21
803.6641163229335
 31
0.0
  0
LINE
  5
D72
330
A
100
AcDbEntity
  8
MODEL
370
    -3
100
AcDbLine
 10
609.4044720690716
 20
803.6641163229335
 30
0.0
 11
609.4044720690716
 21
848.096221757996
 31
0.0
  0
CIRCLE
  5
E28
102
{ACAD_REACTORS
330
EAD
102
}
330
A
100
AcDbEntity
  8
MODEL
  6
Continuous
370
     0
100
AcDbCircle
 10
412.3817795485613
 20
878.6641163229335
 30
0.0
 40
25.0
  0
ARC
  5
E2A
102
{ACAD_REACTORS
330
E48
330
EBC
102
}
330
A
100
AcDbEntity
  8
MODEL
  6
Continuous
370
     0
100
AcDbCircle
 10
289.1535553071673
 20
878.6641163229335
 30
0.0
 40
30.0
100
AcDbArc
 50
293.444090205736
 51
246.5598240823325
  0
ARC
  5
E74
102
{ACAD_REACTORS
330
E9E
102
}
330
A
100
AcDbEntity
  8
MODEL
  6
Continuous
370
     0
100
AcDbCircle
 10
412.3817795485613
 20
878.6641163229335
 30
0.0
 40
40.0
100
AcDbArc
 50
277.2001179312055
 51
262.8911690941927
  0
LINE
  5
E86
330
A
100
AcDbEntity
  8
MODEL
370
    -3
100
AcDbLine
 10
570.0063184266116
 20
838.6641163229335
 30
0.0
 11
579.8127891946499
 21
838.6641163229335
 31
0.0
  0
LINE
  5
E87
330
A
100
AcDbEntity
  8
MODEL
370
    -3
100
AcDbLine
 10
581.9280792180383
 20
852.574391001889
 30
0.0
 11
581.4802165095032
 21
846.8048823249965
 31
0.0
  0
LINE
  5
E88
330
A
100
AcDbEntity
  8
MODEL
370
    -3
100
AcDbLine
 10
581.4802165095032
 20
846.8048823249965
 30
0.0
 11
580.8394283265222
 21
839.5624255633215
 31
0.0
  0
LINE
  5
E89
330
A
100
AcDbEntity
  8
MODEL
370
    -3
100
AcDbLine
 10
580.8394283265222
 20
839.5624255633215
 30
0.0
 11
580.6482254009552
 21
839.1119790314674
 31
0.0
  0
LINE
  5
E8A
330
A
100
AcDbEntity
  8
MODEL
370
    -3
100
AcDbLine
 10
580.6482254009552
 20
839.1119790314674
 30
0.0
 11
580.3261087605863
 21
838.7915849399774
 31
0.0
  0
LINE
  5
E8B
330
A
100
AcDbEntity
  8
MODEL
370
    -3
100
AcDbLine
 10
580.3261087605863
 20
838.7915849399774
 30
0.0
 11
579.8127891946499
 21
838.6641163229335
 31
0.0
  0
LINE
  5
E8C
330
A
100
AcDbEntity
  8
MODEL
  6
Continuous
370
     0
100
AcDbLine
 10
581.9935360754398
 20
856.1646135029059
 30
0.0
 11
581.9280792180383
 21
852.574391001889
 31
0.0
  0
LINE
  5
E92
330
A
100
AcDbEntity
  8
MODEL
  6
Continuous
370
     0
100
AcDbLine
 10
609.4044720690716
 20
848.096221757996
 30
0.0
 11
619.3680599654591
 21
848.096221757996
 31
0.0
  0
LINE
  5
E93
330
A
100
AcDbEntity
  8
MODEL
  6
Continuous
370
     0
100
AcDbLine
 10
609.9786527320001
 20
853.6641163229335
 30
0.0
 11
609.9786527320001
 21
848.096221757996
 31
0.0
  0
LINE
  5
E94
330
A
100
AcDbEntity
  8
MODEL
  6
Continuous
370
     0
100
AcDbLine
 10
618.7121822542985
 20
853.6641163229335
 30
0.0
 11
618.7164156945793
 21
848.096221757996
 31
0.0
  0
LINE
  5
E97
330
A
100
AcDbEntity
  8
MODEL
370
    -3
100
AcDbLine
 10
570.0063184266116
 20
848.6641163404357
 30
0.0
 11
575.9870081344332
 21
848.6641163404357
 31
0.0
  0
LWPOLYLINE
  5
E98
330
A
100
AcDbEntity
  8
MODEL
  6
Continuous
370
     0
100
AcDbPolyline
 90
        4
 70
     1
 43
0.0
 10
191.515621788117
 20
393.8186048117011
 10
191.515621788117
 20
302.063748932163
 10
777.0564783878007
 20
302.063748932163
 10
777.0564783878007
 20
393.8186048117011
  0
LINE
  5
EEB
330
A
100
AcDbEntity
  8
MODEL
  6
Continuous
370
     0
100
AcDbLine
 10
407.4316026770398
 20
803.6641163229335
 30
0.0
 11
417.3951905734273
 21
803.6641163229335
 31
0.0
  0
LINE
  5
EEC
330
A
100
AcDbEntity
  8
MODEL
  6
Continuous
370
     0
100
AcDbLine
 10
609.4044720690716
 20
803.6641163229335
 30
0.0
 11
619.3680599654591
 21
803.6641163229335
 31
0.0
  0
VIEWPORT
  5
349
330
B
100
AcDbEntity
 67
     1
  8
0
100
AcDbViewport
 10
202.5
 20
128.5
 30
0.0
 40
486.0
 41
308.4
 68
     1
 69
     1
 12
202.5
 22
128.5
 13
0.0
 23
0.0
 14
0.5
 24
0.5
 15
0.0
 25
0.0
 16
0.0
 26
0.0
 36
1.0
 17
0.0
 27
0.0
 37
0.0
 42
50.0
 43
0.0
 44
0.0
 45
308.4
 50
0.0
 51
0.0
 72
   100
 90
   557152
  1

281
     0
 71
     1
 74
     0
110
0.0
120
0.0
130
0.0
111
1.0
121
0.0
131
0.0
112
0.0
122
1.0
132
0.0
 79
     0
146
0.0
170
     0
 61
     5
348
26C
292
     1
282
     1
141
0.0
142
0.0
 63
   256
  0
VIEWPORT
  5
34A
330
B
100
AcDbEntity
 67
     1
  8
0
100
AcDbViewport
 10
202.5
 20
128.5
 30
0.0
 40
324.0
 41
205.6
 68
     2
 69
     2
 12
986.6781359294573
 22
1427.077061889956
 13
0.0
 23
0.0
 14
0.5
 24
0.5
 15
0.0
 25
0.0
 16
0.0
 26
0.0
 36
1.0
 17
0.0
 27
0.0
 37
0.0
 42
50.0
 43
0.0
 44
0.0
 45
2890.021615685494
 50
0.0
 51
0.0
 72
   100
 90
   557152
  1

281
     0
 71
     1
 74
     0
110
0.0
120
0.0
130
0.0
111
1.0
121
0.0
131
0.0
112
0.0
122
1.0
132
0.0
 79
     0
146
0.0
170
     0
 61
     5
348
26C
292
     1
282
     1
141
0.0
142
0.0
 63
   256
  0
ENDSEC
  0
SECTION
  2
OBJECTS
  0
DICTIONARY
  5
19
330
0
100
AcDbDictionary
281
     1
  3
ACAD_COLOR
350
674
  3
ACAD_DETAILVIEWSTYLE
350
DB6
  3
ACAD_GROUP
350
1A
  3
ACAD_IMAGE_VARS
350
27B
  3
ACAD_LAYOUT
350
1E
  3
ACAD_MATERIAL
350
263
  3
ACAD_MLEADERSTYLE
350
336
  3
ACAD_MLINESTYLE
350
1B
  3
ACAD_PLOTSETTINGS
350
22
  3
ACAD_PLOTSTYLENAME
350
1F
  3
ACAD_SCALELIST
350
241
  3
ACAD_SECTIONVIEWSTYLE
350
DB7
  3
ACAD_TABLESTYLE
350
278
  3
ACAD_VISUALSTYLE
350
267
  3
ACDB_RECOMPOSE_DATA
350
F04
  3
AcDbVariableDictionary
350
330
  3
APPDATA
350
27A
  0
SUN
  5
D83
330
15
100
AcDbSun
 90
        1
290
     0
 63
     7
421
 16777215
 40
1.0
291
     1
 91
  2455826
 92
 54000000
292
     0
 70
     2
 71
   256
280
     1
  0
DICTIONARY
  5
2E1
330
2
100
AcDbDictionary
280
     1
281
     1
  3
ACAD_LAYERSTATES
360
2E2
  3
ACLYDICTIONARY
360
7AD
  0
DICTIONARY
  5
674
102
{ACAD_REACTORS
330
19
102
}
330
19
100
AcDbDictionary
281
     1
  0
DICTIONARY
  5
DB6
102
{ACAD_REACTORS
330
19
102
}
330
19
100
AcDbDictionary
281
     1
  0
DICTIONARY
  5
1A
102
{ACAD_REACTORS
330
19
102
}
330
19
100
AcDbDictionary
281
     1
  0
RASTERVARIABLES
  5
27B
102
{ACAD_REACTORS
330
19
102
}
330
19
100
AcDbRasterVariables
 90
        0
 70
     1
 71
     1
 72
     1
  0
DICTIONARY
  5
1E
102
{ACAD_REACTORS
330
19
102
}
330
19
100
AcDbDictionary
281
     1
  3
Layout1
350
21
  3
Model
350
20
  0
DICTIONARY
  5
263
102
{ACAD_REACTORS
330
19
102
}
330
19
100
AcDbDictionary
281
     1
  3
ByBlock
350
265
  3
ByLayer
350
264
  3
Global
350
266
  0
DICTIONARY
  5
336
102
{ACAD_REACTORS
330
19
102
}
330
19
100
AcDbDictionary
281
     1
  0
DICTIONARY
  5
1B
102
{ACAD_REACTORS
330
19
102
}
330
19
100
AcDbDictionary
281
     1
  3
Standard
350
1C
  0
DICTIONARY
  5
22
102
{ACAD_REACTORS
330
19
102
}
330
19
100
AcDbDictionary
281
     1
  0
ACDBDICTIONARYWDFLT
  5
1F
102
{ACAD_REACTORS
330
19
102
}
330
19
100
AcDbDictionary
281
     1
  3
Normal
350
1D
100
AcDbDictionaryWithDefault
340
1D
  0
DICTIONARY
  5
241
102
{ACAD_REACTORS
330
19
102
}
330
19
100
AcDbDictionary
281
     1
  3
A0
350
242
  3
A1
350
243
  3
A2
350
244
  3
A3
350
245
  3
A4
350
246
  3
A5
350
247
  3
A6
350
248
  3
A7
350
249
  3
A8
350
24A
  3
A9
350
24B
  3
B0
350
24C
  3
B1
350
24D
  3
B2
350
24E
  3
B3
350
24F
  3
B4
350
250
  3
B5
350
251
  3
B6
350
252
  3
B7
350
253
  3
B8
350
254
  3
B9
350
255
  3
C0
350
256
  3
C1
350
257
  3
C2
350
258
  3
C3
350
259
  3
C4
350
25A
  3
C5
350
25B
  3
C6
350
25C
  3
C7
350
25D
  3
C8
350
25E
  3
C9
350
25F
  3
D0
350
260
  3
D1
350
261
  3
D2
350
262
  0
DICTIONARY
  5
DB7
102
{ACAD_REACTORS
330
19
102
}
330
19
100
AcDbDictionary
281
     1
  0
DICTIONARY
  5
278
102
{ACAD_REACTORS
330
19
102
}
330
19
100
AcDbDictionary
281
     1
  3
Standard
350
279
  0
DICTIONARY
  5
267
102
{ACAD_REACTORS
330
19
102
}
330
19
100
AcDbDictionary
281
     1
  3
2dWireframe
350
26C
  3
3D Hidden
350
26E
  3
3dWireframe
350
26D
  3
Basic
350
26F
  3
Brighten
350
273
  3
ColorChange
350
277
  3
Conceptual
350
271
  3
Dim
350
272
  3
EdgeColorOff
350
D7D
  3
Facepattern
350
276
  3
Flat
350
268
  3
FlatWithEdges
350
269
  3
Gouraud
350
26A
  3
GouraudWithEdges
350
26B
  3
Hidden
350
D7A
  3
JitterOff
350
D7B
  3
Linepattern
350
275
  3
OverhangOff
350
D7C
  3
Realistic
350
270
  3
Shaded
350
D82
  3
Shaded with edges
350
D81
  3
Shades of Gray
350
D7E
  3
Sketchy
350
D7F
  3
Thicken
350
274
  3
Wireframe
350
D79
  3
X-Ray
350
D80
  0
XRECORD
  5
F04
102
{ACAD_REACTORS
330
19
102
}
330
19
100
AcDbXrecord
280
     1
 90
        1
330
279
  0
DICTIONARY
  5
330
102
{ACAD_REACTORS
330
19
102
}
330
19
100
AcDbDictionary
281
     1
  3
CANNOSCALE
350
331
  3
CTABLESTYLE
350
335
  3
XCLIPFRAME
350
DB5
  0
DICTIONARY
  5
27A
102
{ACAD_REACTORS
330
19
102
}
330
19
100
AcDbDictionary
281
     1
  0
DICTIONARY
  5
2E2
102
{ACAD_REACTORS
330
2E1
102
}
330
2E1
100
AcDbDictionary
281
     1
  3
ARGON_LAYERP_9
350
7AA
  0
DICTIONARY
  5
7AD
102
{ACAD_REACTORS
330
2E1
102
}
330
2E1
100
AcDbDictionary
281
     1
1001
ACAD
1000
<All
  0
LAYOUT
  5
21
102
{ACAD_REACTORS
330
1E
102
}
330
1E
100
AcDbPlotSettings
  1

  2
none_device
  4
ISO_A3_(420.00_x_297.00_MM)
  6

 40
7.5
 41
20.0
 42
7.5
 43
20.0
 44
420.0
 45
297.0
 46
0.0
 47
0.0
 48
0.0
 49
0.0
140
0.0
141
0.0
142
1.0
143
1.0
 70
     0
 72
     1
 73
     0
 74
     0
  7

 75
     0
 76
     0
 77
     2
 78
   300
147
1.0
148
0.0
149
0.0
100
AcDbLayout
  1
Layout1
 70
     0
 71
     0
 10
-7.5
 20
-20.0
 11
412.5
 21
277.0
 12
0.0
 22
0.0
 32
0.0
 14
0.0
 24
0.0
 34
0.0
 15
0.0
 25
0.0
 35
0.0
146
0.0
 13
0.0
 23
0.0
 33
0.0
 16
0.0
 26
0.0
 36
0.0
 17
0.0
 27
0.0
 37
0.0
 76
     0
330
B
331
349
  0
LAYOUT
  5
20
102
{ACAD_REACTORS
330
1E
102
}
330
1E
100
AcDbPlotSettings
  1

  2
none_device
  4
ISO_A3_(420.00_x_297.00_MM)
  6

 40
7.5
 41
20.0
 42
7.5
 43
20.0
 44
420.0
 45
297.0
 46
0.0
 47
0.0
 48
0.0
 49
0.0
140
0.0
141
0.0
142
1.0
143
1.0
 70
  1024
 72
     1
 73
     0
 74
     0
  7

 75
     0
 76
     0
 77
     2
 78
   300
147
1.0
148
0.0
149
0.0
100
AcDbLayout
  1
Model
 70
     0
 71
     1
 10
0.0
 20
0.0
 11
1014.999999999657
 21
1463.973030389223
 12
0.0
 22
0.0
 32
0.0
 14
19.99999999965712
 24
27.29576779829503
 34
0.0
 15
994.999999999898
 25
1443.973030389223
 35
0.0
146
0.0
 13
0.0
 23
0.0
 33
0.0
 16
0.0
 26
0.0
 36
0.0
 17
0.0
 27
0.0
 37
0.0
 76
     0
330
A
331
15
  0
MATERIAL
  5
265
102
{ACAD_REACTORS
330
263
102
}
330
263
100
AcDbMaterial
  1
ByBlock
 72
     1
 94
      127
  0
MATERIAL
  5
264
102
{ACAD_REACTORS
330
263
102
}
330
263
100
AcDbMaterial
  1
ByLayer
 72
     1
 94
      127
  0
MATERIAL
  5
266
102
{ACAD_REACTORS
330
263
102
}
330
263
100
AcDbMaterial
  1
Global
 72
     1
 94
      127
  0
MLINESTYLE
  5
1C
102
{ACAD_REACTORS
330
1B
102
}
330
1B
100
AcDbMlineStyle
  2
Standard
 70
     0
  3

 62
     0
 51
90.0
 52
90.0
 71
     2
 49
0.5
 62
   256
  6
BYLAYER
 49
-0.5
 62
   256
  6
BYLAYER
  0
ACDBPLACEHOLDER
  5
1D
102
{ACAD_REACTORS
330
1F
102
}
330
1F
  0
SCALE
  5
242
102
{ACAD_REACTORS
330
241
102
}
330
241
100
AcDbScale
 70
     0
300
1:1
140
1.0
141
1.0
290
     1
  0
SCALE
  5
243
102
{ACAD_REACTORS
330
241
102
}
330
241
100
AcDbScale
 70
     0
300
1:2
140
1.0
141
2.0
290
     0
  0
SCALE
  5
244
102
{ACAD_REACTORS
330
241
102
}
330
241
100
AcDbScale
 70
     0
300
1:4
140
1.0
141
4.0
290
     0
  0
SCALE
  5
245
102
{ACAD_REACTORS
330
241
102
}
330
241
100
AcDbScale
 70
     0
300
1:5
140
1.0
141
5.0
290
     0
  0
SCALE
  5
246
102
{ACAD_REACTORS
330
241
102
}
330
241
100
AcDbScale
 70
     0
300
1:8
140
1.0
141
8.0
290
     0
  0
SCALE
  5
247
102
{ACAD_REACTORS
330
241
102
}
330
241
100
AcDbScale
 70
     0
300
1:10
140
1.0
141
10.0
290
     0
  0
SCALE
  5
248
102
{ACAD_REACTORS
330
241
102
}
330
241
100
AcDbScale
 70
     0
300
1:16
140
1.0
141
16.0
290
     0
  0
SCALE
  5
249
102
{ACAD_REACTORS
330
241
102
}
330
241
100
AcDbScale
 70
     0
300
1:20
140
1.0
141
20.0
290
     0
  0
SCALE
  5
24A
102
{ACAD_REACTORS
330
241
102
}
330
241
100
AcDbScale
 70
     0
300
1:30
140
1.0
141
30.0
290
     0
  0
SCALE
  5
24B
102
{ACAD_REACTORS
330
241
102
}
330
241
100
AcDbScale
 70
     0
300
1:40
140
1.0
141
40.0
290
     0
  0
SCALE
  5
24C
102
{ACAD_REACTORS
330
241
102
}
330
241
100
AcDbScale
 70
     0
300
1:50
140
1.0
141
50.0
290
     0
  0
SCALE
  5
24D
102
{ACAD_REACTORS
330
241
102
}
330
241
100
AcDbScale
 70
     0
300
1:100
140
1.0
141
100.0
290
     0
  0
SCALE
  5
24E
102
{ACAD_REACTORS
330
241
102
}
330
241
100
AcDbScale
 70
     0
300
2:1
140
2.0
141
1.0
290
     0
  0
SCALE
  5
24F
102
{ACAD_REACTORS
330
241
102
}
330
241
100
AcDbScale
 70
     0
300
4:1
140
4.0
141
1.0
290
     0
  0
SCALE
  5
250
102
{ACAD_REACTORS
330
241
102
}
330
241
100
AcDbScale
 70
     0
300
8:1
140
8.0
141
1.0
290
     0
  0
SCALE
  5
251
102
{ACAD_REACTORS
330
241
102
}
330
241
100
AcDbScale
 70
     0
300
10:1
140
10.0
141
1.0
290
     0
  0
SCALE
  5
252
102
{ACAD_REACTORS
330
241
102
}
330
241
100
AcDbScale
 70
     0
300
100:1
140
100.0
141
1.0
290
     0
  0
SCALE
  5
253
102
{ACAD_REACTORS
330
241
102
}
330
241
100
AcDbScale
 70
     0
300
1/128" = 1'-0"
140
0.0078125
141
12.0
290
     0
  0
SCALE
  5
254
102
{ACAD_REACTORS
330
241
102
}
330
241
100
AcDbScale
 70
     0
300
1/64" = 1'-0"
140
0.015625
141
12.0
290
     0
  0
SCALE
  5
255
102
{ACAD_REACTORS
330
241
102
}
330
241
100
AcDbScale
 70
     0
300
1/32" = 1'-0"
140
0.03125
141
12.0
290
     0
  0
SCALE
  5
256
102
{ACAD_REACTORS
330
241
102
}
330
241
100
AcDbScale
 70
     0
300
1/16" = 1'-0"
140
0.0625
141
12.0
290
     0
  0
SCALE
  5
257
102
{ACAD_REACTORS
330
241
102
}
330
241
100
AcDbScale
 70
     0
300
3/32" = 1'-0"
140
0.09375
141
12.0
290
     0
  0
SCALE
  5
258
102
{ACAD_REACTORS
330
241
102
}
330
241
100
AcDbScale
 70
     0
300
1/8" = 1'-0"
140
0.125
141
12.0
290
     0
  0
SCALE
  5
259
102
{ACAD_REACTORS
330
241
102
}
330
241
100
AcDbScale
 70
     0
300
3/16" = 1'-0"
140
0.1875
141
12.0
290
     0
  0
SCALE
  5
25A
102
{ACAD_REACTORS
330
241
102
}
330
241
100
AcDbScale
 70
     0
300
1/4" = 1'-0"
140
0.25
141
12.0
290
     0
  0
SCALE
  5
25B
102
{ACAD_REACTORS
330
241
102
}
330
241
100
AcDbScale
 70
     0
300
3/8" = 1'-0"
140
0.375
141
12.0
290
     0
  0
SCALE
  5
25C
102
{ACAD_REACTORS
330
241
102
}
330
241
100
AcDbScale
 70
     0
300
1/2" = 1'-0"
140
0.5
141
12.0
290
     0
  0
SCALE
  5
25D
102
{ACAD_REACTORS
330
241
102
}
330
241
100
AcDbScale
 70
     0
300
3/4" = 1'-0"
140
0.75
141
12.0
290
     0
  0
SCALE
  5
25E
102
{ACAD_REACTORS
330
241
102
}
330
241
100
AcDbScale
 70
     0
300
1" = 1'-0"
140
1.0
141
12.0
290
     0
  0
SCALE
  5
25F
102
{ACAD_REACTORS
330
241
102
}
330
241
100
AcDbScale
 70
     0
300
1-1/2" = 1'-0"
140
1.5
141
12.0
290
     0
  0
SCALE
  5
260
102
{ACAD_REACTORS
330
241
102
}
330
241
100
AcDbScale
 70
     0
300
3" = 1'-0"
140
3.0
141
12.0
290
     0
  0
SCALE
  5
261
102
{ACAD_REACTORS
330
241
102
}
330
241
100
AcDbScale
 70
     0
300
6" = 1'-0"
140
6.0
141
12.0
290
     0
  0
SCALE
  5
262
102
{ACAD_REACTORS
330
241
102
}
330
241
100
AcDbScale
 70
     0
300
1'-0" = 1'-0"
140
12.0
141
12.0
290
     0
  0
TABLESTYLE
  5
279
102
{ACAD_REACTORS
330
278
102
}
102
{ACAD_XDICTIONARY
360
F02
102
}
330
278
100
AcDbTableStyle
  3
Standard
 70
     0
 71
     0
 40
0.06
 41
0.06
280
     0
281
     0
  7
Standard
140
4.5
170
     2
 62
     0
 63
   257
283
     0
 90
        4
 91
        0
  1

274
    -2
284
     1
 64
     0
275
    -2
285
     1
 65
     0
276
    -2
286
     1
 66
     0
277
    -2
287
     1
 67
     0
278
    -2
288
     1
 68
     0
279
    -2
289
     1
 69
     0
  7
Standard
140
6.0
170
     5
 62
     0
 63
   257
283
     0
 90
        4
 91
        0
  1

274
    -2
284
     1
 64
     0
275
    -2
285
     1
 65
     0
276
    -2
286
     1
 66
     0
277
    -2
287
     1
 67
     0
278
    -2
288
     1
 68
     0
279
    -2
289
     1
 69
     0
  7
Standard
140
4.5
170
     5
 62
     0
 63
   257
283
     0
 90
        4
 91
        0
  1

274
    -2
284
     1
 64
     0
275
    -2
285
     1
 65
     0
276
    -2
286
     1
 66
     0
277
    -2
287
     1
 67
     0
278
    -2
288
     1
 68
     0
279
    -2
289
     1
 69
     0
  0
VISUALSTYLE
  5
26C
102
{ACAD_REACTORS
330
267
102
}
330
267
100
AcDbVisualStyle
  2
2dWireframe
 70
     4
 71
     0
 72
     2
 73
     0
 90
        0
 40
-0.6
 41
-30.0
 62
     5
 63
     7
421
 16777215
 74
     1
 91
        4
 64
     7
 65
   257
 75
     1
175
     1
 42
1.0
 92
        0
 66
   257
 43
1.0
 76
     1
 77
     6
 78
     2
 67
     7
 79
     5
170
     0
171
     0
290
     0
174
     0
 93
        1
 44
0.0
173
     0
291
     0
 45
0.0
  0
VISUALSTYLE
  5
26E
102
{ACAD_REACTORS
330
267
102
}
330
267
100
AcDbVisualStyle
  2
3D Hidden
 70
     6
 71
     1
 72
     2
 73
     2
 90
        0
 40
-0.6
 41
-30.0
 62
     5
 63
     7
421
 16777215
 74
     2
 91
        2
 64
     7
 65
   257
 75
     2
175
     1
 42
40.0
 92
        0
 66
   257
 43
1.0
 76
     1
 77
     6
 78
     2
 67
     7
 79
     3
170
     0
171
     0
290
     0
174
     0
 93
        1
 44
0.0
173
     0
291
     0
 45
0.0
  0
VISUALSTYLE
  5
26D
102
{ACAD_REACTORS
330
267
102
}
330
267
100
AcDbVisualStyle
  2
3dWireframe
 70
     5
 71
     0
 72
     2
 73
     0
 90
        0
 40
-0.6
 41
-30.0
 62
     5
 63
     7
421
 16777215
 74
     1
 91
        4
 64
     7
 65
   257
 75
     1
175
     1
 42
1.0
 92
        0
 66
   257
 43
1.0
 76
     1
 77
     6
 78
     2
 67
     7
 79
     5
170
     0
171
     0
290
     0
174
     0
 93
        1
 44
0.0
173
     0
291
     0
 45
0.0
  0
VISUALSTYLE
  5
26F
102
{ACAD_REACTORS
330
267
102
}
330
267
100
AcDbVisualStyle
  2
Basic
 70
     7
 71
     1
 72
     0
 73
     1
 90
        0
 40
-0.6
 41
-30.0
 62
     5
 63
     7
421
 16777215
 74
     0
 91
        4
 64
     7
 65
   257
 75
     1
175
     1
 42
1.0
 92
        8
 66
     7
 43
1.0
 76
     1
 77
     6
 78
     2
 67
     7
 79
     5
170
     0
171
     0
290
     0
174
     0
 93
        1
 44
0.0
173
     0
291
     1
 45
0.0
  0
VISUALSTYLE
  5
273
102
{ACAD_REACTORS
330
267
102
}
330
267
100
AcDbVisualStyle
  2
Brighten
 70
    12
 71
     2
 72
     2
 73
     0
 90
        0
 40
-0.6
 41
-30.0
 62
     5
 63
     7
421
 16777215
 74
     1
 91
        4
 64
     7
 65
   257
 75
     1
175
     1
 42
1.0
 92
        8
 66
     7
 43
1.0
 76
     1
 77
     6
 78
     2
 67
     7
 79
     5
170
     0
171
     0
290
     0
174
     0
 93
        1
 44
50.0
173
     0
291
     1
 45
0.0
  0
VISUALSTYLE
  5
277
102
{ACAD_REACTORS
330
267
102
}
330
267
100
AcDbVisualStyle
  2
ColorChange
 70
    16
 71
     2
 72
     2
 73
     3
 90
        0
 40
-0.6
 41
-30.0
 62
     5
 63
     8
421
  8421504
 74
     1
 91
        4
 64
     7
 65
   257
 75
     1
175
     1
 42
1.0
 92
        8
 66
     8
424
  8421504
 43
1.0
 76
     1
 77
     6
 78
     2
 67
     7
 79
     5
170
     0
171
     0
290
     0
174
     0
 93
        1
 44
0.0
173
     0
291
     1
 45
0.0
  0
VISUALSTYLE
  5
271
102
{ACAD_REACTORS
330
267
102
}
330
267
100
AcDbVisualStyle
  2
Conceptual
 70
     9
 71
     3
 72
     2
 73
     0
 90
        0
 40
-0.6
 41
-30.0
 62
     5
 63
     7
421
 16777215
 74
     2
 91
        2
 64
     7
 65
   257
 75
     1
175
     1
 42
40.0
 92
        8
 66
     7
 43
1.0
 76
     1
 77
     6
 78
     2
 67
     7
 79
     3
170
     0
171
     0
290
     0
174
     0
 93
        1
 44
0.0
173
     0
291
     0
 45
0.0
  0
VISUALSTYLE
  5
272
102
{ACAD_REACTORS
330
267
102
}
330
267
100
AcDbVisualStyle
  2
Dim
 70
    11
 71
     2
 72
     2
 73
     0
 90
        0
 40
-0.6
 41
-30.0
 62
     5
 63
     7
421
 16777215
 74
     1
 91
        4
 64
     7
 65
   257
 75
     1
175
     1
 42
1.0
 92
        8
 66
     7
 43
1.0
 76
     1
 77
     6
 78
     2
 67
     7
 79
     5
170
     0
171
     0
290
     0
174
     0
 93
        1
 44
-50.0
173
     0
291
     1
 45
0.0
  0
VISUALSTYLE
  5
D7D
102
{ACAD_REACTORS
330
267
102
}
330
267
100
AcDbVisualStyle
  2
EdgeColorOff
 70
    22
 71
     2
 72
     2
 73
     0
 90
        0
 40
0.6
 41
30.0
 62
     5
 63
     7
421
 16777215
 74
     1
 91
        4
 64
     7
 65
   257
 75
     1
175
     1
 42
1.0
 92
        8
 66
     7
 43
1.0
 76
     1
 77
     6
 78
     2
 67
     7
 79
     5
170
     0
171
     0
290
     0
174
     0
 93
        1
 44
0.0
173
     0
291
     1
 45
0.0
  0
VISUALSTYLE
  5
276
102
{ACAD_REACTORS
330
267
102
}
330
267
100
AcDbVisualStyle
  2
Facepattern
 70
    15
 71
     2
 72
     2
 73
     0
 90
        0
 40
-0.6
 41
-30.0
 62
     5
 63
     7
421
 16777215
 74
     1
 91
        4
 64
     7
 65
   257
 75
     1
175
     1
 42
1.0
 92
        8
 66
     7
 43
1.0
 76
     1
 77
     6
 78
     2
 67
     7
 79
     5
170
     0
171
     0
290
     0
174
     0
 93
        1
 44
0.0
173
     0
291
     1
 45
0.0
  0
VISUALSTYLE
  5
268
102
{ACAD_REACTORS
330
267
102
}
330
267
100
AcDbVisualStyle
  2
Flat
 70
     0
 71
     2
 72
     1
 73
     1
 90
        2
 40
-0.6
 41
30.0
 62
     5
 63
     7
421
 16777215
 74
     0
 91
        4
 64
     7
 65
   257
 75
     1
175
     1
 42
1.0
 92
        8
 66
     7
 43
1.0
 76
     1
 77
     6
 78
     2
 67
     7
 79
     5
170
     0
171
     0
290
     0
174
     0
 93
       13
 44
0.0
173
     0
291
     1
 45
0.0
  0
VISUALSTYLE
  5
269
102
{ACAD_REACTORS
330
267
102
}
330
267
100
AcDbVisualStyle
  2
FlatWithEdges
 70
     1
 71
     2
 72
     1
 73
     1
 90
        2
 40
-0.6
 41
30.0
 62
     5
 63
     7
421
 16777215
 74
     1
 91
        4
 64
     7
 65
   257
 75
     1
175
     1
 42
1.0
 92
        0
 66
   257
 43
1.0
 76
     1
 77
     6
 78
     2
 67
     7
 79
     5
170
     0
171
     0
290
     0
174
     0
 93
       13
 44
0.0
173
     0
291
     1
 45
0.0
  0
VISUALSTYLE
  5
26A
102
{ACAD_REACTORS
330
267
102
}
330
267
100
AcDbVisualStyle
  2
Gouraud
 70
     2
 71
     2
 72
     2
 73
     1
 90
        2
 40
-0.6
 41
30.0
 62
     5
 63
     7
421
 16777215
 74
     0
 91
        4
 64
     7
 65
   257
 75
     1
175
     1
 42
1.0
 92
        0
 66
     7
 43
1.0
 76
     1
 77
     6
 78
     2
 67
     7
 79
     5
170
     0
171
     0
290
     0
174
     0
 93
       13
 44
0.0
173
     0
291
     1
 45
0.0
  0
VISUALSTYLE
  5
26B
102
{ACAD_REACTORS
330
267
102
}
330
267
100
AcDbVisualStyle
  2
GouraudWithEdges
 70
     3
 71
     2
 72
     2
 73
     1
 90
        2
 40
-0.6
 41
30.0
 62
     5
 63
     7
421
 16777215
 74
     1
 91
        4
 64
     7
 65
   257
 75
     1
175
     1
 42
1.0
 92
        0
 66
   257
 43
1.0
 76
     1
 77
     6
 78
     2
 67
     7
 79
     5
170
     0
171
     0
290
     0
174
     0
 93
       13
 44
0.0
173
     0
291
     1
 45
0.0
  0
VISUALSTYLE
  5
D7A
102
{ACAD_REACTORS
330
267
102
}
330
267
100
AcDbVisualStyle
  2
Hidden
 70
     6
 71
     1
 72
     2
 73
     2
 90
        0
 40
0.6
 41
30.0
 62
     5
 63
     7
421
 16777215
 74
     2
 91
        2
 64
     7
 65
   257
 75
     2
175
     1
 42
40.0
 92
        0
 66
   257
 43
1.0
 76
     1
 77
     6
 78
     2
 67
     7
 79
     3
170
     0
171
     0
290
     0
174
     0
 93
        1
 44
0.0
173
     0
291
     0
 45
0.0
  0
VISUALSTYLE
  5
D7B
102
{ACAD_REACTORS
330
267
102
}
330
267
100
AcDbVisualStyle
  2
JitterOff
 70
    20
 71
     2
 72
     2
 73
     0
 90
        0
 40
0.6
 41
30.0
 62
     5
 63
     7
421
 16777215
 74
     1
 91
        4
 64
     7
 65
   257
 75
     1
175
     1
 42
1.0
 92
       10
 66
     7
 43
1.0
 76
     1
 77
     6
 78
     2
 67
     7
 79
     5
170
     0
171
     0
290
     0
174
     0
 93
        1
 44
0.0
173
     0
291
     1
 45
0.0
  0
VISUALSTYLE
  5
275
102
{ACAD_REACTORS
330
267
102
}
330
267
100
AcDbVisualStyle
  2
Linepattern
 70
    14
 71
     2
 72
     2
 73
     0
 90
        0
 40
-0.6
 41
-30.0
 62
     5
 63
     7
421
 16777215
 74
     1
 91
        4
 64
     7
 65
   257
 75
     7
175
     7
 42
1.0
 92
        8
 66
     7
 43
1.0
 76
     1
 77
     6
 78
     2
 67
     7
 79
     5
170
     0
171
     0
290
     0
174
     0
 93
        1
 44
0.0
173
     0
291
     1
 45
0.0
  0
VISUALSTYLE
  5
D7C
102
{ACAD_REACTORS
330
267
102
}
330
267
100
AcDbVisualStyle
  2
OverhangOff
 70
    21
 71
     2
 72
     2
 73
     0
 90
        0
 40
0.6
 41
30.0
 62
     5
 63
     7
421
 16777215
 74
     1
 91
        4
 64
     7
 65
   257
 75
     1
175
     1
 42
1.0
 92
        9
 66
     7
 43
1.0
 76
     1
 77
     6
 78
     2
 67
     7
 79
     5
170
     0
171
     0
290
     0
174
     0
 93
        1
 44
0.0
173
     0
291
     1
 45
0.0
  0
VISUALSTYLE
  5
270
102
{ACAD_REACTORS
330
267
102
}
330
267
100
AcDbVisualStyle
  2
Realistic
 70
     8
 71
     2
 72
     2
 73
     0
 90
        0
 40
-0.6
 41
-30.0
 62
     5
 63
     7
421
 16777215
 74
     1
 91
        0
 64
     7
 65
   257
 75
     1
175
     1
 42
1.0
 92
        8
 66
     8
424
  7895160
 43
1.0
 76
     1
 77
     6
 78
     2
 67
     7
 79
     5
170
     0
171
     0
290
     0
174
     0
 93
       13
 44
0.0
173
     0
291
     0
 45
0.0
  0
VISUALSTYLE
  5
D82
102
{ACAD_REACTORS
330
267
102
}
330
267
100
AcDbVisualStyle
  2
Shaded
 70
    27
 71
     2
 72
     2
 73
     1
 90
        2
 40
0.6
 41
30.0
 62
     5
 63
     7
421
 16777215
 74
     0
 91
        4
 64
     7
 65
   257
 75
     1
175
     1
 42
1.0
 92
        8
 66
   257
 43
1.0
 76
     1
 77
     6
 78
     2
 67
     8
425
  7895160
 79
     3
170
     0
171
     0
290
     0
174
     0
 93
        5
 44
0.0
173
     0
291
     0
 45
0.0
  0
VISUALSTYLE
  5
D81
102
{ACAD_REACTORS
330
267
102
}
330
267
100
AcDbVisualStyle
  2
Shaded with edges
 70
    26
 71
     2
 72
     2
 73
     1
 90
        2
 40
0.6
 41
30.0
 62
     5
 63
     7
421
 16777215
 74
     1
 91
       10
 64
     7
 65
   257
 75
     2
175
     1
 42
1.0
 92
        8
 66
   257
 43
1.0
 76
     1
 77
     6
 78
     2
 67
     7
 79
     3
170
     0
171
     0
290
     0
174
     0
 93
        5
 44
0.0
173
     0
291
     0
 45
0.0
  0
VISUALSTYLE
  5
D7E
102
{ACAD_REACTORS
330
267
102
}
330
267
100
AcDbVisualStyle
  2
Shades of Gray
 70
    23
 71
     2
 72
     2
 73
     3
 90
        0
 40
0.6
 41
30.0
 62
     5
 63
     7
421
 16777215
 74
     2
 91
        2
 64
     7
 65
     7
 75
     1
175
     1
 42
40.0
 92
        8
 66
     7
 43
1.0
 76
     1
 77
     6
 78
     2
 67
     7
 79
     3
170
     0
171
     0
290
     0
174
     0
 93
        1
 44
0.0
173
     0
291
     0
 45
0.0
  0
VISUALSTYLE
  5
D7F
102
{ACAD_REACTORS
330
267
102
}
330
267
100
AcDbVisualStyle
  2
Sketchy
 70
    24
 71
     1
 72
     2
 73
     2
 90
        0
 40
0.6
 41
30.0
 62
     5
 63
     7
421
 16777215
 74
     2
 91
        2
 64
     7
 65
     7
 75
     1
175
     1
 42
40.0
 92
       11
 66
     7
 43
1.0
 76
     1
 77
     6
 78
     2
 67
     7
 79
     6
170
     0
171
     0
290
     0
174
     0
 93
        1
 44
0.0
173
     0
291
     0
 45
0.0
  0
VISUALSTYLE
  5
274
102
{ACAD_REACTORS
330
267
102
}
330
267
100
AcDbVisualStyle
  2
Thicken
 70
    13
 71
     2
 72
     2
 73
     0
 90
        0
 40
-0.6
 41
-30.0
 62
     5
 63
     7
421
 16777215
 74
     1
 91
        4
 64
     7
 65
   257
 75
     1
175
     1
 42
1.0
 92
       12
 66
     7
 43
1.0
 76
     1
 77
     6
 78
     2
 67
     7
 79
     5
170
     0
171
     0
290
     0
174
     0
 93
        1
 44
0.0
173
     0
291
     1
 45
0.0
  0
VISUALSTYLE
  5
D79
102
{ACAD_REACTORS
330
267
102
}
330
267
100
AcDbVisualStyle
  2
Wireframe
 70
     5
 71
     0
 72
     2
 73
     0
 90
        0
 40
0.6
 41
30.0
 62
     5
 63
     7
421
 16777215
 74
     1
 91
        4
 64
     7
 65
   257
 75
     1
175
     1
 42
1.0
 92
        0
 66
   257
 43
1.0
 76
     1
 77
     6
 78
     2
 67
     7
 79
     3
170
     0
171
     0
290
     0
174
     0
 93
        1
 44
0.0
173
     0
291
     0
 45
0.0
  0
VISUALSTYLE
  5
D80
102
{ACAD_REACTORS
330
267
102
}
330
267
100
AcDbVisualStyle
  2
X-Ray
 70
    25
 71
     2
 72
     2
 73
     1
 90
        1
 40
0.5
 41
30.0
 62
     5
 63
     7
421
 16777215
 74
     1
 91
        0
 64
     7
 65
   257
 75
     1
175
     1
 42
1.0
 92
        8
 66
     7
 43
1.0
 76
     1
 77
     6
 78
     2
 67
     7
 79
     3
170
     0
171
     0
290
     0
174
     0
 93
       13
 44
0.0
173
     0
291
     0
 45
0.0
  0
DICTIONARYVAR
  5
331
102
{ACAD_REACTORS
330
330
102
}
330
330
100
DictionaryVariables
280
     0
  1
1:1
  0
DICTIONARYVAR
  5
335
102
{ACAD_REACTORS
330
330
102
}
330
330
100
DictionaryVariables
280
     0
  1
Standard
  0
DICTIONARYVAR
  5
DB5
102
{ACAD_REACTORS
330
330
102
}
330
330
100
DictionaryVariables
280
     0
  1
0
  0
XRECORD
  5
7AA
102
{ACAD_REACTORS
330
2E2
102
}
330
2E2
100
AcDbXrecord
280
     1
 91
     1023
301

290
     0
302
MODEL
330
14
 90
        8
 62
     7
370
    -3
331
13
  1
Color_7
330
4A
 90
        0
 62
     7
370
    -3
331
13
  1
Color_7
330
4B
 90
        8
 62
     7
370
    -3
331
13
  1
Color_7
330
4C
 90
        8
 62
     7
370
    -3
331
13
  1
Color_7
330
4D
 90
        8
 62
     7
370
    -3
331
13
  1
Color_7
330
380
 90
        9
 62
     1
370
    -3
331
13
  1
Color_1
330
382
 90
        8
 62
     4
370
    -3
331
13
  1
Color_4
330
667
 90
        8
 62
     7
370
    -3
331
13
  1
Color_7
  0
DICTIONARY
  5
F02
330
279
100
AcDbDictionary
280
     1
281
     1
  3
ACAD_ROUNDTRIP_2008_TABLESTYLE_CELLSTYLEMAP
360
F03
  0
CELLSTYLEMAP
  5
F03
102
{ACAD_REACTORS
330
F02
102
}
330
F02
100
AcDbCellStyleMap
 90
        3
300
CELLSTYLE
  1
TABLEFORMAT_BEGIN
 90
        5
170
     1
 91
        0
 92
    32768
 62
   257
 93
        1
300
CONTENTFORMAT
  1
CONTENTFORMAT_BEGIN
 90
        0
 91
        0
 92
        4
 93
        0
300

 40
0.0
140
1.0
 94
        5
 62
     0
340
17
144
6.0
309
CONTENTFORMAT_END
171
     1
301
MARGIN
  1
CELLMARGIN_BEGIN
 40
0.06
 40
0.06
 40
0.06
 40
0.06
 40
0.18
 40
0.18
309
CELLMARGIN_END
 94
        6
 95
        1
302
GRIDFORMAT
  1
GRIDFORMAT_BEGIN
 90
        0
 91
        1
 62
     0
 92
       -2
340
0
 93
        0
 40
0.045
309
GRIDFORMAT_END
 95
        2
302
GRIDFORMAT
  1
GRIDFORMAT_BEGIN
 90
        0
 91
        1
 62
     0
 92
       -2
340
0
 93
        0
 40
0.045
309
GRIDFORMAT_END
 95
        4
302
GRIDFORMAT
  1
GRIDFORMAT_BEGIN
 90
        0
 91
        1
 62
     0
 92
       -2
340
0
 93
        0
 40
0.045
309
GRIDFORMAT_END
 95
        8
302
GRIDFORMAT
  1
GRIDFORMAT_BEGIN
 90
        0
 91
        1
 62
     0
 92
       -2
340
0
 93
        0
 40
0.045
309
GRIDFORMAT_END
 95
       16
302
GRIDFORMAT
  1
GRIDFORMAT_BEGIN
 90
        0
 91
        1
 62
     0
 92
       -2
340
0
 93
        0
 40
0.045
309
GRIDFORMAT_END
 95
       32
302
GRIDFORMAT
  1
GRIDFORMAT_BEGIN
 90
        0
 91
        1
 62
     0
 92
       -2
340
0
 93
        0
 40
0.045
309
GRIDFORMAT_END
309
TABLEFORMAT_END
  1
CELLSTYLE_BEGIN
 90
        1
 91
        1
300
_TITLE
309
CELLSTYLE_END
300
CELLSTYLE
  1
TABLEFORMAT_BEGIN
 90
        5
170
     1
 91
        0
 92
        0
 62
   257
 93
        1
300
CONTENTFORMAT
  1
CONTENTFORMAT_BEGIN
 90
        0
 91
        0
 92
        4
 93
        0
300

 40
0.0
140
1.0
 94
        5
 62
     0
340
17
144
4.5
309
CONTENTFORMAT_END
171
     1
301
MARGIN
  1
CELLMARGIN_BEGIN
 40
0.06
 40
0.06
 40
0.06
 40
0.06
 40
0.18
 40
0.18
309
CELLMARGIN_END
 94
        6
 95
        1
302
GRIDFORMAT
  1
GRIDFORMAT_BEGIN
 90
        0
 91
        1
 62
     0
 92
       -2
340
0
 93
        0
 40
0.045
309
GRIDFORMAT_END
 95
        2
302
GRIDFORMAT
  1
GRIDFORMAT_BEGIN
 90
        0
 91
        1
 62
     0
 92
       -2
340
0
 93
        0
 40
0.045
309
GRIDFORMAT_END
 95
        4
302
GRIDFORMAT
  1
GRIDFORMAT_BEGIN
 90
        0
 91
        1
 62
     0
 92
       -2
340
0
 93
        0
 40
0.045
309
GRIDFORMAT_END
 95
        8
302
GRIDFORMAT
  1
GRIDFORMAT_BEGIN
 90
        0
 91
        1
 62
     0
 92
       -2
340
0
 93
        0
 40
0.045
309
GRIDFORMAT_END
 95
       16
302
GRIDFORMAT
  1
GRIDFORMAT_BEGIN
 90
        0
 91
        1
 62
     0
 92
       -2
340
0
 93
        0
 40
0.045
309
GRIDFORMAT_END
 95
       32
302
GRIDFORMAT
  1
GRIDFORMAT_BEGIN
 90
        0
 91
        1
 62
     0
 92
       -2
340
0
 93
        0
 40
0.045
309
GRIDFORMAT_END
309
TABLEFORMAT_END
  1
CELLSTYLE_BEGIN
 90
        2
 91
        1
300
_HEADER
309
CELLSTYLE_END
300
CELLSTYLE
  1
TABLEFORMAT_BEGIN
 90
        5
170
     1
 91
        0
 92
        0
 62
   257
 93
        1
300
CONTENTFORMAT
  1
CONTENTFORMAT_BEGIN
 90
        0
 91
        0
 92
        4
 93
        0
300

 40
0.0
140
1.0
 94
        2
 62
     0
340
17
144
4.5
309
CONTENTFORMAT_END
171
     1
301
MARGIN
  1
CELLMARGIN_BEGIN
 40
0.06
 40
0.06
 40
0.06
 40
0.06
 40
0.18
 40
0.18
309
CELLMARGIN_END
 94
        6
 95
        1
302
GRIDFORMAT
  1
GRIDFORMAT_BEGIN
 90
        0
 91
        1
 62
     0
 92
       -2
340
0
 93
        0
 40
0.045
309
GRIDFORMAT_END
 95
        2
302
GRIDFORMAT
  1
GRIDFORMAT_BEGIN
 90
        0
 91
        1
 62
     0
 92
       -2
340
0
 93
        0
 40
0.045
309
GRIDFORMAT_END
 95
        4
302
GRIDFORMAT
  1
GRIDFORMAT_BEGIN
 90
        0
 91
        1
 62
     0
 92
       -2
340
0
 93
        0
 40
0.045
309
GRIDFORMAT_END
 95
        8
302
GRIDFORMAT
  1
GRIDFORMAT_BEGIN
 90
        0
 91
        1
 62
     0
 92
       -2
340
0
 93
        0
 40
0.045
309
GRIDFORMAT_END
 95
       16
302
GRIDFORMAT
  1
GRIDFORMAT_BEGIN
 90
        0
 91
        1
 62
     0
 92
       -2
340
0
 93
        0
 40
0.045
309
GRIDFORMAT_END
 95
       32
302
GRIDFORMAT
  1
GRIDFORMAT_BEGIN
 90
        0
 91
        1
 62
     0
 92
       -2
340
0
 93
        0
 40
0.045
309
GRIDFORMAT_END
309
TABLEFORMAT_END
  1
CELLSTYLE_BEGIN
 90
        3
 91
        2
300
_DATA
309
CELLSTYLE_END
  0
ENDSEC
  0
EOF
