  0
SECTION
  2
HEADER
  9
$ACADVER
  1
AC1021
  9
$ACADMAINTVER
 70
    25
  9
$DWGCODEPAGE
  3
ANSI_932
  9
$LASTSAVEDBY
  1
howeNelson
  9
$INSBASE
 10
0.0
 20
0.0
 30
0.0
  9
$EXTMIN
 10
-975.0000000002412
 20
-1436.535732690497
 30
0.0
  9
$EXTMAX
 10
975.0000000002412
 20
1405.9972926413
 30
0.0
  9
$LIMMIN
 10
0.0
 20
0.0
  9
$LIMMAX
 10
0.0
 20
0.0
  9
$ORTHOMODE
 70
     0
  9
$REGENMODE
 70
     1
  9
$FILLMODE
 70
     1
  9
$QTEXTMODE
 70
     0
  9
$MIRRTEXT
 70
     1
  9
$LTSCALE
 40
50.8
  9
$ATTMODE
 70
     1
  9
$TEXTSIZE
 40
2.5
  9
$TRACEWID
 40
1.0
  9
$TEXTSTYLE
  7
Standard
  9
$CLAYER
  8
template
  9
$CELTYPE
  6
Continuous
  9
$CECOLOR
 62
   256
  9
$CELTSCALE
 40
1.0
  9
$DISPSILH
 70
     0
  9
$DIMSCALE
 40
1.0
  9
$DIMASZ
 40
31.75
  9
$DIMEXO
 40
0.0
  9
$DIMDLI
 40
6.99999999999994
  9
$DIMRND
 40
0.0
  9
$DIMDLE
 40
0.0
  9
$DIMEXE
 40
19.9999999999962
  9
$DIMTP
 40
0.0
  9
$DIMTM
 40
0.0
  9
$DIMTXT
 40
24.4326171875
  9
$DIMCEN
 40
0.0
  9
$DIMTSZ
 40
0.0
  9
$DIMTOL
 70
     0
  9
$DIMLIM
 70
     0
  9
$DIMTIH
 70
     0
  9
$DIMTOH
 70
     0
  9
$DIMSE1
 70
     0
  9
$DIMSE2
 70
     0
  9
$DIMTAD
 70
     1
  9
$DIMZIN
 70
    11
  9
$DIMBLK
  1
VW_FILLEDARROW
  9
$DIMASO
 70
     1
  9
$DIMSHO
 70
     1
  9
$DIMPOST
  1
<>
  9
$DIMAPOST
  1
[]
  9
$DIMALT
 70
     0
  9
$DIMALTD
 70
     1
  9
$DIMALTF
 40
1.0
  9
$DIMLFAC
 40
1.0
  9
$DIMTOFL
 70
     0
  9
$DIMTVP
 40
0.0
  9
$DIMTIX
 70
     1
  9
$DIMSOXD
 70
     0
  9
$DIMSAH
 70
     0
  9
$DIMBLK1
  1

  9
$DIMBLK2
  1

  9
$DIMSTYLE
  2
JIS
  9
$DIMCLRD
 70
     0
  9
$DIMCLRE
 70
     0
  9
$DIMCLRT
 70
     0
  9
$DIMTFAC
 40
1.0
  9
$DIMGAP
 40
10.0
  9
$DIMJUST
 70
     0
  9
$DIMSD1
 70
     0
  9
$DIMSD2
 70
     0
  9
$DIMTOLJ
 70
     1
  9
$DIMTZIN
 70
    11
  9
$DIMALTZ
 70
    11
  9
$DIMALTTZ
 70
    11
  9
$DIMUPT
 70
     0
  9
$DIMDEC
 70
     1
  9
$DIMTDEC
 70
     1
  9
$DIMALTU
 70
     2
  9
$DIMALTTD
 70
     2
  9
$DIMTXSTY
  7
‚l‚r ƒSƒVƒbƒN
  9
$DIMAUNIT
 70
     0
  9
$DIMADEC
 70
     2
  9
$DIMALTRND
 40
0.0
  9
$DIMAZIN
 70
     0
  9
$DIMDSEP
 70
    46
  9
$DIMATFIT
 70
     0
  9
$DIMFRAC
 70
     2
  9
$DIMLDRBLK
  1

  9
$DIMLUNIT
 70
     2
  9
$DIMLWD
 70
    -2
  9
$DIMLWE
 70
    -2
  9
$DIMTMOVE
 70
     0
  9
$DIMFXL
 40
1.0
  9
$DIMFXLON
 70
     0
  9
$DIMJOGANG
 40
0.7853981633974483
  9
$DIMTFILL
 70
     0
  9
$DIMTFILLCLR
 70
     0
  9
$DIMARCSYM
 70
     0
  9
$DIMLTYPE
  6

  9
$DIMLTEX1
  6

  9
$DIMLTEX2
  6

  9
$LUNITS
 70
     2
  9
$LUPREC
 70
     4
  9
$SKETCHINC
 40
0.1
  9
$FILLETRAD
 40
0.0
  9
$AUNITS
 70
     0
  9
$AUPREC
 70
     0
  9
$MENU
  1
acad
  9
$ELEVATION
 40
0.0
  9
$PELEVATION
 40
0.0
  9
$THICKNESS
 40
0.0
  9
$LIMCHECK
 70
     0
  9
$CHAMFERA
 40
0.0
  9
$CHAMFERB
 40
0.0
  9
$CHAMFERC
 40
0.0
  9
$CHAMFERD
 40
0.0
  9
$SKPOLY
 70
     0
  9
$TDCREATE
 40
2447893.375
  9
$TDUCREATE
 40
0.0
  9
$TDUPDATE
 40
2458190.471576088
  9
$TDUUPDATE
 40
2458190.096576088
  9
$TDINDWG
 40
0.0040675463
  9
$TDUSRTIMER
 40
0.0000577431
  9
$USRTIMER
 70
     1
  9
$ANGBASE
 50
0.0
  9
$ANGDIR
 70
     0
  9
$PDMODE
 70
     1
  9
$PDSIZE
 40
-2.0
  9
$PLINEWID
 40
0.0
  9
$SPLFRAME
 70
     0
  9
$SPLINETYPE
 70
     6
  9
$SPLINESEGS
 70
     8
  9
$HANDSEED
  5
41C
  9
$SURFTAB1
 70
     6
  9
$SURFTAB2
 70
     6
  9
$SURFTYPE
 70
     6
  9
$SURFU
 70
     6
  9
$SURFV
 70
     6
  9
$UCSBASE
  2

  9
$UCSNAME
  2

  9
$UCSORG
 10
0.0
 20
0.0
 30
0.0
  9
$UCSXDIR
 10
1.0
 20
0.0
 30
0.0
  9
$UCSYDIR
 10
0.0
 20
1.0
 30
0.0
  9
$UCSORTHOREF
  2

  9
$UCSORTHOVIEW
 70
     0
  9
$UCSORGTOP
 10
0.0
 20
0.0
 30
0.0
  9
$UCSORGBOTTOM
 10
0.0
 20
0.0
 30
0.0
  9
$UCSORGLEFT
 10
0.0
 20
0.0
 30
0.0
  9
$UCSORGRIGHT
 10
0.0
 20
0.0
 30
0.0
  9
$UCSORGFRONT
 10
0.0
 20
0.0
 30
0.0
  9
$UCSORGBACK
 10
0.0
 20
0.0
 30
0.0
  9
$PUCSBASE
  2

  9
$PUCSNAME
  2

  9
$PUCSORG
 10
0.0
 20
0.0
 30
0.0
  9
$PUCSXDIR
 10
1.0
 20
0.0
 30
0.0
  9
$PUCSYDIR
 10
0.0
 20
1.0
 30
0.0
  9
$PUCSORTHOREF
  2

  9
$PUCSORTHOVIEW
 70
     0
  9
$PUCSORGTOP
 10
0.0
 20
0.0
 30
0.0
  9
$PUCSORGBOTTOM
 10
0.0
 20
0.0
 30
0.0
  9
$PUCSORGLEFT
 10
0.0
 20
0.0
 30
0.0
  9
$PUCSORGRIGHT
 10
0.0
 20
0.0
 30
0.0
  9
$PUCSORGFRONT
 10
0.0
 20
0.0
 30
0.0
  9
$PUCSORGBACK
 10
0.0
 20
0.0
 30
0.0
  9
$USERI1
 70
     0
  9
$USERI2
 70
     0
  9
$USERI3
 70
     0
  9
$USERI4
 70
     0
  9
$USERI5
 70
     0
  9
$USERR1
 40
0.0
  9
$USERR2
 40
0.0
  9
$USERR3
 40
0.0
  9
$USERR4
 40
0.0
  9
$USERR5
 40
0.0
  9
$WORLDVIEW
 70
     1
  9
$SHADEDGE
 70
     3
  9
$SHADEDIF
 70
    70
  9
$TILEMODE
 70
     1
  9
$MAXACTVP
 70
    64
  9
$PINSBASE
 10
0.0
 20
0.0
 30
0.0
  9
$PLIMCHECK
 70
     0
  9
$PEXTMIN
 10
1.000000000000000E+20
 20
1.000000000000000E+20
 30
1.000000000000000E+20
  9
$PEXTMAX
 10
-1.000000000000000E+20
 20
-1.000000000000000E+20
 30
-1.000000000000000E+20
  9
$PLIMMIN
 10
0.0
 20
0.0
  9
$PLIMMAX
 10
0.0
 20
0.0
  9
$UNITMODE
 70
     0
  9
$VISRETAIN
 70
     0
  9
$PLINEGEN
 70
     1
  9
$PSLTSCALE
 70
     0
  9
$TREEDEPTH
 70
  3020
  9
$CMLSTYLE
  2
Standard
  9
$CMLJUST
 70
     0
  9
$CMLSCALE
 40
1.0
  9
$PROXYGRAPHICS
 70
     0
  9
$MEASUREMENT
 70
     1
  9
$CELWEIGHT
370
     0
  9
$ENDCAPS
280
     0
  9
$JOINSTYLE
280
     0
  9
$LWDISPLAY
290
     1
  9
$INSUNITS
 70
     4
  9
$HYPERLINKBASE
  1

  9
$STYLESHEET
  1

  9
$XEDIT
290
     1
  9
$CEPSNTYPE
380
     0
  9
$PSTYLEMODE
290
     1
  9
$FINGERPRINTGUID
  2

  9
$VERSIONGUID
  2

  9
$EXTNAMES
290
     1
  9
$PSVPSCALE
 40
0.0
  9
$OLESTARTUP
290
     0
  9
$SORTENTS
280
   127
  9
$INDEXCTL
280
     0
  9
$HIDETEXT
280
     1
  9
$XCLIPFRAME
290
     0
  9
$HALOGAP
280
     0
  9
$OBSCOLOR
 70
   257
  9
$OBSLTYPE
280
     0
  9
$INTERSECTIONDISPLAY
280
     0
  9
$INTERSECTIONCOLOR
 70
   257
  9
$DIMASSOC
280
     2
  9
$PROJECTNAME
  1

  9
$CAMERADISPLAY
290
     0
  9
$LENSLENGTH
 40
50.0
  9
$CAMERAHEIGHT
 40
0.0
  9
$STEPSPERSEC
 40
2.0
  9
$STEPSIZE
 40
6.0
  9
$3DDWFPREC
 40
2.0
  9
$PSOLWIDTH
 40
0.25
  9
$PSOLHEIGHT
 40
4.0
  9
$LOFTANG1
 40
1.570796326794897
  9
$LOFTANG2
 40
1.570796326794897
  9
$LOFTMAG1
 40
0.0
  9
$LOFTMAG2
 40
0.0
  9
$LOFTPARAM
 70
     7
  9
$LOFTNORMALS
280
     1
  9
$LATITUDE
 40
37.795
  9
$LONGITUDE
 40
-122.394
  9
$NORTHDIRECTION
 40
0.0
  9
$TIMEZONE
 70
 -8000
  9
$LIGHTGLYPHDISPLAY
280
     1
  9
$TILEMODELIGHTSYNCH
280
     1
  9
$SOLIDHIST
280
     0
  9
$SHOWHIST
280
     1
  9
$DWFFRAME
280
     2
  9
$DGNFRAME
280
     2
  9
$REALWORLDSCALE
290
     1
  9
$INTERFERECOLOR
 62
   256
  9
$CSHADOW
280
     0
  9
$SHADOWPLANELOCATION
 40
0.0
  0
ENDSEC
  0
SECTION
  2
CLASSES
  0
CLASS
  1
LWPOLYLINE
  2
AcDbPolyline
  3
ObjectDBX Classes
 90
        0
 91
        1
280
     0
281
     1
  0
CLASS
  1
IMAGE
  2
AcDbRasterImage
  3
ISM
 90
      127
 91
        5
280
     0
281
     1
  0
CLASS
  1
OLE2FRAME
  2
AcDbOle2Frame
  3
ObjectDBX Classes
 90
        0
 91
        1
280
     0
281
     1
  0
CLASS
  1
HATCH
  2
AcDbHatch
  3
ObjectDBX Classes
 90
        0
 91
        1
280
     0
281
     1
  0
CLASS
  1
DICTIONARYVAR
  2
AcDbDictionaryVar
  3
ObjectDBX Classes
 90
        0
 91
        4
280
     0
281
     0
  0
CLASS
  1
RASTERVARIABLES
  2
AcDbRasterVariables
  3
ISM
 90
        0
 91
        4
280
     0
281
     0
  0
CLASS
  1
IMAGEDEF
  2
AcDbRasterImageDef
  3
ISM
 90
        0
 91
        4
280
     0
281
     0
  0
CLASS
  1
IMAGEDEF_REACTOR
  2
AcDbRasterImageDefReactor
  3
ISM
 90
        1
 91
        4
280
     0
281
     0
  0
CLASS
  1
IDBUFFER
  2
AcDbIdBuffer
  3
ObjectDBX Classes
 90
        0
 91
        4
280
     0
281
     0
  0
CLASS
  1
SPATIAL_FILTER
  2
AcDbSpatialFilter
  3
ObjectDBX Classes
 90
        0
 91
        4
280
     0
281
     0
  0
CLASS
  1
XRECORD
  2
AcDbXrecord
  3
ObjectDBX Classes
 90
        0
 91
        1
280
     0
281
     0
  0
CLASS
  1
SORTENTSTABLE
  2
AcDbSortentsTable
  3
ObjectDBX Classes
 90
        0
 91
        4
280
     0
281
     0
  0
CLASS
  1
LAYER_INDEX
  2
AcDbLayerIndex
  3
ObjectDBX Classes
 90
        0
 91
        4
280
     0
281
     0
  0
CLASS
  1
SPATIAL_INDEX
  2
AcDbSpatialIndex
  3
AutoCAD 2000
 90
        0
 91
        4
280
     0
281
     0
  0
CLASS
  1
OBJECT_PTR
  2
CAseDLPNTableRecord
  3
ASE-LPNTableRecord
 90
        1
 91
        4
280
     0
281
     0
  0
CLASS
  1
LAYOUT
  2
AcDbLayout
  3
ObjectDBX Classes
 90
        0
 91
        1
280
     0
281
     0
  0
CLASS
  1
PLOTSETTINGS
  2
AcDbPlotSettings
  3
ObjectDBX Classes
 90
        0
 91
        4
280
     0
281
     0
  0
CLASS
  1
ACDBDICTIONARYWDFLT
  2
AcDbDictionaryWithDefault
  3
ObjectDBX Classes
 90
        0
 91
        4
280
     0
281
     0
  0
CLASS
  1
ACDBPLACEHOLDER
  2
AcDbPlaceHolder
  3
ObjectDBX Classes
 90
        0
 91
        1
280
     0
281
     0
  0
CLASS
  1
VBA_PROJECT
  2
AcDbVbaProject
  3
ObjectDBX Classes
 90
        0
 91
        1
280
     0
281
     0
  0
CLASS
  1
WIPEOUT
  2
AcDbWipeout
  3
WipeOut|AutoCAD Express Tool|expresstools@autodesk.com
 90
      127
 91
        4
280
     0
281
     1
  0
CLASS
  1
WIPEOUTVARIABLES
  2
AcDbWipeoutVariables
  3
WipeOut|AutoCAD Express Tool|expresstools@autodesk.com
 90
        0
 91
        4
280
     0
281
     0
  0
CLASS
  1
RTEXT
  2
RText
  3
RText|AutoCAD Express Tool|expresstools@autodesk.com
 90
        0
 91
        4
280
     0
281
     1
  0
CLASS
  1
ARCALIGNEDTEXT
  2
AcDbArcAlignedText
  3
ATEXT|AutoCAD Express Tool|expresstools@autodesk.com
 90
        0
 91
        4
280
     0
281
     1
  0
CLASS
  1
SCALE
  2
AcDbScale
  3
ObjectDBX Classes
 90
     1153
 91
        4
280
     0
281
     0
  0
CLASS
  1
VISUALSTYLE
  2
AcDbVisualStyle
  3
ObjectDBX Classes
 90
     4095
 91
        4
280
     0
281
     0
  0
CLASS
  1
MATERIAL
  2
AcDbMaterial
  3
ObjectDBX Classes
 90
     1153
 91
        4
280
     0
281
     0
  0
CLASS
  1
TABLESTYLE
  2
AcDbTableStyle
  3
ObjectDBX Classes
 90
     4095
 91
        4
280
     0
281
     0
  0
CLASS
  1
MLEADERSTYLE
  2
AcDbMLeaderStyle
  3
ACDB_MLEADERSTYLE_CLASS
 90
     4095
 91
        4
280
     0
281
     0
  0
CLASS
  1
FIELD
  2
AcDbField
  3
ObjectDBX Classes
 90
     1152
 91
        4
280
     0
281
     0
  0
CLASS
  1
FIELDLIST
  2
AcDbFieldList
  3
ObjectDBX Classes
 90
     1152
 91
        4
280
     0
281
     0
  0
CLASS
  1
CELLSTYLEMAP
  2
AcDbCellStyleMap
  3
ObjectDBX Classes
 90
     1152
 91
        4
280
     0
281
     0
  0
CLASS
  1
SUN
  2
AcDbSun
  3
SCENEOE
 90
     1153
 91
        4
280
     0
281
     0
  0
ENDSEC
  0
SECTION
  2
TABLES
  0
TABLE
  2
VPORT
  5
7
330
0
100
AcDbSymbolTable
 70
     1
  0
VPORT
  5
15
330
7
100
AcDbSymbolTableRecord
100
AcDbViewportTableRecord
  2
*ACTIVE
 70
     0
 10
0.0
 20
0.0
 11
1.0
 21
1.0
 12
0.0
 22
-15.26922002459833
 13
0.0
 23
0.0
 14
1.0
 24
1.0
 15
0.0
 25
0.0
 16
0.0
 26
0.0
 36
1.0
 17
0.0
 27
0.0
 37
0.0
 40
2899.383685838433
 41
2.242253521126761
 42
50.0
 43
0.0
 44
0.0
 50
0.0
 51
0.0
 71
    16
 72
  2000
 73
     1
 74
     1
 75
     0
 76
     0
 77
     0
 78
     0
281
     0
 65
     1
110
0.0
120
0.0
130
0.0
111
1.0
121
0.0
131
0.0
112
0.0
122
1.0
132
0.0
 79
     0
146
0.0
348
164
 60
     3
 61
     5
292
     1
282
     1
141
0.0
142
0.0
 63
   250
361
3A8
  0
ENDTAB
  0
TABLE
  2
LTYPE
  5
4
330
0
100
AcDbSymbolTable
 70
     2
  0
LTYPE
  5
11
330
4
100
AcDbSymbolTableRecord
100
AcDbLinetypeTableRecord
  2
ByBlock
 70
     0
  3

 72
    65
 73
     0
 40
0.0
  0
LTYPE
  5
12
330
4
100
AcDbSymbolTableRecord
100
AcDbLinetypeTableRecord
  2
ByLayer
 70
     0
  3

 72
    65
 73
     0
 40
0.0
  0
LTYPE
  5
13
330
4
100
AcDbSymbolTableRecord
100
AcDbLinetypeTableRecord
  2
Continuous
 70
     0
  3
Solid line
 72
    65
 73
     0
 40
0.0
  0
LTYPE
  5
3A
330
4
100
AcDbSymbolTableRecord
100
AcDbLinetypeTableRecord
  2
STYLE_12
 70
     0
  3

 72
    65
 73
     2
 40
0.3937007874015748
 49
0.1968503937007874
 74
     0
 49
-0.1968503937007874
 74
     0
  0
ENDTAB
  0
TABLE
  2
LAYER
  5
2
102
{ACAD_XDICTIONARY
360
248
102
}
330
0
100
AcDbSymbolTable
 70
     8
  0
LAYER
  5
14
330
2
100
AcDbSymbolTableRecord
100
AcDbLayerTableRecord
  2
0
 70
     0
 62
     7
  6
Continuous
370
    -3
390
1D
347
17B
  0
LAYER
  5
3D
330
2
100
AcDbSymbolTableRecord
100
AcDbLayerTableRecord
  2
Defpoints
 70
     0
 62
     7
  6
Continuous
290
     0
370
    -3
390
1D
347
17B
  0
LAYER
  5
3E
330
2
100
AcDbSymbolTableRecord
100
AcDbLayerTableRecord
  2
template
 70
     0
 62
     7
  6
Continuous
370
    -3
390
1D
347
17B
  0
LAYER
  5
40
330
2
100
AcDbSymbolTableRecord
100
AcDbLayerTableRecord
  2
notes
 70
     0
 62
     7
  6
Continuous
370
    -3
390
1D
347
17B
  0
LAYER
  5
41
330
2
100
AcDbSymbolTableRecord
100
AcDbLayerTableRecord
  2
FAA70-0113
 70
     0
 62
     7
  6
Continuous
370
    -3
390
1D
347
17B
  0
LAYER
  5
18A
330
2
100
AcDbSymbolTableRecord
100
AcDbLayerTableRecord
  2
MODEL
 70
     0
 62
     7
  6
Continuous
370
    20
390
1D
347
17B
  0
LAYER
  5
18F
330
2
100
AcDbSymbolTableRecord
100
AcDbLayerTableRecord
  2
Dim
 70
     0
 62
     3
  6
Continuous
370
    13
390
1D
347
17B
1001
AcAecLayerStandard
1000

1000

  0
LAYER
  5
2E8
330
2
100
AcDbSymbolTableRecord
100
AcDbLayerTableRecord
  2
レイヤー 1
 70
     0
 62
     7
  6
Continuous
370
    -3
390
1D
347
17B
  0
ENDTAB
  0
TABLE
  2
STYLE
  5
3
330
0
100
AcDbSymbolTable
 70
     3
  0
STYLE
  5
17
330
3
100
AcDbSymbolTableRecord
100
AcDbTextStyleTableRecord
  2
Standard
 70
     0
 40
0.0
 41
1.0
 50
0.0
 71
     0
 42
2.5
  3
txt
  4
BIGFONT.SHX
  0
STYLE
  5
2E
330
3
100
AcDbSymbolTableRecord
100
AcDbTextStyleTableRecord
  2
‚l‚r ƒSƒVƒbƒN
 70
     0
 40
0.0
 41
1.0
 50
0.0
 71
     0
 42
0.0
  3

  4
‚l‚r ƒSƒVƒbƒN
1001
ACAD
1000
‚l‚r ƒSƒVƒbƒN
1071
        0
  0
STYLE
  5
192
330
3
100
AcDbSymbolTableRecord
100
AcDbTextStyleTableRecord
  2
ＭＳ ゴシック
 70
     0
 40
0.0
 41
1.0
 50
0.0
 71
     0
 42
0.0
  3
msgothic.ttc
  4
ＭＳ ゴシック
1001
ACAD
1000
ＭＳ ゴシック
1071
        0
  0
ENDTAB
  0
TABLE
  2
VIEW
  5
5
330
0
100
AcDbSymbolTable
 70
     0
  0
ENDTAB
  0
TABLE
  2
UCS
  5
6
330
0
100
AcDbSymbolTable
 70
     0
  0
ENDTAB
  0
TABLE
  2
APPID
  5
8
330
0
100
AcDbSymbolTable
 70
     5
  0
APPID
  5
16
330
8
100
AcDbSymbolTableRecord
100
AcDbRegAppTableRecord
  2
ACAD
 70
     0
  0
APPID
  5
18E
330
8
100
AcDbSymbolTableRecord
100
AcDbRegAppTableRecord
  2
AcAecLayerStandard
 70
     0
  0
APPID
  5
1A1
330
8
100
AcDbSymbolTableRecord
100
AcDbRegAppTableRecord
  2
ACAD_DSTYLE_DIMJAG
 70
     0
  0
APPID
  5
1A2
330
8
100
AcDbSymbolTableRecord
100
AcDbRegAppTableRecord
  2
ACAD_DSTYLE_DIMTALN
 70
     0
  0
APPID
  5
3A6
330
8
100
AcDbSymbolTableRecord
100
AcDbRegAppTableRecord
  2
ACAD_MLEADERVER
 70
     0
  0
ENDTAB
  0
TABLE
  2
DIMSTYLE
  5
9
330
0
100
AcDbSymbolTable
 70
     3
100
AcDbDimStyleTable
  0
DIMSTYLE
105
18
330
9
100
AcDbSymbolTableRecord
100
AcDbDimStyleTableRecord
  2
Standard
 70
     0
178
     0
340
17
  0
DIMSTYLE
105
4F
330
9
100
AcDbSymbolTableRecord
100
AcDbDimStyleTableRecord
  2
JIS
 70
     0
  3
<>
  4
[]
 41
31.75
 42
0.0
 43
6.99999999999994
 44
19.9999999999962
 73
     0
 74
     0
 77
     1
 78
    11
140
24.4326171875
141
0.0
143
1.0
147
1.00000000000108
171
     1
174
     1
178
     0
179
     2
271
     1
272
     1
276
     2
284
    11
285
    11
286
    11
289
     0
340
2E
341
4B
342
4B
  0
DIMSTYLE
105
191
330
9
100
AcDbSymbolTableRecord
100
AcDbDimStyleTableRecord
  2
tfrom線あり
 70
     0
  3
<>
  4
[]
 41
9.999389648437498
 42
25.0
 43
0.9999999999999999
 44
0.0
 73
     0
 74
     0
 77
     1
 78
    11
140
24.4326171875
141
0.0
143
1.0
147
0.4999999999999999
171
     1
174
     1
178
     0
179
     2
271
     1
272
     1
276
     2
284
    11
285
    11
286
    11
289
     0
340
192
341
42
342
42
  0
ENDTAB
  0
TABLE
  2
BLOCK_RECORD
  5
1
330
0
100
AcDbSymbolTable
 70
    16
  0
BLOCK_RECORD
  5
A
330
1
100
AcDbSymbolTableRecord
100
AcDbBlockTableRecord
  2
*MODEL_SPACE
340
20
 70
     0
280
     1
281
     0
  0
BLOCK_RECORD
  5
B
330
1
100
AcDbSymbolTableRecord
100
AcDbBlockTableRecord
  2
*PAPER_SPACE
340
21
 70
     0
280
     1
281
     0
  0
BLOCK_RECORD
  5
42
330
1
100
AcDbSymbolTableRecord
100
AcDbBlockTableRecord
  2
_DOT
340
0
102
{BLKREFS
331
62
331
63
331
70
331
71
331
7E
331
7F
331
8C
331
8D
331
9A
331
9B
331
A8
331
A9
331
C5
331
C6
331
186
331
2DD
331
2DE
331
3E0
331
3E1
331
3E6
331
3E7
331
3EC
331
3ED
331
3F2
331
3F3
331
3F8
331
3F9
331
3FE
331
3FF
331
406
331
407
331
40C
331
40D
331
411
102
}
 70
     0
280
     1
281
     0
  0
BLOCK_RECORD
  5
4B
330
1
100
AcDbSymbolTableRecord
100
AcDbBlockTableRecord
  2
VW_FILLEDARROW
340
0
 70
     0
280
     1
281
     0
  0
BLOCK_RECORD
  5
25
330
1
100
AcDbSymbolTableRecord
100
AcDbBlockTableRecord
  2
*D2
340
0
 70
     0
280
     1
281
     0
  0
BLOCK_RECORD
  5
26
330
1
100
AcDbSymbolTableRecord
100
AcDbBlockTableRecord
  2
*D3
340
0
 70
     0
280
     1
281
     0
  0
BLOCK_RECORD
  5
27
330
1
100
AcDbSymbolTableRecord
100
AcDbBlockTableRecord
  2
*D4
340
0
 70
     0
280
     1
281
     0
  0
BLOCK_RECORD
  5
28
330
1
100
AcDbSymbolTableRecord
100
AcDbBlockTableRecord
  2
*D5
340
0
 70
     0
280
     1
281
     0
  0
BLOCK_RECORD
  5
29
330
1
100
AcDbSymbolTableRecord
100
AcDbBlockTableRecord
  2
*D6
340
0
 70
     0
280
     1
281
     0
  0
BLOCK_RECORD
  5
2A
330
1
100
AcDbSymbolTableRecord
100
AcDbBlockTableRecord
  2
*D7
340
0
 70
     0
280
     1
281
     0
  0
BLOCK_RECORD
  5
2C
330
1
100
AcDbSymbolTableRecord
100
AcDbBlockTableRecord
  2
*D8
340
0
 70
     0
280
     1
281
     0
  0
BLOCK_RECORD
  5
181
330
1
100
AcDbSymbolTableRecord
100
AcDbBlockTableRecord
  2
*D9
340
0
 70
     0
280
     1
281
     0
  0
BLOCK_RECORD
  5
2D5
330
1
100
AcDbSymbolTableRecord
100
AcDbBlockTableRecord
  2
*D10
340
0
 70
     0
280
     1
281
     0
  0
BLOCK_RECORD
  5
32E
330
1
100
AcDbSymbolTableRecord
100
AcDbBlockTableRecord
  2
名称未設定-1
340
0
102
{BLKREFS
331
386
102
}
 70
     1
280
     1
281
     0
  0
BLOCK_RECORD
  5
331
330
1
100
AcDbSymbolTableRecord
100
AcDbBlockTableRecord
  2
block 2
340
0
102
{BLKREFS
331
330
102
}
 70
     0
280
     1
281
     0
  0
BLOCK_RECORD
  5
334
330
1
100
AcDbSymbolTableRecord
100
AcDbBlockTableRecord
  2
block 3
340
0
102
{BLKREFS
331
333
102
}
 70
     0
280
     1
281
     0
  0
BLOCK_RECORD
  5
337
330
1
100
AcDbSymbolTableRecord
100
AcDbBlockTableRecord
  2
block 4
340
0
102
{BLKREFS
331
336
102
}
 70
     0
280
     1
281
     0
  0
BLOCK_RECORD
  5
346
330
1
100
AcDbSymbolTableRecord
100
AcDbBlockTableRecord
  2
block 5
340
0
102
{BLKREFS
331
345
102
}
 70
     0
280
     1
281
     0
  0
ENDTAB
  0
ENDSEC
  0
SECTION
  2
BLOCKS
  0
BLOCK
  5
D
330
A
100
AcDbEntity
  8
0
390
1D
100
AcDbBlockBegin
  2
*MODEL_SPACE
 70
     0
 10
0.0
 20
0.0
 30
0.0
  3
*MODEL_SPACE
  1

  0
ENDBLK
  5
E
330
A
100
AcDbEntity
  8
0
390
1D
100
AcDbBlockEnd
  0
BLOCK
  5
F
330
B
100
AcDbEntity
 67
     1
  8
0
390
1D
100
AcDbBlockBegin
  2
*PAPER_SPACE
 70
     0
 10
0.0
 20
0.0
 30
0.0
  3
*PAPER_SPACE
  1

  0
ENDBLK
  5
10
330
B
100
AcDbEntity
 67
     1
  8
0
390
1D
100
AcDbBlockEnd
  0
BLOCK
  5
43
330
42
100
AcDbEntity
  8
0
390
1D
100
AcDbBlockBegin
  2
_DOT
 70
     0
 10
0.0
 20
0.0
 30
0.0
  3
_DOT
  1

  0
POLYLINE
  5
44
330
42
100
AcDbEntity
  8
0
  6
ByBlock
 62
     0
370
    -2
390
1D
100
AcDb2dPolyline
 66
     1
 10
0.0
 20
0.0
 30
0.0
 70
     1
 40
0.5
 41
0.5
  0
VERTEX
  5
45
330
44
100
AcDbEntity
  8
0
  6
ByBlock
 62
     0
370
    -2
390
1D
100
AcDbVertex
100
AcDb2dVertex
 10
-0.25
 20
0.0
 30
0.0
 42
1.0
  0
VERTEX
  5
46
330
44
100
AcDbEntity
  8
0
  6
ByBlock
 62
     0
370
    -2
390
1D
100
AcDbVertex
100
AcDb2dVertex
 10
0.25
 20
0.0
 30
0.0
 42
1.0
  0
SEQEND
  5
47
330
44
100
AcDbEntity
  8
0
390
1D
  0
LINE
  5
48
330
42
100
AcDbEntity
  8
0
  6
ByBlock
 62
     0
370
    -2
390
1D
100
AcDbLine
 10
-0.5
 20
0.0
 30
0.0
 11
-1.0
 21
0.0
 31
0.0
  0
ENDBLK
  5
49
330
42
100
AcDbEntity
  8
0
390
1D
100
AcDbBlockEnd
  0
BLOCK
  5
4C
330
4B
100
AcDbEntity
  8
0
  6
ByBlock
 62
     0
370
    -2
390
1D
100
AcDbBlockBegin
  2
VW_FILLEDARROW
 70
     0
 10
0.0
 20
0.0
 30
0.0
  3
VW_FILLEDARROW
  1

  0
SOLID
  5
4D
330
4B
100
AcDbEntity
  8
0
 62
     0
370
    -2
390
1D
100
AcDbTrace
 10
0.0
 20
0.0
 30
0.0
 11
-0.9921874999999999
 21
-0.2658558393652545
 31
0.0
 12
-0.9921874999999999
 22
0.2658558393652548
 32
0.0
 13
-0.9921874999999999
 23
0.2658558393652548
 33
0.0
  0
ENDBLK
  5
4E
330
4B
100
AcDbEntity
  8
0
390
1D
100
AcDbBlockEnd
  0
BLOCK
  5
5E
330
25
100
AcDbEntity
  8
notes
390
1D
100
AcDbBlockBegin
  2
*D2
 70
     1
 10
0.0
 20
0.0
 30
0.0
  3
*D2
  1

  0
LINE
  5
5F
330
25
100
AcDbEntity
  8
Dim
 62
     0
370
    -2
100
AcDbLine
 10
-314.6548589921354
 20
635.736485897266
 30
0.0
 11
-314.6548589921354
 21
880.7364858972659
 31
0.0
  0
LINE
  5
60
330
25
100
AcDbEntity
  8
Dim
 62
     0
370
    -2
100
AcDbLine
 10
-634.6548589921354
 20
635.736485897266
 30
0.0
 11
-634.6548589921354
 21
880.7364858972659
 31
0.0
  0
LINE
  5
61
330
25
100
AcDbEntity
  8
Dim
 62
     0
370
    -2
100
AcDbLine
 10
-324.6542486405729
 20
880.7364858972659
 30
0.0
 11
-624.6554693436979
 21
880.7364858972659
 31
0.0
  0
INSERT
  5
62
102
{ACAD_REACTORS
330
63
102
}
330
25
100
AcDbEntity
  8
Dim
 62
     0
370
    -2
100
AcDbBlockReference
  2
_DOT
 10
-314.6548589921354
 20
880.7364858972659
 30
0.0
 41
9.999389648437498
 42
9.999389648437498
 43
9.999389648437498
  0
INSERT
  5
63
330
25
100
AcDbEntity
  8
Dim
 62
     0
370
    -2
100
AcDbBlockReference
  2
_DOT
 10
-634.6548589921354
 20
880.7364858972659
 30
0.0
 41
9.999389648437498
 42
9.999389648437498
 43
9.999389648437498
 50
180.0
  0
MTEXT
  5
64
102
{ACAD_REACTORS
330
65
102
}
330
25
100
AcDbEntity
  8
Dim
  6
Continuous
 62
     0
100
AcDbMText
 10
-474.6548589921354
 20
902.9527944910159
 30
0.0
 40
24.4326171875
 41
0.0
 46
0.0
 71
     5
 72
     1
  1
\A1;320
  7
ＭＳ ゴシック
 73
     1
 44
1.0
  0
POINT
  5
65
330
25
100
AcDbEntity
  8
Defpoints
 62
     0
100
AcDbPoint
 10
-314.6548589921354
 20
610.736485897266
 30
0.0
  0
POINT
  5
66
330
25
100
AcDbEntity
  8
Defpoints
 62
     0
100
AcDbPoint
 10
-634.6548589921354
 20
610.736485897266
 30
0.0
  0
POINT
  5
67
330
25
100
AcDbEntity
  8
Defpoints
 62
     0
100
AcDbPoint
 10
-634.6548589921354
 20
880.7364858972659
 30
0.0
  0
ENDBLK
  5
6B
330
25
100
AcDbEntity
  8
notes
390
1D
100
AcDbBlockEnd
  0
BLOCK
  5
6C
330
26
100
AcDbEntity
  8
notes
390
1D
100
AcDbBlockBegin
  2
*D3
 70
     1
 10
0.0
 20
0.0
 30
0.0
  3
*D3
  1

  0
LINE
  5
6D
330
26
100
AcDbEntity
  8
Dim
 62
     0
370
    -2
100
AcDbLine
 10
-337.1548589921351
 20
503.9211450374986
 30
0.0
 11
-337.1548589921351
 21
350.7364858972659
 31
0.0
  0
LINE
  5
6E
330
26
100
AcDbEntity
  8
Dim
 62
     0
370
    -2
100
AcDbLine
 10
-612.1548589921358
 20
503.9211450374984
 30
0.0
 11
-612.1548589921358
 21
350.7364858972659
 31
0.0
  0
LINE
  5
6F
330
26
100
AcDbEntity
  8
Dim
 62
     0
370
    -2
100
AcDbLine
 10
-347.1542486405726
 20
350.7364858972659
 30
0.0
 11
-602.1554693436983
 21
350.7364858972659
 31
0.0
  0
INSERT
  5
70
102
{ACAD_REACTORS
330
71
102
}
330
26
100
AcDbEntity
  8
Dim
 62
     0
370
    -2
100
AcDbBlockReference
  2
_DOT
 10
-337.1548589921351
 20
350.7364858972659
 30
0.0
 41
9.999389648437498
 42
9.999389648437498
 43
9.999389648437498
  0
INSERT
  5
71
330
26
100
AcDbEntity
  8
Dim
 62
     0
370
    -2
100
AcDbBlockReference
  2
_DOT
 10
-612.1548589921358
 20
350.7364858972659
 30
0.0
 41
9.999389648437498
 42
9.999389648437498
 43
9.999389648437498
 50
180.0
  0
MTEXT
  5
72
102
{ACAD_REACTORS
330
73
102
}
330
26
100
AcDbEntity
  8
Dim
  6
Continuous
 62
     0
100
AcDbMText
 10
-474.6548589921355
 20
372.9527944910159
 30
0.0
 40
24.4326171875
 41
0.0
 46
0.0
 71
     5
 72
     1
  1
\A1;275
  7
ＭＳ ゴシック
 73
     1
 44
1.0
  0
POINT
  5
73
330
26
100
AcDbEntity
  8
Defpoints
 62
     0
100
AcDbPoint
 10
-337.1548589921351
 20
528.9211450374986
 30
0.0
  0
POINT
  5
74
330
26
100
AcDbEntity
  8
Defpoints
 62
     0
100
AcDbPoint
 10
-612.1548589921358
 20
528.9211450374984
 30
0.0
  0
POINT
  5
75
330
26
100
AcDbEntity
  8
Defpoints
 62
     0
100
AcDbPoint
 10
-612.1548589921358
 20
350.7364858972659
 30
0.0
  0
ENDBLK
  5
79
330
26
100
AcDbEntity
  8
notes
390
1D
100
AcDbBlockEnd
  0
BLOCK
  5
7A
330
27
100
AcDbEntity
  8
notes
390
1D
100
AcDbBlockBegin
  2
*D4
 70
     1
 10
0.0
 20
0.0
 30
0.0
  3
*D4
  1

  0
LINE
  5
7B
330
27
100
AcDbEntity
  8
Dim
 62
     0
370
    -2
100
AcDbLine
 10
-424.6548589921351
 20
450.736485897266
 30
0.0
 11
-214.6548589921354
 21
450.736485897266
 31
0.0
  0
LINE
  5
7C
330
27
100
AcDbEntity
  8
Dim
 62
     0
370
    -2
100
AcDbLine
 10
-424.6548589921351
 20
780.7364858972658
 30
0.0
 11
-214.6548589921354
 21
780.7364858972658
 31
0.0
  0
LINE
  5
7D
330
27
100
AcDbEntity
  8
Dim
 62
     0
370
    -2
100
AcDbLine
 10
-214.6548589921354
 20
460.7358755457035
 30
0.0
 11
-214.6548589921354
 21
770.7370962488283
 31
0.0
  0
INSERT
  5
7E
102
{ACAD_REACTORS
330
7F
102
}
330
27
100
AcDbEntity
  8
Dim
 62
     0
370
    -2
100
AcDbBlockReference
  2
_DOT
 10
-214.6548589921354
 20
450.736485897266
 30
0.0
 41
9.999389648437498
 42
9.999389648437498
 43
9.999389648437498
 50
270.0
  0
INSERT
  5
7F
330
27
100
AcDbEntity
  8
Dim
 62
     0
370
    -2
100
AcDbBlockReference
  2
_DOT
 10
-214.6548589921354
 20
780.7364858972658
 30
0.0
 41
9.999389648437498
 42
9.999389648437498
 43
9.999389648437498
 50
90.0
  0
MTEXT
  5
80
102
{ACAD_REACTORS
330
81
102
}
330
27
100
AcDbEntity
  8
Dim
  6
Continuous
 62
     0
100
AcDbMText
 10
-236.8711675858854
 20
615.7364858972659
 30
0.0
 40
24.4326171875
 41
0.0
 46
0.0
 71
     5
 72
     1
  1
\A1;330
  7
ＭＳ ゴシック
 11
8.612639221334554E-17
 21
1.0
 31
0.0
 73
     1
 44
1.0
  0
POINT
  5
81
330
27
100
AcDbEntity
  8
Defpoints
 62
     0
100
AcDbPoint
 10
-449.6548589921351
 20
450.736485897266
 30
0.0
  0
POINT
  5
82
330
27
100
AcDbEntity
  8
Defpoints
 62
     0
100
AcDbPoint
 10
-449.6548589921351
 20
780.7364858972658
 30
0.0
  0
POINT
  5
83
330
27
100
AcDbEntity
  8
Defpoints
 62
     0
100
AcDbPoint
 10
-214.6548589921354
 20
780.7364858972658
 30
0.0
  0
ENDBLK
  5
87
330
27
100
AcDbEntity
  8
notes
390
1D
100
AcDbBlockEnd
  0
BLOCK
  5
88
330
28
100
AcDbEntity
  8
notes
390
1D
100
AcDbBlockBegin
  2
*D5
 70
     1
 10
0.0
 20
0.0
 30
0.0
  3
*D5
  1

  0
LINE
  5
89
330
28
100
AcDbEntity
  8
Dim
 62
     0
370
    -2
100
AcDbLine
 10
-413.043857803444
 20
-625.1857119862863
 30
0.0
 11
-214.6548589921353
 21
-625.1857119862863
 31
0.0
  0
LINE
  5
8A
330
28
100
AcDbEntity
  8
Dim
 62
     0
370
    -2
100
AcDbLine
 10
-294.7275309848957
 20
-435.1857119862863
 30
0.0
 11
-214.6548589921353
 21
-435.1857119862863
 31
0.0
  0
LINE
  5
8B
330
28
100
AcDbEntity
  8
Dim
 62
     0
370
    -2
100
AcDbLine
 10
-214.6548589921353
 20
-615.1863223378488
 30
0.0
 11
-214.6548589921353
 21
-445.1851016347238
 31
0.0
  0
INSERT
  5
8C
102
{ACAD_REACTORS
330
8D
102
}
330
28
100
AcDbEntity
  8
Dim
 62
     0
370
    -2
100
AcDbBlockReference
  2
_DOT
 10
-214.6548589921353
 20
-625.1857119862863
 30
0.0
 41
9.999389648437498
 42
9.999389648437498
 43
9.999389648437498
 50
270.0
  0
INSERT
  5
8D
330
28
100
AcDbEntity
  8
Dim
 62
     0
370
    -2
100
AcDbBlockReference
  2
_DOT
 10
-214.6548589921353
 20
-435.1857119862863
 30
0.0
 41
9.999389648437498
 42
9.999389648437498
 43
9.999389648437498
 50
90.0
  0
MTEXT
  5
8E
102
{ACAD_REACTORS
330
8F
102
}
330
28
100
AcDbEntity
  8
Dim
  6
Continuous
 62
     0
100
AcDbMText
 10
-236.8711675858853
 20
-530.1857119862863
 30
0.0
 40
24.4326171875
 41
0.0
 46
0.0
 71
     5
 72
     1
  1
\A1;190
  7
ＭＳ ゴシック
 11
0.0
 21
1.0
 31
0.0
 73
     1
 44
1.0
  0
POINT
  5
8F
330
28
100
AcDbEntity
  8
Defpoints
 62
     0
100
AcDbPoint
 10
-438.043857803444
 20
-625.1857119862863
 30
0.0
  0
POINT
  5
90
330
28
100
AcDbEntity
  8
Defpoints
 62
     0
100
AcDbPoint
 10
-319.7275309848957
 20
-435.1857119862863
 30
0.0
  0
POINT
  5
91
330
28
100
AcDbEntity
  8
Defpoints
 62
     0
100
AcDbPoint
 10
-214.6548589921353
 20
-435.1857119862863
 30
0.0
  0
ENDBLK
  5
95
330
28
100
AcDbEntity
  8
notes
390
1D
100
AcDbBlockEnd
  0
BLOCK
  5
96
330
29
100
AcDbEntity
  8
notes
390
1D
100
AcDbBlockBegin
  2
*D6
 70
     1
 10
0.0
 20
0.0
 30
0.0
  3
*D6
  1

  0
LINE
  5
97
330
29
100
AcDbEntity
  8
Dim
 62
     0
370
    -2
100
AcDbLine
 10
579.7848164469428
 20
-475.1857119862864
 30
0.0
 11
659.7848164469428
 21
-475.1857119862864
 31
0.0
  0
LINE
  5
98
330
29
100
AcDbEntity
  8
Dim
 62
     0
370
    -2
100
AcDbLine
 10
579.7848164469428
 20
-435.1857119862863
 30
0.0
 11
659.7848164469428
 21
-435.1857119862863
 31
0.0
  0
LINE
  5
99
330
29
100
AcDbEntity
  8
Dim
 62
     0
370
    -2
100
AcDbLine
 10
659.7848164469428
 20
-465.1863223378489
 30
0.0
 11
659.7848164469428
 21
-445.1851016347238
 31
0.0
  0
INSERT
  5
9A
102
{ACAD_REACTORS
330
9B
102
}
330
29
100
AcDbEntity
  8
Dim
 62
     0
370
    -2
100
AcDbBlockReference
  2
_DOT
 10
659.7848164469428
 20
-475.1857119862864
 30
0.0
 41
9.999389648437498
 42
9.999389648437498
 43
9.999389648437498
 50
270.0
  0
INSERT
  5
9B
330
29
100
AcDbEntity
  8
Dim
 62
     0
370
    -2
100
AcDbBlockReference
  2
_DOT
 10
659.7848164469428
 20
-435.1857119862863
 30
0.0
 41
9.999389648437498
 42
9.999389648437498
 43
9.999389648437498
 50
90.0
  0
MTEXT
  5
9C
102
{ACAD_REACTORS
330
9D
102
}
330
29
100
AcDbEntity
  8
Dim
  6
Continuous
 62
     0
100
AcDbMText
 10
637.5685078531928
 20
-455.1857119862864
 30
0.0
 40
24.4326171875
 41
0.0
 46
0.0
 71
     5
 72
     1
  1
\A1;40
  7
ＭＳ ゴシック
 11
0.0
 21
1.0
 31
0.0
 73
     1
 44
1.0
  0
POINT
  5
9D
330
29
100
AcDbEntity
  8
Defpoints
 62
     0
100
AcDbPoint
 10
554.7848164469428
 20
-475.1857119862864
 30
0.0
  0
POINT
  5
9E
330
29
100
AcDbEntity
  8
Defpoints
 62
     0
100
AcDbPoint
 10
554.7848164469428
 20
-435.1857119862863
 30
0.0
  0
POINT
  5
9F
330
29
100
AcDbEntity
  8
Defpoints
 62
     0
100
AcDbPoint
 10
659.7848164469428
 20
-435.1857119862863
 30
0.0
  0
ENDBLK
  5
A3
330
29
100
AcDbEntity
  8
notes
390
1D
100
AcDbBlockEnd
  0
BLOCK
  5
A4
330
2A
100
AcDbEntity
  8
notes
390
1D
100
AcDbBlockBegin
  2
*D7
 70
     1
 10
0.0
 20
0.0
 30
0.0
  3
*D7
  1

  0
LINE
  5
A5
330
2A
100
AcDbEntity
  8
Dim
 62
     0
370
    -2
100
AcDbLine
 10
461.4684896283948
 20
-625.1857119862863
 30
0.0
 11
659.7848164469428
 21
-625.1857119862863
 31
0.0
  0
LINE
  5
A6
330
2A
100
AcDbEntity
  8
Dim
 62
     0
370
    -2
100
AcDbLine
 10
579.2588765211766
 20
-475.1857119862863
 30
0.0
 11
659.7848164469428
 21
-475.1857119862863
 31
0.0
  0
LINE
  5
A7
330
2A
100
AcDbEntity
  8
Dim
 62
     0
370
    -2
100
AcDbLine
 10
659.7848164469428
 20
-615.1863223378488
 30
0.0
 11
659.7848164469428
 21
-485.1851016347238
 31
0.0
  0
INSERT
  5
A8
102
{ACAD_REACTORS
330
A9
102
}
330
2A
100
AcDbEntity
  8
Dim
 62
     0
370
    -2
100
AcDbBlockReference
  2
_DOT
 10
659.7848164469428
 20
-625.1857119862863
 30
0.0
 41
9.999389648437498
 42
9.999389648437498
 43
9.999389648437498
 50
270.0
  0
INSERT
  5
A9
330
2A
100
AcDbEntity
  8
Dim
 62
     0
370
    -2
100
AcDbBlockReference
  2
_DOT
 10
659.7848164469428
 20
-475.1857119862863
 30
0.0
 41
9.999389648437498
 42
9.999389648437498
 43
9.999389648437498
 50
90.0
  0
MTEXT
  5
AA
102
{ACAD_REACTORS
330
AB
102
}
330
2A
100
AcDbEntity
  8
Dim
  6
Continuous
 62
     0
100
AcDbMText
 10
637.5685078531928
 20
-550.1857119862863
 30
0.0
 40
24.4326171875
 41
0.0
 46
0.0
 71
     5
 72
     1
  1
\A1;150
  7
ＭＳ ゴシック
 11
0.0
 21
1.0
 31
0.0
 73
     1
 44
1.0
  0
POINT
  5
AB
330
2A
100
AcDbEntity
  8
Defpoints
 62
     0
100
AcDbPoint
 10
436.4684896283948
 20
-625.1857119862863
 30
0.0
  0
POINT
  5
AC
330
2A
100
AcDbEntity
  8
Defpoints
 62
     0
100
AcDbPoint
 10
554.2588765211766
 20
-475.1857119862863
 30
0.0
  0
POINT
  5
AD
330
2A
100
AcDbEntity
  8
Defpoints
 62
     0
100
AcDbPoint
 10
659.7848164469428
 20
-475.1857119862863
 30
0.0
  0
ENDBLK
  5
B1
330
2A
100
AcDbEntity
  8
notes
390
1D
100
AcDbBlockEnd
  0
BLOCK
  5
C1
330
2C
100
AcDbEntity
  8
notes
390
1D
100
AcDbBlockBegin
  2
*D8
 70
     1
 10
0.0
 20
0.0
 30
0.0
  3
*D8
  1

  0
LINE
  5
C2
330
2C
100
AcDbEntity
  8
Dim
 62
     0
370
    -2
100
AcDbLine
 10
399.8574884397011
 20
-650.1857119862863
 30
0.0
 11
399.8574884397011
 21
-725.1857119862863
 31
0.0
  0
LINE
  5
C3
330
2C
100
AcDbEntity
  8
Dim
 62
     0
370
    -2
100
AcDbLine
 10
229.8574884397009
 20
-500.1857119862386
 30
0.0
 11
229.8574884397009
 21
-725.1857119862863
 31
0.0
  0
LINE
  5
C4
330
2C
100
AcDbEntity
  8
Dim
 62
     0
370
    -2
100
AcDbLine
 10
389.8580987912636
 20
-725.1857119862863
 30
0.0
 11
239.8568780881384
 21
-725.1857119862863
 31
0.0
  0
INSERT
  5
C5
102
{ACAD_REACTORS
330
C6
102
}
330
2C
100
AcDbEntity
  8
Dim
 62
     0
370
    -2
100
AcDbBlockReference
  2
_DOT
 10
399.8574884397011
 20
-725.1857119862863
 30
0.0
 41
9.999389648437498
 42
9.999389648437498
 43
9.999389648437498
  0
INSERT
  5
C6
330
2C
100
AcDbEntity
  8
Dim
 62
     0
370
    -2
100
AcDbBlockReference
  2
_DOT
 10
229.8574884397009
 20
-725.1857119862863
 30
0.0
 41
9.999389648437498
 42
9.999389648437498
 43
9.999389648437498
 50
180.0
  0
MTEXT
  5
C7
102
{ACAD_REACTORS
330
C8
102
}
330
2C
100
AcDbEntity
  8
Dim
  6
Continuous
 62
     0
100
AcDbMText
 10
314.857488439701
 20
-702.9694033925363
 30
0.0
 40
24.4326171875
 41
0.0
 46
0.0
 71
     5
 72
     1
  1
\A1;170
  7
ＭＳ ゴシック
 73
     1
 44
1.0
  0
POINT
  5
C8
330
2C
100
AcDbEntity
  8
Defpoints
 62
     0
100
AcDbPoint
 10
399.8574884397011
 20
-625.1857119862863
 30
0.0
  0
POINT
  5
C9
330
2C
100
AcDbEntity
  8
Defpoints
 62
     0
100
AcDbPoint
 10
229.8574884397009
 20
-475.1857119862386
 30
0.0
  0
POINT
  5
CA
330
2C
100
AcDbEntity
  8
Defpoints
 62
     0
100
AcDbPoint
 10
229.8574884397009
 20
-725.1857119862863
 30
0.0
  0
ENDBLK
  5
CE
330
2C
100
AcDbEntity
  8
notes
390
1D
100
AcDbBlockEnd
  0
BLOCK
  5
182
330
181
100
AcDbEntity
  8
0
100
AcDbBlockBegin
  2
*D9
 70
     1
 10
0.0
 20
0.0
 30
0.0
  3
*D9
  1

  0
LINE
  5
184
330
181
100
AcDbEntity
  8
Dim
 62
     0
370
    -2
100
AcDbLine
 10
519.5892256664475
 20
564.3401008624901
 30
0.0
 11
716.2271650596845
 21
496.6271323210639
 31
0.0
  0
MTEXT
  5
185
330
181
100
AcDbEntity
  8
Dim
  6
Continuous
 62
     0
100
AcDbMText
 10
693.0756779794204
 20
528.0960435069666
 30
0.0
 40
24.4326171875
 41
0.0
 46
0.0
 71
     5
 72
     1
  1
\A1;265
  7
ＭＳ ゴシック
 11
0.9455110321267127
 21
-0.3255900614679115
 31
0.0
 73
     1
 44
1.0
  0
INSERT
  5
186
330
181
100
AcDbEntity
  8
Dim
 62
     0
370
    -2
100
AcDbBlockReference
  2
_DOT
 10
510.1346924393163
 20
567.5958027527664
 30
0.0
 41
9.999389648437498
 42
9.999389648437498
 43
9.999389648437498
 50
160.9986724911627
  0
POINT
  5
187
330
181
100
AcDbEntity
  8
Defpoints
 62
     0
100
AcDbPoint
 10
510.1346924393163
 20
567.5958027527664
 30
0.0
  0
POINT
  5
188
330
181
100
AcDbEntity
  8
Defpoints
 62
     0
100
AcDbPoint
 10
259.5742689257374
 20
653.877169041763
 30
0.0
  0
ENDBLK
  5
183
330
181
100
AcDbEntity
  8
0
100
AcDbBlockEnd
  0
BLOCK
  5
2D6
330
2D5
100
AcDbEntity
  8
0
100
AcDbBlockBegin
  2
*D10
 70
     1
 10
0.0
 20
0.0
 30
0.0
  3
*D10
  1

  0
LINE
  5
2D8
330
2D5
100
AcDbEntity
  8
Dim
 62
     0
370
    -2
100
AcDbLine
 10
427.6715677928913
 20
-435.1857119862863
 30
0.0
 11
402.74423978566
 21
-435.1857119862863
 31
0.0
  0
LINE
  5
2D9
330
2D5
100
AcDbEntity
  8
Dim
 62
     0
370
    -2
100
AcDbLine
 10
427.74423978566
 20
-580.1857119862863
 30
0.0
 11
402.74423978566
 21
-580.1857119862863
 31
0.0
  0
LINE
  5
2DA
330
2D5
100
AcDbEntity
  8
Dim
 62
     0
370
    -2
100
AcDbLine
 10
402.74423978566
 20
-435.1857119862863
 30
0.0
 11
402.74423978566
 21
-237.6730230216444
 31
0.0
  0
LINE
  5
2DB
330
2D5
100
AcDbEntity
  8
Dim
 62
     0
370
    -2
100
AcDbLine
 10
402.74423978566
 20
-445.1851016347238
 30
0.0
 11
402.74423978566
 21
-570.1863223378488
 31
0.0
  0
LINE
  5
2DC
330
2D5
100
AcDbEntity
  8
Dim
 62
     0
370
    -2
100
AcDbLine
 10
402.74423978566
 20
-445.1851016347238
 30
0.0
 11
402.74423978566
 21
-455.1844912831613
 31
0.0
  0
INSERT
  5
2DD
330
2D5
100
AcDbEntity
  8
Dim
 62
     0
370
    -2
100
AcDbBlockReference
  2
_DOT
 10
402.74423978566
 20
-435.1857119862863
 30
0.0
 41
9.999389648437498
 42
9.999389648437498
 43
9.999389648437498
 50
90.0
  0
INSERT
  5
2DE
330
2D5
100
AcDbEntity
  8
Dim
 62
     0
370
    -2
100
AcDbBlockReference
  2
_DOT
 10
402.74423978566
 20
-580.1857119862863
 30
0.0
 41
9.999389648437498
 42
9.999389648437498
 43
9.999389648437498
 50
270.0
  0
MTEXT
  5
2DF
330
2D5
100
AcDbEntity
  8
Dim
  6
Continuous
 62
     0
100
AcDbMText
 10
378.3656445708162
 20
-313.8609829825819
 30
0.0
 40
24.4326171875
 41
0.0
 46
0.0
 71
     5
 72
     1
  1
\A1;145(深さ)
  7
ＭＳ ゴシック
 11
0.0
 21
1.0
 31
0.0
 73
     1
 44
1.0
  0
POINT
  5
2E0
330
2D5
100
AcDbEntity
  8
Defpoints
 62
     0
100
AcDbPoint
 10
402.6715677928913
 20
-435.1857119862863
 30
0.0
  0
POINT
  5
2E1
330
2D5
100
AcDbEntity
  8
Defpoints
 62
     0
100
AcDbPoint
 10
402.74423978566
 20
-580.1857119862863
 30
0.0
  0
POINT
  5
2E2
330
2D5
100
AcDbEntity
  8
Defpoints
 62
     0
100
AcDbPoint
 10
402.74423978566
 20
-580.1857119862863
 30
0.0
  0
ENDBLK
  5
2D7
330
2D5
100
AcDbEntity
  8
0
100
AcDbBlockEnd
  0
BLOCK
  5
32F
330
32E
100
AcDbEntity
  8
0
100
AcDbBlockBegin
  2
名称未設定-1
 70
     0
 10
0.0
 20
0.0
 30
0.0
  3
名称未設定-1
  1
名称未設定-1
  0
INSERT
  5
330
330
32E
100
AcDbEntity
  8
レイヤー 1
100
AcDbBlockReference
  2
block 2
 10
0.0
 20
0.0
 30
0.0
  0
ENDBLK
  5
355
330
32E
100
AcDbEntity
  8
0
100
AcDbBlockEnd
  0
BLOCK
  5
332
330
331
100
AcDbEntity
  8
0
100
AcDbBlockBegin
  2
block 2
 70
     0
 10
0.0
 20
0.0
 30
0.0
  3
block 2
  1
block 2
  0
INSERT
  5
333
330
331
100
AcDbEntity
  8
レイヤー 1
100
AcDbBlockReference
  2
block 3
 10
0.0
 20
0.0
 30
0.0
  0
ENDBLK
  5
354
330
331
100
AcDbEntity
  8
0
100
AcDbBlockEnd
  0
BLOCK
  5
335
330
334
100
AcDbEntity
  8
0
100
AcDbBlockBegin
  2
block 3
 70
     0
 10
0.0
 20
0.0
 30
0.0
  3
block 3
  1
block 3
  0
INSERT
  5
336
330
334
100
AcDbEntity
  8
レイヤー 1
100
AcDbBlockReference
  2
block 4
 10
0.0
 20
0.0
 30
0.0
  0
ENDBLK
  5
353
330
334
100
AcDbEntity
  8
0
100
AcDbBlockEnd
  0
BLOCK
  5
338
330
337
100
AcDbEntity
  8
0
100
AcDbBlockBegin
  2
block 4
 70
     0
 10
0.0
 20
0.0
 30
0.0
  3
block 4
  1
block 4
  0
POLYLINE
  5
339
330
337
100
AcDbEntity
  8
レイヤー 1
370
     0
100
AcDb2dPolyline
 66
     1
 10
0.0
 20
0.0
 30
0.0
  0
VERTEX
  5
33A
330
339
100
AcDbEntity
  8
レイヤー 1
370
     0
100
AcDbVertex
100
AcDb2dVertex
 10
83.79545727667795
 20
167.6444858234922
 30
0.0
  0
VERTEX
  5
33B
330
339
100
AcDbEntity
  8
レイヤー 1
370
     0
100
AcDbVertex
100
AcDb2dVertex
 10
83.79545727667795
 20
159.7968976406313
 30
0.0
  0
VERTEX
  5
33C
330
339
100
AcDbEntity
  8
レイヤー 1
370
     0
100
AcDbVertex
100
AcDb2dVertex
 10
71.3631329975216
 20
159.7968976406313
 30
0.0
  0
VERTEX
  5
33D
330
339
100
AcDbEntity
  8
レイヤー 1
370
     0
100
AcDbVertex
100
AcDb2dVertex
 10
71.3631329975216
 20
127.8027915271048
 30
0.0
  0
VERTEX
  5
33E
330
339
100
AcDbEntity
  8
レイヤー 1
370
     0
100
AcDbVertex
100
AcDb2dVertex
 10
60.43011526263018
 20
127.8027915271048
 30
0.0
  0
VERTEX
  5
33F
330
339
100
AcDbEntity
  8
レイヤー 1
370
     0
100
AcDbVertex
100
AcDb2dVertex
 10
60.43011526263018
 20
159.7968976406313
 30
0.0
  0
VERTEX
  5
340
330
339
100
AcDbEntity
  8
レイヤー 1
370
     0
100
AcDbVertex
100
AcDb2dVertex
 10
48.21793273020759
 20
159.7968976406313
 30
0.0
  0
VERTEX
  5
341
330
339
100
AcDbEntity
  8
レイヤー 1
370
     0
100
AcDbVertex
100
AcDb2dVertex
 10
48.21793273020759
 20
167.6444858234922
 30
0.0
  0
VERTEX
  5
342
330
339
100
AcDbEntity
  8
レイヤー 1
370
     0
100
AcDbVertex
100
AcDb2dVertex
 10
83.79545727667795
 20
167.6444858234922
 30
0.0
  0
SEQEND
  5
343
330
339
100
AcDbEntity
  8
レイヤー 1
370
     0
  0
HATCH
  5
344
330
337
100
AcDbEntity
  8
レイヤー 1
 62
   250
420
  2234388
100
AcDbHatch
 10
0.0
 20
0.0
 30
0.0
210
0.0
220
0.0
230
1.0
  2
SOLID
 70
     1
 71
     0
 91
        1
 92
        1
 93
        8
 72
     1
 10
83.79545727667795
 20
167.6444858234922
 11
83.79545727667795
 21
159.7968976406313
 72
     1
 10
83.79545727667795
 20
159.7968976406313
 11
71.3631329975216
 21
159.7968976406313
 72
     1
 10
71.3631329975216
 20
159.7968976406313
 11
71.3631329975216
 21
127.8027915271048
 72
     1
 10
71.3631329975216
 20
127.8027915271048
 11
60.43011526263018
 21
127.8027915271048
 72
     1
 10
60.43011526263018
 20
127.8027915271048
 11
60.43011526263018
 21
159.7968976406313
 72
     1
 10
60.43011526263018
 20
159.7968976406313
 11
48.21793273020759
 21
159.7968976406313
 72
     1
 10
48.21793273020759
 20
159.7968976406313
 11
48.21793273020759
 21
167.6444858234922
 72
     1
 10
48.21793273020759
 20
167.6444858234922
 11
83.79545727667795
 21
167.6444858234922
 97
        0
 75
     2
 76
     1
 98
        0
  0
INSERT
  5
345
330
337
100
AcDbEntity
  8
レイヤー 1
100
AcDbBlockReference
  2
block 5
 10
0.0
 20
0.0
 30
0.0
  0
ENDBLK
  5
352
330
337
100
AcDbEntity
  8
0
100
AcDbBlockEnd
  0
BLOCK
  5
347
330
346
100
AcDbEntity
  8
0
100
AcDbBlockBegin
  2
block 5
 70
     0
 10
0.0
 20
0.0
 30
0.0
  3
block 5
  1
block 5
  0
SPLINE
  5
348
330
346
100
AcDbEntity
  8
レイヤー 1
370
     0
100
AcDbSpline
210
0.0
220
0.0
230
1.0
 70
    11
 71
     3
 72
    56
 73
    52
 74
     0
 42
0.000000001
 43
0.0000000001
 40
0.0
 40
0.0
 40
0.0
 40
0.0
 40
1.0
 40
1.0
 40
1.0
 40
2.0
 40
2.0
 40
2.0
 40
3.0
 40
3.0
 40
3.0
 40
4.0
 40
4.0
 40
4.0
 40
5.0
 40
5.0
 40
5.0
 40
6.0
 40
6.0
 40
6.0
 40
7.0
 40
7.0
 40
7.0
 40
8.0
 40
8.0
 40
8.0
 40
9.0
 40
9.0
 40
9.0
 40
10.0
 40
10.0
 40
10.0
 40
11.0
 40
11.0
 40
11.0
 40
12.0
 40
12.0
 40
12.0
 40
13.0
 40
13.0
 40
13.0
 40
14.0
 40
14.0
 40
14.0
 40
15.0
 40
15.0
 40
15.0
 40
16.0
 40
16.0
 40
16.0
 40
17.0
 40
17.0
 40
17.0
 40
17.0
 10
100.4504378777679
 20
166.69157178364
 30
0.0
 10
101.9848844191641
 20
167.1313385124438
 30
0.0
 10
103.9637485713373
 20
166.7649523658846
 30
0.0
 10
103.9637485713373
 20
166.7649523658846
 30
0.0
 10
103.9637485713373
 20
166.7649523658846
 30
0.0
 10
103.0132460999156
 20
163.911205638077
 30
0.0
 10
103.0132460999156
 20
163.911205638077
 30
0.0
 10
103.0132460999156
 20
163.911205638077
 30
0.0
 10
101.0674548862189
 20
164.3601018759394
 30
0.0
 10
99.57090442016032
 20
163.1805004036133
 30
0.0
 10
98.40508333886608
 20
162.258247733807
 30
0.0
 10
97.65301849830304
 20
159.804132345923
 30
0.0
 10
97.3598406791005
 20
158.8699940888517
 30
0.0
 10
97.3598406791005
 20
158.8699940888517
 30
0.0
 10
96.07137411762282
 20
154.9119212747295
 30
0.0
 10
96.07137411762282
 20
154.9119212747295
 30
0.0
 10
96.07137411762282
 20
154.9119212747295
 30
0.0
 10
100.3012651448482
 20
154.9119212747295
 30
0.0
 10
100.3012651448482
 20
154.9119212747295
 30
0.0
 10
100.3012651448482
 20
154.9119212747295
 30
0.0
 10
99.64152892419852
 20
152.4199098115079
 30
0.0
 10
99.64152892419852
 20
152.4199098115079
 30
0.0
 10
99.64152892419852
 20
152.4199098115079
 30
0.0
 10
95.38097652692731
 20
152.4199098115079
 30
0.0
 10
95.38097652692731
 20
152.4199098115079
 30
0.0
 10
95.38097652692731
 20
152.4199098115079
 30
0.0
 10
87.75353009080013
 20
127.8027915271048
 30
0.0
 10
87.75353009080013
 20
127.8027915271048
 30
0.0
 10
87.75353009080013
 20
127.8027915271048
 30
0.0
 10
85.36538832498108
 20
127.8027915271048
 30
0.0
 10
85.36538832498108
 20
127.8027915271048
 30
0.0
 10
85.36538832498108
 20
127.8027915271048
 30
0.0
 10
93.00006946639998
 20
152.4199098115079
 30
0.0
 10
93.00006946639998
 20
152.4199098115079
 30
0.0
 10
93.00006946639998
 20
152.4199098115079
 30
0.0
 10
89.85297266450198
 20
152.4199098115079
 30
0.0
 10
89.85297266450198
 20
152.4199098115079
 30
0.0
 10
89.85297266450198
 20
152.4199098115079
 30
0.0
 10
90.51270888515164
 20
154.9119212747295
 30
0.0
 10
90.51270888515164
 20
154.9119212747295
 30
0.0
 10
90.51270888515164
 20
154.9119212747295
 30
0.0
 10
93.6904670570955
 20
154.9119212747295
 30
0.0
 10
93.6904670570955
 20
154.9119212747295
 30
0.0
 10
93.6904670570955
 20
154.9119212747295
 30
0.0
 10
94.81598049462158
 20
158.3616699146644
 30
0.0
 10
94.81598049462158
 20
158.3616699146644
 30
0.0
 10
95.7237637538445
 20
161.2605474231013
 30
0.0
 10
96.4968436907311
 20
162.8139420021662
 30
0.0
 10
97.15657991138076
 20
163.9844139654337
 30
0.0
 10
97.81183750494507
 20
165.1523021053827
 30
0.0
 10
99.1047826935081
 20
166.3084769129547
 30
0.0
 10
100.4504378777679
 20
166.69157178364
 30
0.0
  0
HATCH
  5
349
330
346
100
AcDbEntity
  8
レイヤー 1
 62
   250
420
  2234388
100
AcDbHatch
 10
0.0
 20
0.0
 30
0.0
210
0.0
220
0.0
230
1.0
  2
SOLID
 70
     1
 71
     0
 91
        1
 92
        1
 93
        1
 72
     4
 94
        3
 73
     0
 74
     1
 95
       56
 96
       52
 40
0.0
 40
0.0
 40
0.0
 40
0.0
 40
1.0
 40
1.0
 40
1.0
 40
2.0
 40
2.0
 40
2.0
 40
3.0
 40
3.0
 40
3.0
 40
4.0
 40
4.0
 40
4.0
 40
5.0
 40
5.0
 40
5.0
 40
6.0
 40
6.0
 40
6.0
 40
7.0
 40
7.0
 40
7.0
 40
8.0
 40
8.0
 40
8.0
 40
9.0
 40
9.0
 40
9.0
 40
10.0
 40
10.0
 40
10.0
 40
11.0
 40
11.0
 40
11.0
 40
12.0
 40
12.0
 40
12.0
 40
13.0
 40
13.0
 40
13.0
 40
14.0
 40
14.0
 40
14.0
 40
15.0
 40
15.0
 40
15.0
 40
16.0
 40
16.0
 40
16.0
 40
17.0
 40
17.0
 40
17.0
 40
17.0
 10
100.4504378777679
 20
166.69157178364
 10
101.9848844191641
 20
167.1313385124438
 10
103.9637485713373
 20
166.7649523658846
 10
103.9637485713373
 20
166.7649523658846
 10
103.9637485713373
 20
166.7649523658846
 10
103.0132460999156
 20
163.911205638077
 10
103.0132460999156
 20
163.911205638077
 10
103.0132460999156
 20
163.911205638077
 10
101.0674548862189
 20
164.3601018759394
 10
99.57090442016032
 20
163.1805004036133
 10
98.40508333886608
 20
162.258247733807
 10
97.65301849830304
 20
159.804132345923
 10
97.3598406791005
 20
158.8699940888517
 10
97.3598406791005
 20
158.8699940888517
 10
96.07137411762282
 20
154.9119212747295
 10
96.07137411762282
 20
154.9119212747295
 10
96.07137411762282
 20
154.9119212747295
 10
100.3012651448482
 20
154.9119212747295
 10
100.3012651448482
 20
154.9119212747295
 10
100.3012651448482
 20
154.9119212747295
 10
99.64152892419852
 20
152.4199098115079
 10
99.64152892419852
 20
152.4199098115079
 10
99.64152892419852
 20
152.4199098115079
 10
95.38097652692731
 20
152.4199098115079
 10
95.38097652692731
 20
152.4199098115079
 10
95.38097652692731
 20
152.4199098115079
 10
87.75353009080013
 20
127.8027915271048
 10
87.75353009080013
 20
127.8027915271048
 10
87.75353009080013
 20
127.8027915271048
 10
85.36538832498108
 20
127.8027915271048
 10
85.36538832498108
 20
127.8027915271048
 10
85.36538832498108
 20
127.8027915271048
 10
93.00006946639998
 20
152.4199098115079
 10
93.00006946639998
 20
152.4199098115079
 10
93.00006946639998
 20
152.4199098115079
 10
89.85297266450198
 20
152.4199098115079
 10
89.85297266450198
 20
152.4199098115079
 10
89.85297266450198
 20
152.4199098115079
 10
90.51270888515164
 20
154.9119212747295
 10
90.51270888515164
 20
154.9119212747295
 10
90.51270888515164
 20
154.9119212747295
 10
93.6904670570955
 20
154.9119212747295
 10
93.6904670570955
 20
154.9119212747295
 10
93.6904670570955
 20
154.9119212747295
 10
94.81598049462158
 20
158.3616699146644
 10
94.81598049462158
 20
158.3616699146644
 10
95.7237637538445
 20
161.2605474231013
 10
96.4968436907311
 20
162.8139420021662
 10
97.15657991138076
 20
163.9844139654337
 10
97.81183750494507
 20
165.1523021053827
 10
99.1047826935081
 20
166.3084769129547
 10
100.4504378777679
 20
166.69157178364
 97
        0
 75
     2
 76
     1
 98
        0
  0
SPLINE
  5
34A
330
346
100
AcDbEntity
  8
レイヤー 1
370
     0
100
AcDbSpline
210
0.0
220
0.0
230
1.0
 70
    11
 71
     3
 72
    38
 73
    34
 74
     0
 42
0.000000001
 43
0.0000000001
 40
0.0
 40
0.0
 40
0.0
 40
0.0
 40
1.0
 40
1.0
 40
1.0
 40
2.0
 40
2.0
 40
2.0
 40
3.0
 40
3.0
 40
3.0
 40
4.0
 40
4.0
 40
4.0
 40
5.0
 40
5.0
 40
5.0
 40
6.0
 40
6.0
 40
6.0
 40
7.0
 40
7.0
 40
7.0
 40
8.0
 40
8.0
 40
8.0
 40
9.0
 40
9.0
 40
9.0
 40
10.0
 40
10.0
 40
10.0
 40
11.0
 40
11.0
 40
11.0
 40
11.0
 10
126.377554584636
 20
154.8151140277308
 30
0.0
 10
126.377554584636
 20
154.8151140277308
 30
0.0
 10
128.8311532078563
 20
154.8151140277308
 30
0.0
 10
128.8311532078563
 20
154.8151140277308
 30
0.0
 10
128.8311532078563
 20
154.8151140277308
 30
0.0
 10
127.7345785914971
 20
151.3062819612468
 30
0.0
 10
127.7345785914971
 20
151.3062819612468
 30
0.0
 10
128.571392836906
 20
152.2922689395754
 30
0.0
 10
129.8860421413442
 20
153.604506675583
 30
0.0
 10
131.0163787157314
 20
154.2664822097754
 30
0.0
 10
132.7044766171327
 20
155.2500576196734
 30
0.0
 10
133.6642808525008
 20
155.3847609420097
 30
0.0
 10
134.7284715499351
 20
155.3565111403944
 30
0.0
 10
134.7284715499351
 20
155.3565111403944
 30
0.0
 10
133.6877075172549
 20
152.0345756272799
 30
0.0
 10
133.6877075172549
 20
152.0345756272799
 30
0.0
 10
133.011434827367
 20
152.3184516825359
 30
0.0
 10
130.930940291334
 20
151.7768823149844
 30
0.0
 10
129.739280976855
 20
150.9162968950455
 30
0.0
 10
128.66613302525
 20
150.1454562717016
 30
0.0
 10
127.9192358313239
 20
149.4857200510519
 30
0.0
 10
127.0393578639405
 20
147.8282835196966
 30
0.0
 10
126.164647543194
 20
146.1699857139017
 30
0.0
 10
125.4742499524985
 20
143.5262176944419
 30
0.0
 10
124.2822461282437
 20
139.6959580071401
 30
0.0
 10
124.2822461282437
 20
139.6959580071401
 30
0.0
 10
120.5753209406769
 20
127.8027915271048
 30
0.0
 10
120.5753209406769
 20
127.8027915271048
 30
0.0
 10
120.5753209406769
 20
127.8027915271048
 30
0.0
 10
118.1964809388044
 20
127.8027915271048
 30
0.0
 10
118.1964809388044
 20
127.8027915271048
 30
0.0
 10
118.1964809388044
 20
127.8027915271048
 30
0.0
 10
126.377554584636
 20
154.8151140277308
 30
0.0
 10
126.377554584636
 20
154.8151140277308
 30
0.0
  0
HATCH
  5
34B
330
346
100
AcDbEntity
  8
レイヤー 1
 62
   250
420
  2234388
100
AcDbHatch
 10
0.0
 20
0.0
 30
0.0
210
0.0
220
0.0
230
1.0
  2
SOLID
 70
     1
 71
     0
 91
        1
 92
        1
 93
        1
 72
     4
 94
        3
 73
     0
 74
     1
 95
       38
 96
       34
 40
0.0
 40
0.0
 40
0.0
 40
0.0
 40
1.0
 40
1.0
 40
1.0
 40
2.0
 40
2.0
 40
2.0
 40
3.0
 40
3.0
 40
3.0
 40
4.0
 40
4.0
 40
4.0
 40
5.0
 40
5.0
 40
5.0
 40
6.0
 40
6.0
 40
6.0
 40
7.0
 40
7.0
 40
7.0
 40
8.0
 40
8.0
 40
8.0
 40
9.0
 40
9.0
 40
9.0
 40
10.0
 40
10.0
 40
10.0
 40
11.0
 40
11.0
 40
11.0
 40
11.0
 10
126.377554584636
 20
154.8151140277308
 10
126.377554584636
 20
154.8151140277308
 10
128.8311532078563
 20
154.8151140277308
 10
128.8311532078563
 20
154.8151140277308
 10
128.8311532078563
 20
154.8151140277308
 10
127.7345785914971
 20
151.3062819612468
 10
127.7345785914971
 20
151.3062819612468
 10
128.571392836906
 20
152.2922689395754
 10
129.8860421413442
 20
153.604506675583
 10
131.0163787157314
 20
154.2664822097754
 10
132.7044766171327
 20
155.2500576196734
 10
133.6642808525008
 20
155.3847609420097
 10
134.7284715499351
 20
155.3565111403944
 10
134.7284715499351
 20
155.3565111403944
 10
133.6877075172549
 20
152.0345756272799
 10
133.6877075172549
 20
152.0345756272799
 10
133.011434827367
 20
152.3184516825359
 10
130.930940291334
 20
151.7768823149844
 10
129.739280976855
 20
150.9162968950455
 10
128.66613302525
 20
150.1454562717016
 10
127.9192358313239
 20
149.4857200510519
 10
127.0393578639405
 20
147.8282835196966
 10
126.164647543194
 20
146.1699857139017
 10
125.4742499524985
 20
143.5262176944419
 10
124.2822461282437
 20
139.6959580071401
 10
124.2822461282437
 20
139.6959580071401
 10
120.5753209406769
 20
127.8027915271048
 10
120.5753209406769
 20
127.8027915271048
 10
120.5753209406769
 20
127.8027915271048
 10
118.1964809388044
 20
127.8027915271048
 10
118.1964809388044
 20
127.8027915271048
 10
118.1964809388044
 20
127.8027915271048
 10
126.377554584636
 20
154.8151140277308
 10
126.377554584636
 20
154.8151140277308
 97
        0
 75
     2
 76
     1
 98
        0
  0
SPLINE
  5
34C
330
346
100
AcDbEntity
  8
レイヤー 1
370
     0
100
AcDbSpline
210
0.0
220
0.0
230
1.0
 70
    11
 71
     3
 72
   104
 73
   100
 74
     0
 42
0.000000001
 43
0.0000000001
 40
0.0
 40
0.0
 40
0.0
 40
0.0
 40
1.0
 40
1.0
 40
1.0
 40
2.0
 40
2.0
 40
2.0
 40
3.0
 40
3.0
 40
3.0
 40
4.0
 40
4.0
 40
4.0
 40
5.0
 40
5.0
 40
5.0
 40
6.0
 40
6.0
 40
6.0
 40
7.0
 40
7.0
 40
7.0
 40
8.0
 40
8.0
 40
8.0
 40
9.0
 40
9.0
 40
9.0
 40
10.0
 40
10.0
 40
10.0
 40
11.0
 40
11.0
 40
11.0
 40
12.0
 40
12.0
 40
12.0
 40
13.0
 40
13.0
 40
13.0
 40
14.0
 40
14.0
 40
14.0
 40
15.0
 40
15.0
 40
15.0
 40
16.0
 40
16.0
 40
16.0
 40
17.0
 40
17.0
 40
17.0
 40
18.0
 40
18.0
 40
18.0
 40
19.0
 40
19.0
 40
19.0
 40
20.0
 40
20.0
 40
20.0
 40
21.0
 40
21.0
 40
21.0
 40
22.0
 40
22.0
 40
22.0
 40
23.0
 40
23.0
 40
23.0
 40
24.0
 40
24.0
 40
24.0
 40
25.0
 40
25.0
 40
25.0
 40
26.0
 40
26.0
 40
26.0
 40
27.0
 40
27.0
 40
27.0
 40
28.0
 40
28.0
 40
28.0
 40
29.0
 40
29.0
 40
29.0
 40
30.0
 40
30.0
 40
30.0
 40
31.0
 40
31.0
 40
31.0
 40
32.0
 40
32.0
 40
32.0
 40
33.0
 40
33.0
 40
33.0
 40
33.0
 10
139.8926730891197
 20
154.8294111834263
 30
0.0
 10
139.8926730891197
 20
154.8294111834263
 30
0.0
 10
142.0344903652445
 20
154.8294111834263
 30
0.0
 10
142.0344903652445
 20
154.8294111834263
 30
0.0
 10
142.0344903652445
 20
154.8294111834263
 30
0.0
 10
140.9516961399171
 20
151.3157559800812
 30
0.0
 10
140.9516961399171
 20
151.3157559800812
 30
0.0
 10
141.8928968473923
 20
152.7887075264977
 30
0.0
 10
142.7341897198865
 20
153.4484437471474
 30
0.0
 10
143.8552245303272
 20
154.2926649527359
 30
0.0
 10
144.9803934580775
 20
155.1296514530327
 30
0.0
 10
146.3139908001845
 20
155.3044901642492
 30
0.0
 10
147.241066606852
 20
155.3044901642492
 30
0.0
 10
148.3855280820469
 20
155.3044901642492
 30
0.0
 10
149.4969166187653
 20
155.0752189084569
 30
0.0
 10
150.0784491203092
 20
153.8172414621372
 30
0.0
 10
150.5228667310863
 20
152.833838307127
 30
0.0
 10
150.5414702589793
 20
152.7201500811143
 30
0.0
 10
150.4140016419347
 20
150.7765981809602
 30
0.0
 10
151.5818897818837
 20
152.7699317437168
 30
0.0
 10
152.4424752018226
 20
153.6256940267945
 30
0.0
 10
153.9038856707499
 20
154.4507949398263
 30
0.0
 10
155.4455669174378
 20
155.3044901642492
 30
0.0
 10
156.339225275853
 20
155.3659851592288
 30
0.0
 10
157.3748216618963
 20
155.2147453676543
 30
0.0
 10
158.911679771723
 20
154.9877134254046
 30
0.0
 10
159.8859534176746
 20
154.4390816074493
 30
0.0
 10
160.3965169054045
 20
152.7816450760939
 30
0.0
 10
160.9070803931344
 20
151.1219692311958
 30
0.0
 10
160.6328506116007
 20
150.2303779314354
 30
0.0
 10
159.9992971339115
 20
147.597634224801
 30
0.0
 10
159.7105979417943
 20
146.4014962832367
 30
0.0
 10
159.2947746424084
 20
144.9400858143094
 30
0.0
 10
158.7463150793409
 20
143.2092687007094
 30
0.0
 10
158.7463150793409
 20
143.2092687007094
 30
0.0
 10
153.9038856707499
 20
127.8027915271048
 30
0.0
 10
153.9038856707499
 20
127.8027915271048
 30
0.0
 10
153.9038856707499
 20
127.8027915271048
 30
0.0
 10
151.3882752878863
 20
127.8027915271048
 30
0.0
 10
151.3882752878863
 20
127.8027915271048
 30
0.0
 10
151.3882752878863
 20
127.8027915271048
 30
0.0
 10
155.6250565106276
 20
141.2751908193897
 30
0.0
 10
155.6250565106276
 20
141.2751908193897
 30
0.0
 10
156.5094131050963
 20
144.0936252951782
 30
0.0
 10
157.109893644309
 20
146.1506931664571
 30
0.0
 10
157.4220195011804
 20
147.4415712963654
 30
0.0
 10
157.8095929989511
 20
149.0530157726519
 30
0.0
 10
157.9656559273867
 20
149.5826995529385
 30
0.0
 10
157.7816877071116
 20
150.7529992613181
 30
0.0
 10
157.6111553680925
 20
151.8430281919372
 30
0.0
 10
157.0582171779396
 20
152.5547853887321
 30
0.0
 10
156.1170164704645
 20
152.5547853887321
 30
0.0
 10
155.1096698860365
 20
152.5547853887321
 30
0.0
 10
154.2962823053817
 20
152.4412694176073
 30
0.0
 10
153.156643967048
 20
151.2945686288697
 30
0.0
 10
152.0170056287143
 20
150.1476955852443
 30
0.0
 10
151.076149431015
 20
148.7930831468137
 30
0.0
 10
150.3337308641742
 20
147.2290087646991
 30
0.0
 10
149.5957909244188
 20
145.6683794803425
 30
0.0
 10
148.8530278478023
 20
143.6822806228776
 30
0.0
 10
148.0964843801539
 20
141.2751908193897
 30
0.0
 10
148.0964843801539
 20
141.2751908193897
 30
0.0
 10
143.8552245303272
 20
127.8027915271048
 30
0.0
 10
143.8552245303272
 20
127.8027915271048
 30
0.0
 10
143.8552245303272
 20
127.8027915271048
 30
0.0
 10
141.486030802177
 20
127.8027915271048
 30
0.0
 10
141.486030802177
 20
127.8027915271048
 30
0.0
 10
141.486030802177
 20
127.8027915271048
 30
0.0
 10
146.3329388378533
 20
143.2092687007094
 30
0.0
 10
146.3329388378533
 20
143.2092687007094
 30
0.0
 10
146.8483254624444
 20
144.8408669988801
 30
0.0
 10
147.2314203331297
 20
146.1837661049335
 30
0.0
 10
147.4867020769946
 20
147.224185627838
 30
0.0
 10
147.9169947869641
 20
149.0197705792876
 30
0.0
 10
148.0306830129768
 20
150.2400242051577
 30
0.0
 10
147.709255392159
 20
151.3157559800812
 30
0.0
 10
147.3874832615654
 20
152.3916600098926
 30
0.0
 10
146.8245542879144
 20
152.6683013598569
 30
0.0
 10
145.8840425999909
 20
152.6683013598569
 30
0.0
 10
145.0989048209514
 20
152.6683013598569
 30
0.0
 10
144.3282364524954
 20
152.3275811915945
 30
0.0
 10
143.4531816219731
 20
151.6538923250251
 30
0.0
 10
142.34627171234
 20
150.8074318058939
 30
0.0
 10
141.901854101563
 20
150.1097995099067
 30
0.0
 10
141.3578731655808
 20
149.289521733736
 30
0.0
 10
140.6299240093235
 20
148.192602607601
 30
0.0
 10
140.2850697237515
 20
147.455696197173
 30
0.0
 10
139.6652966370942
 20
145.8385673095858
 30
0.0
 10
139.0506911970739
 20
144.2214384219986
 30
0.0
 10
138.463991048893
 20
142.3252566160164
 30
0.0
 10
138.0571250036777
 20
141.0154304484394
 30
0.0
 10
138.0571250036777
 20
141.0154304484394
 30
0.0
 10
133.9009590684727
 20
127.8027915271048
 30
0.0
 10
133.9009590684727
 20
127.8027915271048
 30
0.0
 10
133.9009590684727
 20
127.8027915271048
 30
0.0
 10
131.4180771143097
 20
127.8027915271048
 30
0.0
 10
131.4180771143097
 20
127.8027915271048
 30
0.0
 10
131.4180771143097
 20
127.8027915271048
 30
0.0
 10
139.8926730891197
 20
154.8294111834263
 30
0.0
 10
139.8926730891197
 20
154.8294111834263
 30
0.0
  0
HATCH
  5
34D
330
346
100
AcDbEntity
  8
レイヤー 1
 62
   250
420
  2234388
100
AcDbHatch
 10
0.0
 20
0.0
 30
0.0
210
0.0
220
0.0
230
1.0
  2
SOLID
 70
     1
 71
     0
 91
        1
 92
        1
 93
        1
 72
     4
 94
        3
 73
     0
 74
     1
 95
      104
 96
      100
 40
0.0
 40
0.0
 40
0.0
 40
0.0
 40
1.0
 40
1.0
 40
1.0
 40
2.0
 40
2.0
 40
2.0
 40
3.0
 40
3.0
 40
3.0
 40
4.0
 40
4.0
 40
4.0
 40
5.0
 40
5.0
 40
5.0
 40
6.0
 40
6.0
 40
6.0
 40
7.0
 40
7.0
 40
7.0
 40
8.0
 40
8.0
 40
8.0
 40
9.0
 40
9.0
 40
9.0
 40
10.0
 40
10.0
 40
10.0
 40
11.0
 40
11.0
 40
11.0
 40
12.0
 40
12.0
 40
12.0
 40
13.0
 40
13.0
 40
13.0
 40
14.0
 40
14.0
 40
14.0
 40
15.0
 40
15.0
 40
15.0
 40
16.0
 40
16.0
 40
16.0
 40
17.0
 40
17.0
 40
17.0
 40
18.0
 40
18.0
 40
18.0
 40
19.0
 40
19.0
 40
19.0
 40
20.0
 40
20.0
 40
20.0
 40
21.0
 40
21.0
 40
21.0
 40
22.0
 40
22.0
 40
22.0
 40
23.0
 40
23.0
 40
23.0
 40
24.0
 40
24.0
 40
24.0
 40
25.0
 40
25.0
 40
25.0
 40
26.0
 40
26.0
 40
26.0
 40
27.0
 40
27.0
 40
27.0
 40
28.0
 40
28.0
 40
28.0
 40
29.0
 40
29.0
 40
29.0
 40
30.0
 40
30.0
 40
30.0
 40
31.0
 40
31.0
 40
31.0
 40
32.0
 40
32.0
 40
32.0
 40
33.0
 40
33.0
 40
33.0
 40
33.0
 10
139.8926730891197
 20
154.8294111834263
 10
139.8926730891197
 20
154.8294111834263
 10
142.0344903652445
 20
154.8294111834263
 10
142.0344903652445
 20
154.8294111834263
 10
142.0344903652445
 20
154.8294111834263
 10
140.9516961399171
 20
151.3157559800812
 10
140.9516961399171
 20
151.3157559800812
 10
141.8928968473923
 20
152.7887075264977
 10
142.7341897198865
 20
153.4484437471474
 10
143.8552245303272
 20
154.2926649527359
 10
144.9803934580775
 20
155.1296514530327
 10
146.3139908001845
 20
155.3044901642492
 10
147.241066606852
 20
155.3044901642492
 10
148.3855280820469
 20
155.3044901642492
 10
149.4969166187653
 20
155.0752189084569
 10
150.0784491203092
 20
153.8172414621372
 10
150.5228667310863
 20
152.833838307127
 10
150.5414702589793
 20
152.7201500811143
 10
150.4140016419347
 20
150.7765981809602
 10
151.5818897818837
 20
152.7699317437168
 10
152.4424752018226
 20
153.6256940267945
 10
153.9038856707499
 20
154.4507949398263
 10
155.4455669174378
 20
155.3044901642492
 10
156.339225275853
 20
155.3659851592288
 10
157.3748216618963
 20
155.2147453676543
 10
158.911679771723
 20
154.9877134254046
 10
159.8859534176746
 20
154.4390816074493
 10
160.3965169054045
 20
152.7816450760939
 10
160.9070803931344
 20
151.1219692311958
 10
160.6328506116007
 20
150.2303779314354
 10
159.9992971339115
 20
147.597634224801
 10
159.7105979417943
 20
146.4014962832367
 10
159.2947746424084
 20
144.9400858143094
 10
158.7463150793409
 20
143.2092687007094
 10
158.7463150793409
 20
143.2092687007094
 10
153.9038856707499
 20
127.8027915271048
 10
153.9038856707499
 20
127.8027915271048
 10
153.9038856707499
 20
127.8027915271048
 10
151.3882752878863
 20
127.8027915271048
 10
151.3882752878863
 20
127.8027915271048
 10
151.3882752878863
 20
127.8027915271048
 10
155.6250565106276
 20
141.2751908193897
 10
155.6250565106276
 20
141.2751908193897
 10
156.5094131050963
 20
144.0936252951782
 10
157.109893644309
 20
146.1506931664571
 10
157.4220195011804
 20
147.4415712963654
 10
157.8095929989511
 20
149.0530157726519
 10
157.9656559273867
 20
149.5826995529385
 10
157.7816877071116
 20
150.7529992613181
 10
157.6111553680925
 20
151.8430281919372
 10
157.0582171779396
 20
152.5547853887321
 10
156.1170164704645
 20
152.5547853887321
 10
155.1096698860365
 20
152.5547853887321
 10
154.2962823053817
 20
152.4412694176073
 10
153.156643967048
 20
151.2945686288697
 10
152.0170056287143
 20
150.1476955852443
 10
151.076149431015
 20
148.7930831468137
 10
150.3337308641742
 20
147.2290087646991
 10
149.5957909244188
 20
145.6683794803425
 10
148.8530278478023
 20
143.6822806228776
 10
148.0964843801539
 20
141.2751908193897
 10
148.0964843801539
 20
141.2751908193897
 10
143.8552245303272
 20
127.8027915271048
 10
143.8552245303272
 20
127.8027915271048
 10
143.8552245303272
 20
127.8027915271048
 10
141.486030802177
 20
127.8027915271048
 10
141.486030802177
 20
127.8027915271048
 10
141.486030802177
 20
127.8027915271048
 10
146.3329388378533
 20
143.2092687007094
 10
146.3329388378533
 20
143.2092687007094
 10
146.8483254624444
 20
144.8408669988801
 10
147.2314203331297
 20
146.1837661049335
 10
147.4867020769946
 20
147.224185627838
 10
147.9169947869641
 20
149.0197705792876
 10
148.0306830129768
 20
150.2400242051577
 10
147.709255392159
 20
151.3157559800812
 10
147.3874832615654
 20
152.3916600098926
 10
146.8245542879144
 20
152.6683013598569
 10
145.8840425999909
 20
152.6683013598569
 10
145.0989048209514
 20
152.6683013598569
 10
144.3282364524954
 20
152.3275811915945
 10
143.4531816219731
 20
151.6538923250251
 10
142.34627171234
 20
150.8074318058939
 10
141.901854101563
 20
150.1097995099067
 10
141.3578731655808
 20
149.289521733736
 10
140.6299240093235
 20
148.192602607601
 10
140.2850697237515
 20
147.455696197173
 10
139.6652966370942
 20
145.8385673095858
 10
139.0506911970739
 20
144.2214384219986
 10
138.463991048893
 20
142.3252566160164
 10
138.0571250036777
 20
141.0154304484394
 10
138.0571250036777
 20
141.0154304484394
 10
133.9009590684727
 20
127.8027915271048
 10
133.9009590684727
 20
127.8027915271048
 10
133.9009590684727
 20
127.8027915271048
 10
131.4180771143097
 20
127.8027915271048
 10
131.4180771143097
 20
127.8027915271048
 10
131.4180771143097
 20
127.8027915271048
 10
139.8926730891197
 20
154.8294111834263
 10
139.8926730891197
 20
154.8294111834263
 97
        0
 75
     2
 76
     1
 98
        0
  0
SPLINE
  5
34E
330
346
100
AcDbEntity
  8
レイヤー 1
370
     0
100
AcDbSpline
210
0.0
220
0.0
230
1.0
 70
    11
 71
     3
 72
    29
 73
    25
 74
     0
 42
0.000000001
 43
0.0000000001
 40
0.0
 40
0.0
 40
0.0
 40
0.0
 40
1.0
 40
1.0
 40
1.0
 40
2.0
 40
2.0
 40
2.0
 40
3.0
 40
3.0
 40
3.0
 40
4.0
 40
4.0
 40
4.0
 40
5.0
 40
5.0
 40
5.0
 40
6.0
 40
6.0
 40
6.0
 40
7.0
 40
7.0
 40
7.0
 40
8.0
 40
8.0
 40
8.0
 40
8.0
 10
101.6420971922469
 20
132.8388354296931
 30
0.0
 10
101.630039350094
 20
134.7164137077823
 30
0.0
 10
102.2236296937908
 20
138.0598810818841
 30
0.0
 10
103.7487744712405
 20
142.5378191476827
 30
0.0
 10
105.819967243327
 20
148.5896501242061
 30
0.0
 10
107.0602024361932
 20
150.8074318058939
 30
0.0
 10
108.1522984254671
 20
151.8833358357054
 30
0.0
 10
109.741177511439
 20
153.4532668840085
 30
0.0
 10
111.8740375333931
 20
153.5290590346837
 30
0.0
 10
112.5075910110823
 20
153.4532668840085
 30
0.0
 10
113.4012493694975
 20
153.3490526768302
 30
0.0
 10
114.6683563248758
 20
152.7580461564518
 30
0.0
 10
114.7493161221879
 20
150.7838328862519
 30
0.0
 10
114.8106388622796
 20
149.0909118479895
 30
0.0
 10
114.3186789024427
 20
145.9191825971221
 30
0.0
 10
112.6164561002338
 20
140.9489400617108
 30
0.0
 10
110.6444821435766
 20
135.1746117095912
 30
0.0
 10
109.4669477299053
 20
132.8960240524753
 30
0.0
 10
108.5212683953448
 20
131.9072809959403
 30
0.0
 10
106.7346406980658
 20
130.0538184021569
 30
0.0
 10
104.8222669326213
 20
130.2336525051225
 30
0.0
 10
104.5408024457958
 20
130.2336525051225
 30
0.0
 10
104.1721769856939
 20
130.2336525051225
 30
0.0
 10
101.6465758193322
 20
130.6305277668397
 30
0.0
 10
101.6420971922469
 20
132.8388354296931
 30
0.0
  0
SPLINE
  5
34F
330
346
100
AcDbEntity
  8
レイヤー 1
370
     0
100
AcDbSpline
210
0.0
220
0.0
230
1.0
 70
    11
 71
     3
 72
    32
 73
    28
 74
     0
 42
0.000000001
 43
0.0000000001
 40
0.0
 40
0.0
 40
0.0
 40
0.0
 40
1.0
 40
1.0
 40
1.0
 40
2.0
 40
2.0
 40
2.0
 40
3.0
 40
3.0
 40
3.0
 40
4.0
 40
4.0
 40
4.0
 40
5.0
 40
5.0
 40
5.0
 40
6.0
 40
6.0
 40
6.0
 40
7.0
 40
7.0
 40
7.0
 40
8.0
 40
8.0
 40
8.0
 40
9.0
 40
9.0
 40
9.0
 40
9.0
 10
106.2595617172429
 20
153.4105476718098
 30
0.0
 10
104.8222669326213
 20
151.5474388043041
 30
0.0
 10
103.7177685914188
 20
149.8758773721411
 30
0.0
 10
101.9232171692965
 20
144.6141795664062
 30
0.0
 10
100.2754269116635
 20
139.7999999594306
 30
0.0
 10
99.22777268346732
 20
136.3052927937542
 30
0.0
 10
99.06964269637689
 20
132.039572749846
 30
0.0
 10
98.94665270641765
 20
128.8673267343149
 30
0.0
 10
100.8807305877373
 20
127.8027915271048
 30
0.0
 10
103.7129454545577
 20
127.8027915271048
 30
0.0
 10
104.9352661390825
 20
127.8027915271048
 30
0.0
 10
108.0151835347002
 20
127.8827177950895
 30
0.0
 10
110.2045431598849
 20
130.5926316915021
 30
0.0
 10
111.7417457794874
 20
132.4984597712065
 30
0.0
 10
113.155269389579
 20
134.475256864725
 30
0.0
 10
115.0562743324223
 20
140.9489400617108
 30
0.0
 10
116.6361961642235
 20
146.3680788349845
 30
0.0
 10
117.7282921534974
 20
149.8639917848761
 30
0.0
 10
117.6480213757369
 20
151.8595646611754
 30
0.0
 10
117.6480213757369
 20
151.8595646611754
 30
0.0
 10
117.6480213757369
 20
151.8595646611754
 30
0.0
 10
117.6480213757369
 20
151.8595646611754
 30
0.0
 10
117.13229024137
 20
155.18150017429
 30
0.0
 10
114.7162431837115
 20
155.886194920681
 30
0.0
 10
113.3351034925446
 20
155.886194920681
 30
0.0
 10
111.9829026225447
 20
155.886194920681
 30
0.0
 10
108.3414342923792
 20
156.1251124501957
 30
0.0
 10
106.2595617172429
 20
153.4105476718098
 30
0.0
  0
HATCH
  5
350
330
346
100
AcDbEntity
  8
レイヤー 1
 62
   250
420
  2234388
100
AcDbHatch
 10
0.0
 20
0.0
 30
0.0
210
0.0
220
0.0
230
1.0
  2
SOLID
 70
     1
 71
     0
 91
        2
 92
        1
 93
        1
 72
     4
 94
        3
 73
     0
 74
     1
 95
       29
 96
       25
 40
0.0
 40
0.0
 40
0.0
 40
0.0
 40
1.0
 40
1.0
 40
1.0
 40
2.0
 40
2.0
 40
2.0
 40
3.0
 40
3.0
 40
3.0
 40
4.0
 40
4.0
 40
4.0
 40
5.0
 40
5.0
 40
5.0
 40
6.0
 40
6.0
 40
6.0
 40
7.0
 40
7.0
 40
7.0
 40
8.0
 40
8.0
 40
8.0
 40
8.0
 10
101.6420971922469
 20
132.8388354296931
 10
101.630039350094
 20
134.7164137077823
 10
102.2236296937908
 20
138.0598810818841
 10
103.7487744712405
 20
142.5378191476827
 10
105.819967243327
 20
148.5896501242061
 10
107.0602024361932
 20
150.8074318058939
 10
108.1522984254671
 20
151.8833358357054
 10
109.741177511439
 20
153.4532668840085
 10
111.8740375333931
 20
153.5290590346837
 10
112.5075910110823
 20
153.4532668840085
 10
113.4012493694975
 20
153.3490526768302
 10
114.6683563248758
 20
152.7580461564518
 10
114.7493161221879
 20
150.7838328862519
 10
114.8106388622796
 20
149.0909118479895
 10
114.3186789024427
 20
145.9191825971221
 10
112.6164561002338
 20
140.9489400617108
 10
110.6444821435766
 20
135.1746117095912
 10
109.4669477299053
 20
132.8960240524753
 10
108.5212683953448
 20
131.9072809959403
 10
106.7346406980658
 20
130.0538184021569
 10
104.8222669326213
 20
130.2336525051225
 10
104.5408024457958
 20
130.2336525051225
 10
104.1721769856939
 20
130.2336525051225
 10
101.6465758193322
 20
130.6305277668397
 10
101.6420971922469
 20
132.8388354296931
 97
        0
 92
        1
 93
        1
 72
     4
 94
        3
 73
     0
 74
     1
 95
       32
 96
       28
 40
0.0
 40
0.0
 40
0.0
 40
0.0
 40
1.0
 40
1.0
 40
1.0
 40
2.0
 40
2.0
 40
2.0
 40
3.0
 40
3.0
 40
3.0
 40
4.0
 40
4.0
 40
4.0
 40
5.0
 40
5.0
 40
5.0
 40
6.0
 40
6.0
 40
6.0
 40
7.0
 40
7.0
 40
7.0
 40
8.0
 40
8.0
 40
8.0
 40
9.0
 40
9.0
 40
9.0
 40
9.0
 10
106.2595617172429
 20
153.4105476718098
 10
104.8222669326213
 20
151.5474388043041
 10
103.7177685914188
 20
149.8758773721411
 10
101.9232171692965
 20
144.6141795664062
 10
100.2754269116635
 20
139.7999999594306
 10
99.22777268346732
 20
136.3052927937542
 10
99.06964269637689
 20
132.039572749846
 10
98.94665270641765
 20
128.8673267343149
 10
100.8807305877373
 20
127.8027915271048
 10
103.7129454545577
 20
127.8027915271048
 10
104.9352661390825
 20
127.8027915271048
 10
108.0151835347002
 20
127.8827177950895
 10
110.2045431598849
 20
130.5926316915021
 10
111.7417457794874
 20
132.4984597712065
 10
113.155269389579
 20
134.475256864725
 10
115.0562743324223
 20
140.9489400617108
 10
116.6361961642235
 20
146.3680788349845
 10
117.7282921534974
 20
149.8639917848761
 10
117.6480213757369
 20
151.8595646611754
 10
117.6480213757369
 20
151.8595646611754
 10
117.6480213757369
 20
151.8595646611754
 10
117.6480213757369
 20
151.8595646611754
 10
117.13229024137
 20
155.18150017429
 10
114.7162431837115
 20
155.886194920681
 10
113.3351034925446
 20
155.886194920681
 10
111.9829026225447
 20
155.886194920681
 10
108.3414342923792
 20
156.1251124501957
 10
106.2595617172429
 20
153.4105476718098
 97
        0
 75
     2
 76
     1
 98
        0
  0
ENDBLK
  5
351
330
346
100
AcDbEntity
  8
0
100
AcDbBlockEnd
  0
ENDSEC
  0
SECTION
  2
ENTITIES
  0
LINE
  5
DB
330
A
100
AcDbEntity
  8
template
  6
Continuous
 62
     7
370
     5
390
1D
100
AcDbLine
 10
974.9999999997588
 20
-1224.0027073587
 30
0.0
 11
-975.0000000002412
 21
-1224.0027073587
 31
0.0
  0
LWPOLYLINE
  5
DC
330
A
100
AcDbEntity
  8
template
  6
Continuous
 62
     7
370
     5
390
1D
100
AcDbPolyline
 90
        5
 70
   128
 43
0.0
 10
975.0000000002412
 20
1405.9972926413
 10
-974.9999999997592
 20
1405.9972926413
 10
-974.9999999997592
 20
-1394.0027073587
 10
975.0000000002412
 20
-1394.0027073587
 10
975.0000000002412
 20
1405.9972926413
  0
LINE
  5
DD
330
A
100
AcDbEntity
  8
template
  6
Continuous
 62
     7
370
     5
390
1D
100
AcDbLine
 10
974.9999999997588
 20
-1139.0027073587
 30
0.0
 11
-975.0000000002412
 21
-1139.0027073587
 31
0.0
  0
LINE
  5
DE
330
A
100
AcDbEntity
  8
template
  6
Continuous
 62
     7
370
     5
390
1D
100
AcDbLine
 10
975.0000000002412
 20
-1309.0027073587
 30
0.0
 11
222.0000000002412
 21
-1309.0027073587
 31
0.0
  0
LINE
  5
E3
330
A
100
AcDbEntity
  8
template
  6
Continuous
 62
     7
370
     5
390
1D
100
AcDbLine
 10
724.0000000005
 20
-1309.0027073587
 30
0.0
 11
724.0000000005
 21
-1224.0027073587
 31
0.0
  0
LINE
  5
E6
330
A
100
AcDbEntity
  8
template
  6
Continuous
 62
     7
370
     5
390
1D
100
AcDbLine
 10
473.0000000005
 20
-1309.0027073587
 30
0.0
 11
473.0000000005
 21
-1224.0027073587
 31
0.0
  0
LINE
  5
EB
330
A
100
AcDbEntity
  8
template
  6
Continuous
 62
     7
370
     5
390
1D
100
AcDbLine
 10
222.0000000005
 20
-1394.0027073587
 30
0.0
 11
222.0000000005
 21
-1139.0027073587
 31
0.0
  0
LINE
  5
F3
330
A
100
AcDbEntity
  8
MODEL
  6
STYLE_12
390
1D
100
AcDbLine
 10
444.7789437448779
 20
-580.1992362037224
 30
0.0
 11
426.7355526334828
 21
-590.8448937469492
 31
0.0
  0
LINE
  5
F4
330
A
100
AcDbEntity
  8
MODEL
  6
STYLE_12
390
1D
100
AcDbLine
 10
425.8574884397011
 20
-592.9655984492288
 30
0.0
 11
425.8574884397011
 21
-624.9999999999987
 31
0.0
  0
ARC
  5
F5
330
A
100
AcDbEntity
  8
notes
  6
STYLE_12
 62
     7
370
     5
390
1D
100
AcDbCircle
 10
428.869647694786
 20
-592.9706329108835
 30
0.0
 40
3.01216346233028
100
AcDbArc
 50
135.1123886551312
 51
179.9042370897713
  0
LINE
  5
F6
330
A
100
AcDbEntity
  8
MODEL
  6
STYLE_12
390
1D
100
AcDbLine
 10
373.8574884397059
 20
-592.9655984492288
 30
0.0
 11
373.8574884397059
 21
-624.9999999999987
 31
0.0
  0
LINE
  5
F7
330
A
100
AcDbEntity
  8
MODEL
  6
STYLE_12
390
1D
100
AcDbLine
 10
373.8574884397059
 20
-592.9655984492288
 30
0.0
 11
425.857488439707
 21
-592.9655984492288
 31
0.0
  0
LINE
  5
F8
330
A
100
AcDbEntity
  8
MODEL
  6
STYLE_12
390
1D
100
AcDbLine
 10
-429.7697396833439
 20
-580.1992362037224
 30
0.0
 11
-447.813130794739
 21
-590.8448937469492
 31
0.0
  0
LINE
  5
F9
330
A
100
AcDbEntity
  8
MODEL
  6
STYLE_12
390
1D
100
AcDbLine
 10
-448.6911949885207
 20
-592.9655984492288
 30
0.0
 11
-448.6911949885207
 21
-624.9999999999987
 31
0.0
  0
ARC
  5
FA
330
A
100
AcDbEntity
  8
notes
  6
STYLE_12
 62
     7
370
     5
390
1D
100
AcDbCircle
 10
-445.6790357334359
 20
-592.9706329108835
 30
0.0
 40
3.01216346233028
100
AcDbArc
 50
135.1123886551312
 51
179.9042370897713
  0
LINE
  5
FB
330
A
100
AcDbEntity
  8
MODEL
  6
STYLE_12
390
1D
100
AcDbLine
 10
-500.691194988516
 20
-592.9655984492288
 30
0.0
 11
-500.691194988516
 21
-624.9999999999987
 31
0.0
  0
LINE
  5
FC
330
A
100
AcDbEntity
  8
MODEL
  6
STYLE_12
390
1D
100
AcDbLine
 10
-500.691194988516
 20
-592.9655984492288
 30
0.0
 11
-448.6911949885148
 21
-592.9655984492288
 31
0.0
  0
LINE
  5
FD
330
A
100
AcDbEntity
  8
MODEL
  6
STYLE_12
390
1D
100
AcDbLine
 10
-519.6126502936928
 20
-580.1992362037224
 30
0.0
 11
-501.5692591822977
 21
-590.8448937469492
 31
0.0
  0
ARC
  5
FE
330
A
100
AcDbEntity
  8
notes
  6
STYLE_12
 62
     7
370
     5
390
1D
100
AcDbCircle
 10
-503.7033542436009
 20
-592.9706329108835
 30
0.0
 40
3.012163462330315
100
AcDbArc
 50
0.0957629102287673
 51
44.88761134486807
  0
LINE
  5
FF
330
A
100
AcDbEntity
  8
MODEL
  6
STYLE_12
390
1D
100
AcDbLine
 10
-519.6449094448283
 20
-580.1857119862863
 30
0.0
 11
-429.7374805322115
 21
-580.1857119862863
 31
0.0
  0
LINE
  5
109
330
A
100
AcDbEntity
  8
MODEL
  6
Continuous
390
1D
100
AcDbLine
 10
-510.7865790374977
 20
-606.7188953074495
 30
0.0
 11
-438.5958109395331
 21
-606.7188953074495
 31
0.0
  0
LINE
  5
10B
330
A
100
AcDbEntity
  8
MODEL
  6
Continuous
390
1D
100
AcDbLine
 10
-629.7275309848959
 20
-475.1857119862863
 30
0.0
 11
-320.2534709106619
 21
-475.1857119862863
 31
0.0
  0
LINE
  5
10C
330
A
100
AcDbEntity
  8
MODEL
  6
Continuous
390
1D
100
AcDbLine
 10
-504.6911949885161
 20
-435.2069342947558
 30
0.0
 11
-504.6860690272318
 21
-620.2686268636593
 31
0.0
  0
ARC
  5
10D
330
A
100
AcDbEntity
  8
MODEL
  6
Continuous
390
1D
100
AcDbCircle
 10
-500.4809677995951
 20
-620.2513106292182
 30
0.0
 40
4.205136880845489
100
AcDbArc
 50
180.2359376121692
 51
264.6931170912552
  0
ARC
  5
10E
330
A
100
AcDbEntity
  8
MODEL
  6
Continuous
390
1D
100
AcDbCircle
 10
-474.6056121963706
 20
-176.0295264544912
 30
0.0
 40
449.1774159934065
100
AcDbArc
 50
266.6478907682832
 51
269.9890833050713
  0
LINE
  5
10F
330
A
100
AcDbEntity
  8
MODEL
  6
Continuous
390
1D
100
AcDbLine
 10
-444.6911949885146
 20
-435.2069342947558
 30
0.0
 11
-444.6963209497989
 21
-620.2686268636593
 31
0.0
  0
ARC
  5
110
330
A
100
AcDbEntity
  8
MODEL
  6
Continuous
390
1D
100
AcDbCircle
 10
-448.9014221774356
 20
-620.2513106292182
 30
0.0
 40
4.205136880845414
100
AcDbArc
 50
275.306882908744
 51
359.7640623878307
  0
ARC
  5
111
330
A
100
AcDbEntity
  8
MODEL
  6
STYLE_12
390
1D
100
AcDbCircle
 10
-459.6962270192317
 20
-437.4217991056951
 30
0.0
 40
155.0110969418903
100
AcDbArc
 50
179.1734609940418
 51
251.6496882377466
  0
ARC
  5
112
330
A
100
AcDbEntity
  8
MODEL
  6
Continuous
390
1D
100
AcDbCircle
 10
-474.7767777806602
 20
-176.0295264544912
 30
0.0
 40
449.1774159934065
100
AcDbArc
 50
270.0109166949285
 51
273.3521092317168
  0
ARC
  5
113
330
A
100
AcDbEntity
  8
MODEL
  6
STYLE_12
390
1D
100
AcDbCircle
 10
-459.6962270192317
 20
-437.4217991056951
 30
0.0
 40
155.0110969418903
100
AcDbArc
 50
179.1734609940418
 51
247.2217431517491
  0
ARC
  5
114
330
A
100
AcDbEntity
  8
MODEL
  6
STYLE_12
390
1D
100
AcDbCircle
 10
-489.6861629577748
 20
-437.4217991056951
 30
0.0
 40
155.0110969418898
100
AcDbArc
 50
292.7474195984071
 51
0.8265390059581819
  0
LINE
  5
115
330
A
100
AcDbEntity
  8
MODEL
  6
STYLE_12
390
1D
100
AcDbLine
 10
354.9360331345291
 20
-580.1992362037224
 30
0.0
 11
372.9794242459242
 21
-590.8448937469492
 31
0.0
  0
ARC
  5
116
330
A
100
AcDbEntity
  8
MODEL
  6
STYLE_12
390
1D
100
AcDbCircle
 10
370.845329184621
 20
-592.9706329108835
 30
0.0
 40
3.012163462330315
100
AcDbArc
 50
0.0957629102287673
 51
44.88761134486884
  0
ARC
  5
117
330
A
100
AcDbEntity
  8
MODEL
  6
STYLE_12
390
1D
100
AcDbCircle
 10
414.8524564089749
 20
-437.2360857168736
 30
0.0
 40
155.0110969418897
100
AcDbArc
 50
179.1734609940418
 51
247.2612489957956
  0
ARC
  5
118
330
A
100
AcDbEntity
  8
MODEL
  6
STYLE_12
390
1D
100
AcDbCircle
 10
384.8625204704319
 20
-437.2360857168736
 30
0.0
 40
155.0110969418903
100
AcDbArc
 50
292.7387510042033
 51
0.826539005958125
  0
LINE
  5
119
330
A
100
AcDbEntity
  8
MODEL
  6
Continuous
390
1D
100
AcDbLine
 10
229.8574884397009
 20
-475.1857119862386
 30
0.0
 11
229.8574884397107
 21
-435.1857119862386
 31
0.0
  0
ARC
  5
11A
330
A
100
AcDbEntity
  8
MODEL
  6
Continuous
390
1D
100
AcDbCircle
 10
380.9412936196616
 20
-475.150268985128
 30
0.0
 40
151.083809337277
100
AcDbArc
 50
180.0134411119527
 51
263.2463795412595
  0
ARC
  5
11B
330
A
100
AcDbEntity
  8
MODEL
  6
Continuous
390
1D
100
AcDbCircle
 10
413.6260397988203
 20
-444.607142428552
 30
0.0
 40
165.6685288059794
100
AcDbArc
 50
191.4831785646658
 51
252.8816621007912
  0
LINE
  5
11C
330
A
100
AcDbEntity
  8
MODEL
  6
Continuous
390
1D
100
AcDbLine
 10
364.8621348794114
 20
-602.936365927401
 30
0.0
 11
367.8969379922593
 21
-603.8086085928486
 31
0.0
  0
ARC
  5
11D
330
A
100
AcDbEntity
  8
MODEL
  6
Continuous
390
1D
100
AcDbCircle
 10
365.6767104986674
 20
-616.0212978840606
 30
0.0
 40
12.41286388578301
100
AcDbArc
 50
15.73181154986171
 51
79.69634096011326
  0
LINE
  5
11E
330
A
100
AcDbEntity
  8
MODEL
  6
Continuous
390
1D
100
AcDbLine
 10
377.6246053385789
 20
-612.6557371965388
 30
0.0
 11
378.2923711047374
 21
-620.2474045551422
 31
0.0
  0
LINE
  5
11F
330
A
100
AcDbEntity
  8
MODEL
  6
Continuous
390
1D
100
AcDbLine
 10
363.173815258259
 20
-625.1857119862431
 30
0.0
 11
373.6837013103049
 21
-624.4515024544486
 31
0.0
  0
ARC
  5
120
330
A
100
AcDbEntity
  8
MODEL
  6
Continuous
390
1D
100
AcDbCircle
 10
373.9159223718404
 20
-620.0939890338337
 30
0.0
 40
4.363696808012586
100
AcDbArc
 50
266.9494730156793
 51
0.9886067058085929
  0
LINE
  5
121
330
A
100
AcDbEntity
  8
MODEL
  6
Continuous
390
1D
100
AcDbLine
 10
229.8574884397107
 20
-435.1857119862386
 30
0.0
 11
554.8574884397034
 21
-435.1857119863181
 31
0.0
  0
LINE
  5
122
330
A
100
AcDbEntity
  8
MODEL
  6
Continuous
390
1D
100
AcDbLine
 10
373.8952563645512
 20
-606.7188953074495
 30
0.0
 11
435.9165364923058
 21
-606.7188953074495
 31
0.0
  0
ARC
  5
123
330
A
100
AcDbEntity
  8
MODEL
  6
Continuous
390
1D
100
AcDbCircle
 10
384.0300519997971
 20
-443.9046841548994
 30
0.0
 40
170.6463117002691
100
AcDbArc
 50
290.4382928845706
 51
348.6139483595983
  0
ARC
  5
124
330
A
100
AcDbEntity
  8
MODEL
  6
Continuous
390
1D
100
AcDbCircle
 10
447.1114531291412
 20
-613.1790967590185
 30
0.0
 40
10.00000000000004
100
AcDbArc
 50
110.4382928845707
 51
176.9999999999997
  0
LINE
  5
125
330
A
100
AcDbEntity
  8
MODEL
  6
Continuous
390
1D
100
AcDbLine
 10
436.4684896283948
 20
-625.1857119862863
 30
0.0
 11
437.1251577815954
 21
-612.655737196589
 31
0.0
  0
LINE
  5
126
330
A
100
AcDbEntity
  8
MODEL
  6
Continuous
390
1D
100
AcDbLine
 10
363.1011432654914
 20
-625.1857119862863
 30
0.0
 11
436.4684896283948
 21
-625.1857119862863
 31
0.0
  0
LINE
  5
127
330
A
100
AcDbEntity
  8
MODEL
  6
Continuous
390
1D
100
AcDbLine
 10
244.7848164469433
 20
-475.1857119862863
 30
0.0
 11
245.3107563727094
 21
-475.1857119862863
 31
0.0
  0
ARC
  5
128
330
A
100
AcDbEntity
  8
MODEL
  6
Continuous
390
1D
100
AcDbCircle
 10
244.7848164469433
 20
-470.1857119862863
 30
0.0
 40
5.000000000000028
100
AcDbArc
 50
180.0
 51
270.0
  0
LINE
  5
129
330
A
100
AcDbEntity
  8
MODEL
  6
Continuous
390
1D
100
AcDbLine
 10
239.7848164469432
 20
-440.1857119862863
 30
0.0
 11
239.7848164469432
 21
-470.1857119862863
 31
0.0
  0
ARC
  5
12A
330
A
100
AcDbEntity
  8
MODEL
  6
Continuous
390
1D
100
AcDbCircle
 10
244.7848164469433
 20
-440.1857119862864
 30
0.0
 40
5.0
100
AcDbArc
 50
90.0
 51
179.9999999999987
  0
LINE
  5
12B
330
A
100
AcDbEntity
  8
MODEL
  6
Continuous
390
1D
100
AcDbLine
 10
554.7848164469428
 20
-435.1857119862863
 30
0.0
 11
244.7848164469433
 21
-435.1857119862864
 31
0.0
  0
ARC
  5
12C
330
A
100
AcDbEntity
  8
MODEL
  6
Continuous
390
1D
100
AcDbCircle
 10
554.7848164469428
 20
-440.1857119862863
 30
0.0
 40
5.0
100
AcDbArc
 50
0.0
 51
90.0
  0
LINE
  5
12D
330
A
100
AcDbEntity
  8
MODEL
  6
Continuous
390
1D
100
AcDbLine
 10
559.7848164469428
 20
-470.1857119862864
 30
0.0
 11
559.7848164469428
 21
-440.1857119862863
 31
0.0
  0
ARC
  5
12E
330
A
100
AcDbEntity
  8
MODEL
  6
Continuous
390
1D
100
AcDbCircle
 10
554.7848164469428
 20
-470.1857119862864
 30
0.0
 40
5.0
100
AcDbArc
 50
270.0
 51
0.0
  0
LINE
  5
12F
330
A
100
AcDbEntity
  8
MODEL
  6
Continuous
390
1D
100
AcDbLine
 10
554.2588765211766
 20
-475.1857119862864
 30
0.0
 11
554.7848164469428
 21
-475.1857119862864
 31
0.0
  0
ARC
  5
130
330
A
100
AcDbEntity
  8
MODEL
  6
Continuous
390
1D
100
AcDbCircle
 10
554.2588765211766
 20
-478.1857119862865
 30
0.0
 40
3.000000000000057
100
AcDbArc
 50
90.0
 51
168.6139483595961
  0
LINE
  5
131
330
A
100
AcDbEntity
  8
MODEL
  6
Continuous
390
1D
100
AcDbLine
 10
244.7848164469433
 20
-475.1857119862863
 30
0.0
 11
554.2588765211766
 21
-475.1857119862863
 31
0.0
  0
LINE
  5
132
330
A
100
AcDbEntity
  8
MODEL
  6
STYLE_12
390
1D
100
AcDbLine
 10
246.7848164469433
 20
-475.1857119862863
 30
0.0
 11
248.3337160931203
 21
-475.1857119862863
 31
0.0
  0
ARC
  5
133
330
A
100
AcDbEntity
  8
MODEL
  6
STYLE_12
390
1D
100
AcDbCircle
 10
248.3337160931203
 20
-478.1857119862863
 30
0.0
 40
2.999999999999948
100
AcDbArc
 50
11.48317856466428
 51
90.0
  0
LINE
  5
134
330
A
100
AcDbEntity
  8
MODEL
  6
STYLE_12
390
1D
100
AcDbLine
 10
354.9037739833936
 20
-580.1857119862863
 30
0.0
 11
444.8112028960103
 21
-580.1857119862863
 31
0.0
  0
CIRCLE
  5
135
330
A
100
AcDbEntity
  8
MODEL
  6
STYLE_12
390
1D
100
AcDbCircle
 10
384.854480682527
 20
610.736485897266
 30
0.0
 40
26.0
  0
CIRCLE
  5
137
330
A
100
AcDbEntity
  8
MODEL
  6
Continuous
390
1D
100
AcDbCircle
 10
384.8544806825266
 20
610.7364858972647
 30
0.0
 40
132.4999999999999
  0
CIRCLE
  5
138
330
A
100
AcDbEntity
  8
MODEL
  6
Continuous
390
1D
100
AcDbCircle
 10
-474.6548589921352
 20
610.736485897266
 30
0.0
 40
26.0
  0
CIRCLE
  5
139
330
A
100
AcDbEntity
  8
MODEL
  6
Continuous
390
1D
100
AcDbCircle
 10
-474.6548589921352
 20
610.736485897266
 30
0.0
 40
137.5000000000001
  0
CIRCLE
  5
13B
330
A
100
AcDbEntity
  8
MODEL
  6
Continuous
390
1D
100
AcDbCircle
 10
-474.6548589921352
 20
610.736485897266
 30
0.0
 40
37.5
  0
MTEXT
  5
374
102
{ACAD_XDICTIONARY
360
375
102
}
330
A
100
AcDbEntity
  8
template
  6
Continuous
100
AcDbMText
 10
-971.0433612707466
 20
-1409.334279565497
 30
0.0
 40
23.0
 41
0.0
 46
23.0
 71
     1
 72
     1
  1
{20180312N}
  7
ＭＳ ゴシック
 73
     1
 44
1.0
1001
ACAD
1000
ACAD_MTEXT_DEFINED_HEIGHT_BEGIN
1070
    46
1040
23.0
1000
ACAD_MTEXT_DEFINED_HEIGHT_END
  0
MTEXT
  5
379
330
A
100
AcDbEntity
  8
template
390
1D
100
AcDbMText
 10
-914.999999999277
 20
-1261.000090171201
 30
0.0
 40
24.4326
 41
0.0
 46
69.19646890077142
 71
     1
 72
     1
  1
{\fＭＳ ゴシック|b0|i0|c1|p0;アンダーカウンター/オーバーフロー付き/カウンター固定金具,型紙付属/\P陶器/ホワイト}
  7
ＭＳ ゴシック
 73
     1
 44
0.9822934569727008
1001
ACAD
1000
ACAD_MTEXT_DEFINED_HEIGHT_BEGIN
1070
    46
1040
69.19646890077142
1000
ACAD_MTEXT_DEFINED_HEIGHT_END
  0
MTEXT
  5
37A
330
A
100
AcDbEntity
  8
template
390
1D
100
AcDbMText
 10
-914.999999999277
 20
-1176.000090171201
 30
0.0
 40
24.4326
 41
0.0
 46
27.5355402
 71
     1
 72
     1
  1
{\fＭＳ ゴシック|b0|i0|c1|p0;手洗器 -DURAVIT,Architec-　}
  7
ＭＳ ゴシック
 73
     1
 44
0.7828267384257843
1001
ACAD
1000
ACAD_MTEXT_DEFINED_HEIGHT_BEGIN
1070
    46
1040
27.5355402
1000
ACAD_MTEXT_DEFINED_HEIGHT_END
  0
MTEXT
  5
37B
330
A
100
AcDbEntity
  8
template
390
1D
100
AcDbMText
 10
282.0000000009827
 20
-1176.000090171201
 30
0.0
 40
24.4326171875
 41
0.0
 46
24.4326171875
 71
     1
 72
     1
  1
{FAA70-0113}
  7
ＭＳ ゴシック
 73
     1
 44
0.7828267384257843
1001
ACAD
1000
ACAD_MTEXT_DEFINED_HEIGHT_BEGIN
1070
    46
1040
24.4326171875
1000
ACAD_MTEXT_DEFINED_HEIGHT_END
  0
MTEXT
  5
37C
330
A
100
AcDbEntity
  8
template
390
1D
100
AcDbMText
 10
282.0000000009827
 20
-1261.000090171201
 30
0.0
 40
24.4326171875
 41
0.0
 46
28.390701171875
 71
     1
 72
     1
  1
{\fＭＳ ゴシック|b0|i0|c1|p0;4.3kg}
  7
ＭＳ ゴシック
 73
     1
 44
0.7828267384257843
1001
ACAD
1000
ACAD_MTEXT_DEFINED_HEIGHT_BEGIN
1070
    46
1040
28.390701171875
1000
ACAD_MTEXT_DEFINED_HEIGHT_END
  0
MTEXT
  5
37D
330
A
100
AcDbEntity
  8
template
390
1D
100
AcDbMText
 10
-967.999999999277
 20
-1147.4176292337
 30
0.0
 40
16.28841145833333
 41
0.0
 46
0.0
 71
     1
 72
     1
  1
品名
  7
ＭＳ ゴシック
 73
     1
 44
0.7828267384257843
  0
MTEXT
  5
37E
330
A
100
AcDbEntity
  8
template
390
1D
100
AcDbMText
 10
-967.999999999277
 20
-1232.4176292337
 30
0.0
 40
16.28841145833333
 41
0.0
 46
0.0
 71
     1
 72
     1
  1
仕様
  7
ＭＳ ゴシック
 73
     1
 44
0.7828267384257843
  0
MTEXT
  5
37F
330
A
100
AcDbEntity
  8
template
390
1D
100
AcDbMText
 10
251.8714062529839
 20
-1338.913101832009
 30
0.0
 40
24.4326171875
 41
0.0
 46
0.0
 71
     1
 72
     1
  1
大洋金物株式会社 ティーフォルム事業部
  7
ＭＳ ゴシック
 73
     1
 44
0.7828267384257843
  0
MTEXT
  5
380
330
A
100
AcDbEntity
  8
template
390
1D
100
AcDbMText
 10
784.0000000009827
 20
-1261.000090171201
 30
0.0
 40
24.4326171875
 41
0.0
 46
0.0
 71
     1
 72
     1
  1
1:10
  7
ＭＳ ゴシック
 73
     1
 44
0.7828267384257843
  0
MTEXT
  5
381
330
A
100
AcDbEntity
  8
template
390
1D
100
AcDbMText
 10
731.0000000009827
 20
-1232.4176292337
 30
0.0
 40
16.28841145833333
 41
0.0
 46
0.0
 71
     1
 72
     1
  1
縮尺
  7
ＭＳ ゴシック
 73
     1
 44
0.7828267384257843
  0
MTEXT
  5
382
330
A
100
AcDbEntity
  8
template
390
1D
100
AcDbMText
 10
480.0000000009827
 20
-1232.4176292337
 30
0.0
 40
16.28841145833333
 41
0.0
 46
0.0
 71
     1
 72
     1
  1
容量
  7
ＭＳ ゴシック
 73
     1
 44
0.7828267384257843
  0
MTEXT
  5
383
330
A
100
AcDbEntity
  8
template
390
1D
100
AcDbMText
 10
229.0000000009827
 20
-1147.4176292337
 30
0.0
 40
16.28841145833333
 41
0.0
 46
0.0
 71
     1
 72
     1
  1
品番
  7
ＭＳ ゴシック
 73
     1
 44
0.7828267384257843
  0
MTEXT
  5
384
330
A
100
AcDbEntity
  8
template
390
1D
100
AcDbMText
 10
229.0000000009827
 20
-1232.4176292337
 30
0.0
 40
16.28841145833333
 41
0.0
 46
0.0
 71
     1
 72
     1
  1
重量
  7
ＭＳ ゴシック
 73
     1
 44
0.7828267384257843
  0
MTEXT
  5
385
330
A
100
AcDbEntity
  8
template
390
1D
100
AcDbMText
 10
531.9921226692647
 20
-1261.000090171201
 30
0.0
 40
24.4326171875
 41
0.0
 46
24.4326171875
 71
     1
 72
     1
  1
{3.9L}
  7
ＭＳ ゴシック
 73
     1
 44
0.7828267384257843
1001
ACAD
1000
ACAD_MTEXT_DEFINED_HEIGHT_BEGIN
1070
    46
1040
24.4326171875
1000
ACAD_MTEXT_DEFINED_HEIGHT_END
  0
INSERT
  5
386
330
A
100
AcDbEntity
  8
template
100
AcDbBlockReference
  2
名称未設定-1
 10
823.5592505551458
 20
-1465.202615108475
 30
0.0
 41
0.7619999999999999
 42
0.7619999999999999
 43
0.7619999999999999
  0
ARC
  5
3AF
330
A
100
AcDbEntity
  8
MODEL
  6
Continuous
390
1D
100
AcDbCircle
 10
-320.2534709106619
 20
-478.1857119862864
 30
0.0
 40
3.000000000000051
100
AcDbArc
 50
90.00000000000016
 51
168.6139483595962
  0
LINE
  5
3B0
330
A
100
AcDbEntity
  8
MODEL
  6
Continuous
390
1D
100
AcDbLine
 10
-320.2534709106619
 20
-475.1857119862864
 30
0.0
 11
-319.7275309848957
 21
-475.1857119862864
 31
0.0
  0
ARC
  5
3B1
330
A
100
AcDbEntity
  8
MODEL
  6
Continuous
390
1D
100
AcDbCircle
 10
-319.7275309848957
 20
-470.1857119862864
 30
0.0
 40
5.000000000000028
100
AcDbArc
 50
270.0000000000002
 51
359.9999999999997
  0
LINE
  5
3B2
330
A
100
AcDbEntity
  8
MODEL
  6
Continuous
390
1D
100
AcDbLine
 10
-314.7275309848957
 20
-470.1857119862864
 30
0.0
 11
-314.7275309848957
 21
-440.1857119862863
 31
0.0
  0
ARC
  5
3B3
330
A
100
AcDbEntity
  8
MODEL
  6
Continuous
390
1D
100
AcDbCircle
 10
-319.7275309848957
 20
-440.1857119862863
 30
0.0
 40
5.0
100
AcDbArc
 50
0.0000000000000051
 51
89.99999999999999
  0
LINE
  5
3B4
330
A
100
AcDbEntity
  8
MODEL
  6
Continuous
390
1D
100
AcDbLine
 10
-319.7275309848957
 20
-435.1857119862863
 30
0.0
 11
-629.7275309848959
 21
-435.1857119862864
 31
0.0
  0
ARC
  5
3B5
330
A
100
AcDbEntity
  8
MODEL
  6
Continuous
390
1D
100
AcDbCircle
 10
-629.7275309848959
 20
-440.1857119862864
 30
0.0
 40
5.000000000000057
100
AcDbArc
 50
90.00000000000064
 51
179.9999999999987
  0
LINE
  5
3B6
330
A
100
AcDbEntity
  8
MODEL
  6
Continuous
390
1D
100
AcDbLine
 10
-634.7275309848959
 20
-440.1857119862863
 30
0.0
 11
-634.7275309848959
 21
-470.1857119862863
 31
0.0
  0
ARC
  5
3B7
330
A
100
AcDbEntity
  8
MODEL
  6
Continuous
390
1D
100
AcDbCircle
 10
-629.7275309848959
 20
-470.1857119862863
 30
0.0
 40
5.0
100
AcDbArc
 50
180.0
 51
270.0
  0
LINE
  5
3B8
330
A
100
AcDbEntity
  8
MODEL
  6
Continuous
390
1D
100
AcDbLine
 10
-629.7275309848959
 20
-475.1857119862863
 30
0.0
 11
-629.2015910591298
 21
-475.1857119862863
 31
0.0
  0
ARC
  5
3B9
330
A
100
AcDbEntity
  8
MODEL
  6
Continuous
390
1D
100
AcDbCircle
 10
-629.2015910591298
 20
-478.1857119862864
 30
0.0
 40
3.000000000000068
100
AcDbArc
 50
11.38605164040291
 51
89.99999999999939
  0
ARC
  5
3BA
330
A
100
AcDbEntity
  8
MODEL
  6
Continuous
390
1D
100
AcDbCircle
 10
-458.9727665377507
 20
-443.9046841548997
 30
0.0
 40
170.6463117002684
100
AcDbArc
 50
191.3860516404016
 51
249.5617071154298
  0
ARC
  5
3BB
330
A
100
AcDbEntity
  8
MODEL
  6
Continuous
390
1D
100
AcDbCircle
 10
-522.054167667093
 20
-613.1790967590183
 30
0.0
 40
9.999999999999632
100
AcDbArc
 50
2.999999999999063
 51
69.56170711543146
  0
LINE
  5
3BC
330
A
100
AcDbEntity
  8
MODEL
  6
Continuous
390
1D
100
AcDbLine
 10
-512.0678723195476
 20
-612.655737196589
 30
0.0
 11
-511.4112041663472
 21
-625.1857119862863
 31
0.0
  0
LINE
  5
3BD
330
A
100
AcDbEntity
  8
MODEL
  6
Continuous
390
1D
100
AcDbLine
 10
-511.4112041663472
 20
-625.1857119862863
 30
0.0
 11
-438.043857803444
 21
-625.1857119862863
 31
0.0
  0
LINE
  5
3BE
330
A
100
AcDbEntity
  8
MODEL
  6
Continuous
390
1D
100
AcDbLine
 10
-438.043857803444
 20
-625.1857119862863
 30
0.0
 11
-437.3871896502436
 21
-612.655737196589
 31
0.0
  0
ARC
  5
3BF
330
A
100
AcDbEntity
  8
MODEL
  6
Continuous
390
1D
100
AcDbCircle
 10
-427.4008943026976
 20
-613.1790967590186
 30
0.0
 40
10.00000000000025
100
AcDbArc
 50
110.4382928845712
 51
176.9999999999987
  0
ARC
  5
3C0
330
A
100
AcDbEntity
  8
MODEL
  6
Continuous
390
1D
100
AcDbCircle
 10
-490.4822954320416
 20
-443.9046841548993
 30
0.0
 40
170.6463117002691
100
AcDbArc
 50
290.4382928845706
 51
348.6139483595983
  0
ARC
  5
3C1
330
A
100
AcDbEntity
  8
MODEL
  6
STYLE_12
390
1D
100
AcDbCircle
 10
443.5273936380798
 20
786.6997989846737
 30
0.0
 40
25.547366458383
100
AcDbArc
 50
207.2834603506374
 51
247.9151849430636
  0
ARC
  5
3C2
330
A
100
AcDbEntity
  8
MODEL
  6
STYLE_12
390
1D
100
AcDbCircle
 10
416.3784340818146
 20
772.6970995108217
 30
0.0
 40
4.99999999999998
100
AcDbArc
 50
27.28346035064319
 51
78.9856838290384
  0
ARC
  5
3C3
330
A
100
AcDbEntity
  8
MODEL
  6
STYLE_12
390
1D
100
AcDbCircle
 10
384.8544806825275
 20
610.7364858972608
 30
0.0
 40
170.0000000000048
100
AcDbArc
 50
78.98568382903596
 51
101.0143161709646
  0
ARC
  5
3C4
330
A
100
AcDbEntity
  8
MODEL
  6
STYLE_12
390
1D
100
AcDbCircle
 10
353.3305272832386
 20
772.697099510822
 30
0.0
 40
4.999999999999317
100
AcDbArc
 50
101.0143161709631
 51
152.7165396493645
  0
ARC
  5
3C5
330
A
100
AcDbEntity
  8
MODEL
  6
STYLE_12
390
1D
100
AcDbCircle
 10
326.1815677269752
 20
786.6997989846728
 30
0.0
 40
25.54736645838147
100
AcDbArc
 50
292.0848150569296
 51
332.7165396493618
  0
ARC
  5
3C6
330
A
100
AcDbEntity
  8
MODEL
  6
STYLE_12
390
1D
100
AcDbCircle
 10
384.8544806825271
 20
610.736485897266
 30
0.0
 40
159.9999999999999
100
AcDbArc
 50
107.8588317006939
 51
215.9529439002316
  0
ARC
  5
3C7
330
A
100
AcDbEntity
  8
MODEL
  6
STYLE_12
390
1D
100
AcDbCircle
 10
384.8544806825269
 20
610.7364858972667
 30
0.0
 40
160.0000000000002
100
AcDbArc
 50
215.9529439002318
 51
324.0470560997692
  0
ARC
  5
3C8
330
A
100
AcDbEntity
  8
MODEL
  6
STYLE_12
390
1D
100
AcDbCircle
 10
384.854480682527
 20
610.736485897266
 30
0.0
 40
159.9999999999997
100
AcDbArc
 50
324.0470560997694
 51
72.14116829930703
  0
ARC
  5
3C9
330
A
100
AcDbEntity
  8
MODEL
  6
Continuous
390
1D
100
AcDbCircle
 10
-415.9819460365824
 20
786.699798984674
 30
0.0
 40
25.5473664583832
100
AcDbArc
 50
207.2834603506382
 51
247.9151849430636
  0
ARC
  5
3CA
330
A
100
AcDbEntity
  8
MODEL
  6
Continuous
390
1D
100
AcDbCircle
 10
-443.1309055928477
 20
772.6970995108215
 30
0.0
 40
5.000000000000065
100
AcDbArc
 50
27.28346035064041
 51
78.98568382903642
  0
ARC
  5
3CB
330
A
100
AcDbEntity
  8
MODEL
  6
Continuous
390
1D
100
AcDbCircle
 10
-474.6548589921348
 20
610.7364858972624
 30
0.0
 40
170.0000000000032
100
AcDbArc
 50
78.98568382903582
 51
101.0143161709646
  0
ARC
  5
3CC
330
A
100
AcDbEntity
  8
MODEL
  6
Continuous
390
1D
100
AcDbCircle
 10
-506.178812391423
 20
772.6970995108213
 30
0.0
 40
5.000000000000056
100
AcDbArc
 50
101.014316170965
 51
152.7165396493615
  0
ARC
  5
3CD
330
A
100
AcDbEntity
  8
MODEL
  6
Continuous
390
1D
100
AcDbCircle
 10
-533.3277719476873
 20
786.6997989846735
 30
0.0
 40
25.54736645838218
100
AcDbArc
 50
292.0848150569294
 51
332.7165396493609
  0
ARC
  5
3CE
330
A
100
AcDbEntity
  8
MODEL
  6
Continuous
390
1D
100
AcDbCircle
 10
-474.654858992135
 20
610.7364858972658
 30
0.0
 40
160.0000000000001
100
AcDbArc
 50
107.858831700694
 51
215.9529439002316
  0
ARC
  5
3CF
330
A
100
AcDbEntity
  8
MODEL
  6
Continuous
390
1D
100
AcDbCircle
 10
-474.6548589921355
 20
610.7364858972667
 30
0.0
 40
160.0000000000003
100
AcDbArc
 50
215.952943900232
 51
324.0470560997692
  0
ARC
  5
3D0
330
A
100
AcDbEntity
  8
MODEL
  6
Continuous
390
1D
100
AcDbCircle
 10
-474.6548589921353
 20
610.736485897266
 30
0.0
 40
159.9999999999997
100
AcDbArc
 50
324.0470560997694
 51
72.14116829930697
  0
TEXT
  5
3D5
330
A
100
AcDbEntity
  8
Dim
  6
Continuous
100
AcDbText
 10
44.36408640788577
 20
130.9631471493268
 30
0.0
 40
24.4326
  1
※ 陶器製品には寸法公差があります。
  7
ＭＳ ゴシック
100
AcDbText
  0
TEXT
  5
3D6
330
A
100
AcDbEntity
  8
Dim
  6
Continuous
100
AcDbText
 10
47.34486360788577
 20
86.15519008172646
 30
0.0
 40
24.4326
  1
   洗面器の収め方をご確認の上、必ず現物を合わせて
  7
ＭＳ ゴシック
100
AcDbText
  0
TEXT
  5
3D7
330
A
100
AcDbEntity
  8
Dim
  6
Continuous
100
AcDbText
 10
47.34486360788577
 20
42.45509176274089
 30
0.0
 40
24.4326
  1
   カウンターの切込を行ってください。
  7
ＭＳ ゴシック
100
AcDbText
  0
TEXT
  5
3DC
330
A
100
AcDbEntity
  8
Dim
  6
Continuous
100
AcDbText
 10
233.5754461880856
 20
978.2181367102185
 30
0.0
 40
24.4326171875
  1
カウンター切込寸法
  7
ＭＳ ゴシック
100
AcDbText
  0
LINE
  5
3DD
330
A
100
AcDbEntity
  8
Dim
100
AcDbLine
 10
-314.6548589921354
 20
635.736485897266
 30
0.0
 11
-314.6548589921354
 21
880.7364858972659
 31
0.0
1001
ACAD
1000
DSTYLE
1002
{
1070
   147
1040
10.0
1070
   144
1040
1.0
1002
}
  0
LINE
  5
3DE
330
A
100
AcDbEntity
  8
Dim
100
AcDbLine
 10
-634.6548589921354
 20
635.736485897266
 30
0.0
 11
-634.6548589921354
 21
880.7364858972659
 31
0.0
1001
ACAD
1000
DSTYLE
1002
{
1070
   147
1040
10.0
1070
   144
1040
1.0
1002
}
  0
LINE
  5
3DF
330
A
100
AcDbEntity
  8
Dim
100
AcDbLine
 10
-324.6542486405729
 20
880.7364858972659
 30
0.0
 11
-624.6554693436979
 21
880.7364858972659
 31
0.0
1001
ACAD
1000
DSTYLE
1002
{
1070
   147
1040
10.0
1070
   144
1040
1.0
1002
}
  0
INSERT
  5
3E0
330
A
100
AcDbEntity
  8
Dim
100
AcDbBlockReference
  2
_DOT
 10
-314.6548589921354
 20
880.7364858972659
 30
0.0
 41
9.999389648437498
 42
9.999389648437498
 43
9.999389648437498
1001
ACAD
1000
DSTYLE
1002
{
1070
   147
1040
10.0
1070
   144
1040
1.0
1002
}
  0
INSERT
  5
3E1
330
A
100
AcDbEntity
  8
Dim
100
AcDbBlockReference
  2
_DOT
 10
-634.6548589921354
 20
880.7364858972659
 30
0.0
 41
9.999389648437498
 42
9.999389648437498
 43
9.999389648437498
 50
180.0
1001
ACAD
1000
DSTYLE
1002
{
1070
   147
1040
10.0
1070
   144
1040
1.0
1002
}
  0
MTEXT
  5
3E2
330
A
100
AcDbEntity
  8
Dim
  6
Continuous
100
AcDbMText
 10
-474.6548589921354
 20
902.9527944910159
 30
0.0
 40
24.4326171875
 41
0.0
 46
0.0
 71
     5
 72
     1
  1
\A1;320
  7
ＭＳ ゴシック
 73
     1
 44
1.0
1001
ACAD
1000
DSTYLE
1002
{
1070
   147
1040
10.0
1070
   144
1040
1.0
1002
}
  0
LINE
  5
3E3
330
A
100
AcDbEntity
  8
Dim
100
AcDbLine
 10
-337.1548589921351
 20
503.9211450374986
 30
0.0
 11
-337.1548589921351
 21
350.7364858972659
 31
0.0
1001
ACAD
1000
DSTYLE
1002
{
1070
   147
1040
10.0
1070
   144
1040
1.0
1002
}
  0
LINE
  5
3E4
330
A
100
AcDbEntity
  8
Dim
100
AcDbLine
 10
-612.1548589921358
 20
503.9211450374984
 30
0.0
 11
-612.1548589921358
 21
350.7364858972659
 31
0.0
1001
ACAD
1000
DSTYLE
1002
{
1070
   147
1040
10.0
1070
   144
1040
1.0
1002
}
  0
LINE
  5
3E5
330
A
100
AcDbEntity
  8
Dim
100
AcDbLine
 10
-347.1542486405726
 20
350.7364858972659
 30
0.0
 11
-602.1554693436983
 21
350.7364858972659
 31
0.0
1001
ACAD
1000
DSTYLE
1002
{
1070
   147
1040
10.0
1070
   144
1040
1.0
1002
}
  0
INSERT
  5
3E6
330
A
100
AcDbEntity
  8
Dim
100
AcDbBlockReference
  2
_DOT
 10
-337.1548589921351
 20
350.7364858972659
 30
0.0
 41
9.999389648437498
 42
9.999389648437498
 43
9.999389648437498
1001
ACAD
1000
DSTYLE
1002
{
1070
   147
1040
10.0
1070
   144
1040
1.0
1002
}
  0
INSERT
  5
3E7
330
A
100
AcDbEntity
  8
Dim
100
AcDbBlockReference
  2
_DOT
 10
-612.1548589921358
 20
350.7364858972659
 30
0.0
 41
9.999389648437498
 42
9.999389648437498
 43
9.999389648437498
 50
180.0
1001
ACAD
1000
DSTYLE
1002
{
1070
   147
1040
10.0
1070
   144
1040
1.0
1002
}
  0
MTEXT
  5
3E8
330
A
100
AcDbEntity
  8
Dim
  6
Continuous
100
AcDbMText
 10
-474.6548589921355
 20
372.9527944910159
 30
0.0
 40
24.4326171875
 41
0.0
 46
0.0
 71
     5
 72
     1
  1
\A1;275
  7
ＭＳ ゴシック
 73
     1
 44
1.0
1001
ACAD
1000
DSTYLE
1002
{
1070
   147
1040
10.0
1070
   144
1040
1.0
1002
}
  0
LINE
  5
3E9
330
A
100
AcDbEntity
  8
Dim
100
AcDbLine
 10
-424.6548589921351
 20
450.736485897266
 30
0.0
 11
-214.6548589921354
 21
450.736485897266
 31
0.0
1001
ACAD
1000
DSTYLE
1002
{
1070
   147
1040
10.0
1070
   144
1040
1.0
1002
}
  0
LINE
  5
3EA
330
A
100
AcDbEntity
  8
Dim
100
AcDbLine
 10
-424.6548589921351
 20
780.7364858972658
 30
0.0
 11
-214.6548589921354
 21
780.7364858972658
 31
0.0
1001
ACAD
1000
DSTYLE
1002
{
1070
   147
1040
10.0
1070
   144
1040
1.0
1002
}
  0
LINE
  5
3EB
330
A
100
AcDbEntity
  8
Dim
100
AcDbLine
 10
-214.6548589921354
 20
460.7358755457035
 30
0.0
 11
-214.6548589921354
 21
770.7370962488283
 31
0.0
1001
ACAD
1000
DSTYLE
1002
{
1070
   147
1040
10.0
1070
   144
1040
1.0
1002
}
  0
INSERT
  5
3EC
330
A
100
AcDbEntity
  8
Dim
100
AcDbBlockReference
  2
_DOT
 10
-214.6548589921354
 20
450.736485897266
 30
0.0
 41
9.999389648437498
 42
9.999389648437498
 43
9.999389648437498
 50
270.0
1001
ACAD
1000
DSTYLE
1002
{
1070
   147
1040
10.0
1070
   144
1040
1.0
1002
}
  0
INSERT
  5
3ED
330
A
100
AcDbEntity
  8
Dim
100
AcDbBlockReference
  2
_DOT
 10
-214.6548589921354
 20
780.7364858972658
 30
0.0
 41
9.999389648437498
 42
9.999389648437498
 43
9.999389648437498
 50
90.0
1001
ACAD
1000
DSTYLE
1002
{
1070
   147
1040
10.0
1070
   144
1040
1.0
1002
}
  0
MTEXT
  5
3EE
330
A
100
AcDbEntity
  8
Dim
  6
Continuous
100
AcDbMText
 10
-236.8711675858854
 20
615.7364858972659
 30
0.0
 40
24.4326171875
 41
0.0
 46
0.0
 71
     5
 72
     1
  1
\A1;330
  7
ＭＳ ゴシック
 11
8.612639221334554E-17
 21
1.0
 31
0.0
 73
     1
 44
1.0
1001
ACAD
1000
DSTYLE
1002
{
1070
   147
1040
10.0
1070
   144
1040
1.0
1002
}
  0
LINE
  5
3EF
330
A
100
AcDbEntity
  8
Dim
100
AcDbLine
 10
-413.043857803444
 20
-625.1857119862863
 30
0.0
 11
-214.6548589921353
 21
-625.1857119862863
 31
0.0
1001
ACAD
1000
DSTYLE
1002
{
1070
   147
1040
10.0
1070
   144
1040
1.0
1002
}
  0
LINE
  5
3F0
330
A
100
AcDbEntity
  8
Dim
100
AcDbLine
 10
-294.7275309848957
 20
-435.1857119862863
 30
0.0
 11
-214.6548589921353
 21
-435.1857119862863
 31
0.0
1001
ACAD
1000
DSTYLE
1002
{
1070
   147
1040
10.0
1070
   144
1040
1.0
1002
}
  0
LINE
  5
3F1
330
A
100
AcDbEntity
  8
Dim
100
AcDbLine
 10
-214.6548589921353
 20
-615.1863223378488
 30
0.0
 11
-214.6548589921353
 21
-445.1851016347238
 31
0.0
1001
ACAD
1000
DSTYLE
1002
{
1070
   147
1040
10.0
1070
   144
1040
1.0
1002
}
  0
INSERT
  5
3F2
330
A
100
AcDbEntity
  8
Dim
100
AcDbBlockReference
  2
_DOT
 10
-214.6548589921353
 20
-625.1857119862863
 30
0.0
 41
9.999389648437498
 42
9.999389648437498
 43
9.999389648437498
 50
270.0
1001
ACAD
1000
DSTYLE
1002
{
1070
   147
1040
10.0
1070
   144
1040
1.0
1002
}
  0
INSERT
  5
3F3
330
A
100
AcDbEntity
  8
Dim
100
AcDbBlockReference
  2
_DOT
 10
-214.6548589921353
 20
-435.1857119862863
 30
0.0
 41
9.999389648437498
 42
9.999389648437498
 43
9.999389648437498
 50
90.0
1001
ACAD
1000
DSTYLE
1002
{
1070
   147
1040
10.0
1070
   144
1040
1.0
1002
}
  0
MTEXT
  5
3F4
330
A
100
AcDbEntity
  8
Dim
  6
Continuous
100
AcDbMText
 10
-236.8711675858853
 20
-530.1857119862863
 30
0.0
 40
24.4326171875
 41
0.0
 46
0.0
 71
     5
 72
     1
  1
\A1;190
  7
ＭＳ ゴシック
 11
0.0
 21
1.0
 31
0.0
 73
     1
 44
1.0
1001
ACAD
1000
DSTYLE
1002
{
1070
   147
1040
10.0
1070
   144
1040
1.0
1002
}
  0
LINE
  5
3F5
330
A
100
AcDbEntity
  8
Dim
100
AcDbLine
 10
579.7848164469428
 20
-475.1857119862864
 30
0.0
 11
659.7848164469428
 21
-475.1857119862864
 31
0.0
1001
ACAD
1000
DSTYLE
1002
{
1070
   147
1040
10.0
1070
   144
1040
1.0
1002
}
  0
LINE
  5
3F6
330
A
100
AcDbEntity
  8
Dim
100
AcDbLine
 10
579.7848164469428
 20
-435.1857119862863
 30
0.0
 11
659.7848164469428
 21
-435.1857119862863
 31
0.0
1001
ACAD
1000
DSTYLE
1002
{
1070
   147
1040
10.0
1070
   144
1040
1.0
1002
}
  0
LINE
  5
3F7
330
A
100
AcDbEntity
  8
Dim
100
AcDbLine
 10
659.7848164469428
 20
-465.1863223378489
 30
0.0
 11
659.7848164469428
 21
-445.1851016347238
 31
0.0
1001
ACAD
1000
DSTYLE
1002
{
1070
   147
1040
10.0
1070
   144
1040
1.0
1002
}
  0
INSERT
  5
3F8
330
A
100
AcDbEntity
  8
Dim
100
AcDbBlockReference
  2
_DOT
 10
659.7848164469428
 20
-475.1857119862864
 30
0.0
 41
9.999389648437498
 42
9.999389648437498
 43
9.999389648437498
 50
270.0
1001
ACAD
1000
DSTYLE
1002
{
1070
   147
1040
10.0
1070
   144
1040
1.0
1002
}
  0
INSERT
  5
3F9
330
A
100
AcDbEntity
  8
Dim
100
AcDbBlockReference
  2
_DOT
 10
659.7848164469428
 20
-435.1857119862863
 30
0.0
 41
9.999389648437498
 42
9.999389648437498
 43
9.999389648437498
 50
90.0
1001
ACAD
1000
DSTYLE
1002
{
1070
   147
1040
10.0
1070
   144
1040
1.0
1002
}
  0
MTEXT
  5
3FA
330
A
100
AcDbEntity
  8
Dim
  6
Continuous
100
AcDbMText
 10
637.5685078531928
 20
-455.1857119862864
 30
0.0
 40
24.4326171875
 41
0.0
 46
0.0
 71
     5
 72
     1
  1
\A1;40
  7
ＭＳ ゴシック
 11
0.0
 21
1.0
 31
0.0
 73
     1
 44
1.0
1001
ACAD
1000
DSTYLE
1002
{
1070
   147
1040
10.0
1070
   144
1040
1.0
1002
}
  0
LINE
  5
3FB
330
A
100
AcDbEntity
  8
Dim
100
AcDbLine
 10
461.4684896283948
 20
-625.1857119862863
 30
0.0
 11
659.7848164469428
 21
-625.1857119862863
 31
0.0
1001
ACAD
1000
DSTYLE
1002
{
1070
   147
1040
10.0
1070
   144
1040
1.0
1002
}
  0
LINE
  5
3FC
330
A
100
AcDbEntity
  8
Dim
100
AcDbLine
 10
579.2588765211766
 20
-475.1857119862863
 30
0.0
 11
659.7848164469428
 21
-475.1857119862863
 31
0.0
1001
ACAD
1000
DSTYLE
1002
{
1070
   147
1040
10.0
1070
   144
1040
1.0
1002
}
  0
LINE
  5
3FD
330
A
100
AcDbEntity
  8
Dim
100
AcDbLine
 10
659.7848164469428
 20
-615.1863223378488
 30
0.0
 11
659.7848164469428
 21
-485.1851016347238
 31
0.0
1001
ACAD
1000
DSTYLE
1002
{
1070
   147
1040
10.0
1070
   144
1040
1.0
1002
}
  0
INSERT
  5
3FE
330
A
100
AcDbEntity
  8
Dim
100
AcDbBlockReference
  2
_DOT
 10
659.7848164469428
 20
-625.1857119862863
 30
0.0
 41
9.999389648437498
 42
9.999389648437498
 43
9.999389648437498
 50
270.0
1001
ACAD
1000
DSTYLE
1002
{
1070
   147
1040
10.0
1070
   144
1040
1.0
1002
}
  0
INSERT
  5
3FF
330
A
100
AcDbEntity
  8
Dim
100
AcDbBlockReference
  2
_DOT
 10
659.7848164469428
 20
-475.1857119862863
 30
0.0
 41
9.999389648437498
 42
9.999389648437498
 43
9.999389648437498
 50
90.0
1001
ACAD
1000
DSTYLE
1002
{
1070
   147
1040
10.0
1070
   144
1040
1.0
1002
}
  0
MTEXT
  5
400
330
A
100
AcDbEntity
  8
Dim
  6
Continuous
100
AcDbMText
 10
637.5685078531928
 20
-550.1857119862863
 30
0.0
 40
24.4326171875
 41
0.0
 46
0.0
 71
     5
 72
     1
  1
\A1;150
  7
ＭＳ ゴシック
 11
0.0
 21
1.0
 31
0.0
 73
     1
 44
1.0
1001
ACAD
1000
DSTYLE
1002
{
1070
   147
1040
10.0
1070
   144
1040
1.0
1002
}
  0
LINE
  5
401
330
A
100
AcDbEntity
  8
Dim
100
AcDbLine
 10
427.6715677928913
 20
-435.1857119862863
 30
0.0
 11
402.74423978566
 21
-435.1857119862863
 31
0.0
1001
ACAD
1000
DSTYLE
1002
{
1070
   147
1040
10.0
1070
   172
1070
     1
1070
     3
1000
<>(深さ)
1070
   144
1040
1.0
1002
}
  0
LINE
  5
402
330
A
100
AcDbEntity
  8
Dim
100
AcDbLine
 10
427.74423978566
 20
-580.1857119862863
 30
0.0
 11
402.74423978566
 21
-580.1857119862863
 31
0.0
1001
ACAD
1000
DSTYLE
1002
{
1070
   147
1040
10.0
1070
   172
1070
     1
1070
     3
1000
<>(深さ)
1070
   144
1040
1.0
1002
}
  0
LINE
  5
403
330
A
100
AcDbEntity
  8
Dim
100
AcDbLine
 10
402.74423978566
 20
-435.1857119862863
 30
0.0
 11
402.74423978566
 21
-237.6730230216444
 31
0.0
1001
ACAD
1000
DSTYLE
1002
{
1070
   147
1040
10.0
1070
   172
1070
     1
1070
     3
1000
<>(深さ)
1070
   144
1040
1.0
1002
}
  0
LINE
  5
404
330
A
100
AcDbEntity
  8
Dim
100
AcDbLine
 10
402.74423978566
 20
-445.1851016347238
 30
0.0
 11
402.74423978566
 21
-570.1863223378488
 31
0.0
1001
ACAD
1000
DSTYLE
1002
{
1070
   147
1040
10.0
1070
   172
1070
     1
1070
     3
1000
<>(深さ)
1070
   144
1040
1.0
1002
}
  0
LINE
  5
405
330
A
100
AcDbEntity
  8
Dim
100
AcDbLine
 10
402.74423978566
 20
-445.1851016347238
 30
0.0
 11
402.74423978566
 21
-455.1844912831613
 31
0.0
1001
ACAD
1000
DSTYLE
1002
{
1070
   147
1040
10.0
1070
   172
1070
     1
1070
     3
1000
<>(深さ)
1070
   144
1040
1.0
1002
}
  0
INSERT
  5
406
330
A
100
AcDbEntity
  8
Dim
100
AcDbBlockReference
  2
_DOT
 10
402.74423978566
 20
-435.1857119862863
 30
0.0
 41
9.999389648437498
 42
9.999389648437498
 43
9.999389648437498
 50
90.0
1001
ACAD
1000
DSTYLE
1002
{
1070
   147
1040
10.0
1070
   172
1070
     1
1070
     3
1000
<>(深さ)
1070
   144
1040
1.0
1002
}
  0
INSERT
  5
407
330
A
100
AcDbEntity
  8
Dim
100
AcDbBlockReference
  2
_DOT
 10
402.74423978566
 20
-580.1857119862863
 30
0.0
 41
9.999389648437498
 42
9.999389648437498
 43
9.999389648437498
 50
270.0
1001
ACAD
1000
DSTYLE
1002
{
1070
   147
1040
10.0
1070
   172
1070
     1
1070
     3
1000
<>(深さ)
1070
   144
1040
1.0
1002
}
  0
MTEXT
  5
408
330
A
100
AcDbEntity
  8
Dim
  6
Continuous
100
AcDbMText
 10
378.3656445708162
 20
-313.8609829825819
 30
0.0
 40
24.4326171875
 41
0.0
 46
0.0
 71
     5
 72
     1
  1
\A1;145(深さ)
  7
ＭＳ ゴシック
 11
0.0
 21
1.0
 31
0.0
 73
     1
 44
1.0
1001
ACAD
1000
DSTYLE
1002
{
1070
   147
1040
10.0
1070
   172
1070
     1
1070
     3
1000
<>(深さ)
1070
   144
1040
1.0
1002
}
  0
LINE
  5
409
330
A
100
AcDbEntity
  8
Dim
100
AcDbLine
 10
399.8574884397011
 20
-650.1857119862863
 30
0.0
 11
399.8574884397011
 21
-725.1857119862863
 31
0.0
1001
ACAD
1000
DSTYLE
1002
{
1070
   147
1040
10.0
1070
   144
1040
1.0
1002
}
  0
LINE
  5
40A
330
A
100
AcDbEntity
  8
Dim
100
AcDbLine
 10
229.8574884397009
 20
-500.1857119862386
 30
0.0
 11
229.8574884397009
 21
-725.1857119862863
 31
0.0
1001
ACAD
1000
DSTYLE
1002
{
1070
   147
1040
10.0
1070
   144
1040
1.0
1002
}
  0
LINE
  5
40B
330
A
100
AcDbEntity
  8
Dim
100
AcDbLine
 10
389.8580987912636
 20
-725.1857119862863
 30
0.0
 11
239.8568780881384
 21
-725.1857119862863
 31
0.0
1001
ACAD
1000
DSTYLE
1002
{
1070
   147
1040
10.0
1070
   144
1040
1.0
1002
}
  0
INSERT
  5
40C
330
A
100
AcDbEntity
  8
Dim
100
AcDbBlockReference
  2
_DOT
 10
399.8574884397011
 20
-725.1857119862863
 30
0.0
 41
9.999389648437498
 42
9.999389648437498
 43
9.999389648437498
1001
ACAD
1000
DSTYLE
1002
{
1070
   147
1040
10.0
1070
   144
1040
1.0
1002
}
  0
INSERT
  5
40D
330
A
100
AcDbEntity
  8
Dim
100
AcDbBlockReference
  2
_DOT
 10
229.8574884397009
 20
-725.1857119862863
 30
0.0
 41
9.999389648437498
 42
9.999389648437498
 43
9.999389648437498
 50
180.0
1001
ACAD
1000
DSTYLE
1002
{
1070
   147
1040
10.0
1070
   144
1040
1.0
1002
}
  0
MTEXT
  5
40E
330
A
100
AcDbEntity
  8
Dim
  6
Continuous
100
AcDbMText
 10
314.857488439701
 20
-702.9694033925363
 30
0.0
 40
24.4326171875
 41
0.0
 46
0.0
 71
     5
 72
     1
  1
\A1;170
  7
ＭＳ ゴシック
 73
     1
 44
1.0
1001
ACAD
1000
DSTYLE
1002
{
1070
   147
1040
10.0
1070
   144
1040
1.0
1002
}
  0
LINE
  5
40F
330
A
100
AcDbEntity
  8
Dim
100
AcDbLine
 10
519.5892256664475
 20
564.3401008624901
 30
0.0
 11
716.2271650596845
 21
496.6271323210639
 31
0.0
1001
ACAD
1000
DSTYLE
1002
{
1070
   147
1040
10.0
1070
   144
1040
1.0
1002
}
  0
MTEXT
  5
410
330
A
100
AcDbEntity
  8
Dim
  6
Continuous
100
AcDbMText
 10
693.0756779794204
 20
528.0960435069666
 30
0.0
 40
24.4326171875
 41
0.0
 46
0.0
 71
     5
 72
     1
  1
\A1;265
  7
ＭＳ ゴシック
 11
0.9455110321267127
 21
-0.3255900614679115
 31
0.0
 73
     1
 44
1.0
1001
ACAD
1000
DSTYLE
1002
{
1070
   147
1040
10.0
1070
   144
1040
1.0
1002
}
  0
INSERT
  5
411
330
A
100
AcDbEntity
  8
Dim
100
AcDbBlockReference
  2
_DOT
 10
510.1346924393163
 20
567.5958027527664
 30
0.0
 41
9.999389648437496
 42
9.999389648437496
 43
9.999389648437498
 50
160.9986724911627
1001
ACAD
1000
DSTYLE
1002
{
1070
   147
1040
10.0
1070
   144
1040
1.0
1002
}
  0
SPLINE
  5
412
330
A
100
AcDbEntity
  8
FAA70-0113
  6
Continuous
 62
     7
370
    15
390
1D
100
AcDbSpline
210
0.0
220
0.0
230
1.0
 70
     8
 71
     2
 72
    11
 73
     8
 74
     0
 42
0.000000001
 43
0.000001
 40
0.0
 40
0.0
 40
0.0
 40
1.0
 40
2.0
 40
3.0
 40
4.0
 40
5.0
 40
6.0
 40
6.0
 40
6.0
 10
-488.645244022804
 20
739.9283128742707
 30
0.0
 10
-488.6187875010706
 20
739.1837167365317
 30
0.0
 10
-487.8607265147667
 20
738.0748591488067
 30
0.0
 10
-486.8139214299966
 20
737.2022146603482
 30
0.0
 10
-485.3611727526661
 20
736.4030728608809
 30
0.0
 10
-482.492289849703
 20
735.3350441824948
 30
0.0
 10
-477.5312644464024
 20
734.4991545222379
 30
0.0
 10
-474.6548589921358
 20
734.5061007725503
 30
0.0
  0
SPLINE
  5
413
330
A
100
AcDbEntity
  8
FAA70-0113
  6
Continuous
 62
     7
370
    15
390
1D
100
AcDbSpline
210
0.0
220
0.0
230
1.0
 70
     8
 71
     2
 72
    12
 73
     9
 74
     0
 42
0.000000001
 43
0.000001
 40
6.0
 40
6.0
 40
6.0
 40
7.0
 40
8.0
 40
9.0
 40
10.0
 40
11.0
 40
12.0
 40
13.0
 40
13.0
 40
13.0
 10
-474.6548589921358
 20
734.5061007725503
 30
0.0
 10
-471.7766777203581
 20
734.4970454549208
 30
0.0
 10
-467.8394030201152
 20
735.1682181530373
 30
0.0
 10
-465.7578476004638
 20
735.7147897075541
 30
0.0
 10
-463.9485452316054
 20
736.403072860881
 30
0.0
 10
-462.4957965542748
 20
737.2022146603482
 30
0.0
 10
-461.4489914695047
 20
738.0748591488067
 30
0.0
 10
-460.6909304832008
 20
739.1837167365318
 30
0.0
 10
-460.6644739614674
 20
739.9283128742707
 30
0.0
  0
SPLINE
  5
414
330
A
100
AcDbEntity
  8
FAA70-0113
  6
Continuous
 62
     7
370
    15
390
1D
100
AcDbSpline
210
0.0
220
0.0
230
1.0
 70
     8
 71
     2
 72
    11
 73
     8
 74
     0
 42
0.000000001
 43
0.000001
 40
13.0
 40
13.0
 40
13.0
 40
14.0
 40
15.0
 40
16.0
 40
17.0
 40
18.0
 40
19.0
 40
19.0
 40
19.0
 10
-460.6644739614674
 20
739.9283128742707
 30
0.0
 10
-460.6909304832008
 20
740.6729090120095
 30
0.0
 10
-461.4489914695047
 20
741.7817665997346
 30
0.0
 10
-462.4957965542748
 20
742.6544110881931
 30
0.0
 10
-463.9485452316054
 20
743.4535528876603
 30
0.0
 10
-466.8174281345684
 20
744.5215815660464
 30
0.0
 10
-471.7784535378691
 20
745.3574712263036
 30
0.0
 10
-474.6548589921358
 20
745.350524975991
 30
0.0
  0
SPLINE
  5
415
330
A
100
AcDbEntity
  8
FAA70-0113
  6
Continuous
 62
     7
370
    15
390
1D
100
AcDbSpline
210
0.0
220
0.0
230
1.0
 70
     8
 71
     2
 72
    12
 73
     9
 74
     0
 42
0.000000001
 43
0.000001
 40
19.0
 40
19.0
 40
19.0
 40
20.0
 40
21.0
 40
22.0
 40
23.0
 40
24.0
 40
25.0
 40
26.0
 40
26.0
 40
26.0
 10
-474.6548589921358
 20
745.350524975991
 30
0.0
 10
-477.5330402639133
 20
745.3595802936203
 30
0.0
 10
-481.4703149641562
 20
744.6884075955039
 30
0.0
 10
-483.5518703838077
 20
744.1418360409872
 30
0.0
 10
-485.3611727526661
 20
743.4535528876603
 30
0.0
 10
-486.8139214299966
 20
742.6544110881931
 30
0.0
 10
-487.8607265147667
 20
741.7817665997346
 30
0.0
 10
-488.6187875010706
 20
740.6729090120095
 30
0.0
 10
-488.645244022804
 20
739.9283128742707
 30
0.0
  0
ENDSEC
  0
SECTION
  2
OBJECTS
  0
DICTIONARY
  5
19
330
0
100
AcDbDictionary
281
     1
  3
ACAD_COLOR
350
1A4
  3
ACAD_DETAILVIEWSTYLE
350
38D
  3
ACAD_FIELDLIST
350
358
  3
ACAD_GROUP
350
1A
  3
ACAD_LAYOUT
350
1E
  3
ACAD_MATERIAL
350
178
  3
ACAD_MLEADERSTYLE
350
17E
  3
ACAD_MLINESTYLE
350
1B
  3
ACAD_PLOTSETTINGS
350
22
  3
ACAD_PLOTSTYLENAME
350
1F
  3
ACAD_SCALELIST
350
13D
  3
ACAD_SECTIONVIEWSTYLE
350
38E
  3
ACAD_TABLESTYLE
350
17C
  3
ACAD_VISUALSTYLE
350
15F
  3
ACAD_WIPEOUT_VARS
350
23
  3
ACDB_RECOMPOSE_DATA
350
41B
  3
AcDbVariableDictionary
350
388
  3
APPDATA
350
180
  0
SUN
  5
3A8
330
15
100
AcDbSun
 90
        1
290
     0
 63
     7
421
 16777215
 40
1.0
291
     1
 91
  2455826
 92
 54000000
292
     0
 70
     2
 71
   256
280
     1
  0
DICTIONARY
  5
248
330
2
100
AcDbDictionary
280
     1
281
     1
  3
ACAD_LAYERSTATES
360
249
  0
DICTIONARY
  5
375
330
374
100
AcDbDictionary
280
     1
281
     1
  3
ACAD_FIELD
360
387
  0
DICTIONARY
  5
1A4
102
{ACAD_REACTORS
330
19
102
}
330
19
100
AcDbDictionary
281
     1
  0
DICTIONARY
  5
38D
102
{ACAD_REACTORS
330
19
102
}
330
19
100
AcDbDictionary
281
     1
  0
FIELDLIST
  5
358
102
{ACAD_REACTORS
330
19
102
}
330
19
100
AcDbIdSet
 90
        2
330
378
330
377
100
AcDbFieldList
  0
DICTIONARY
  5
1A
102
{ACAD_REACTORS
330
19
102
}
330
19
100
AcDbDictionary
281
     1
  0
DICTIONARY
  5
1E
102
{ACAD_REACTORS
330
19
102
}
330
19
100
AcDbDictionary
281
     1
  3
Layout1
350
21
  3
Model
350
20
  0
DICTIONARY
  5
178
102
{ACAD_REACTORS
330
19
102
}
330
19
100
AcDbDictionary
281
     1
  3
ByBlock
350
17A
  3
ByLayer
350
179
  3
Global
350
17B
  0
DICTIONARY
  5
17E
102
{ACAD_REACTORS
330
19
102
}
330
19
100
AcDbDictionary
281
     1
  3
Standard
350
17F
  0
DICTIONARY
  5
1B
102
{ACAD_REACTORS
330
19
102
}
330
19
100
AcDbDictionary
281
     1
  3
Standard
350
1C
  0
DICTIONARY
  5
22
102
{ACAD_REACTORS
330
19
102
}
330
19
100
AcDbDictionary
281
     1
  0
ACDBDICTIONARYWDFLT
  5
1F
102
{ACAD_REACTORS
330
19
102
}
330
19
100
AcDbDictionary
281
     1
  3
Normal
350
1D
100
AcDbDictionaryWithDefault
340
1D
  0
DICTIONARY
  5
13D
102
{ACAD_REACTORS
330
19
102
}
330
19
100
AcDbDictionary
281
     1
  3
A0
350
13E
  3
A1
350
13F
  3
A2
350
140
  3
A3
350
141
  3
A4
350
142
  3
A5
350
143
  3
A6
350
144
  3
A7
350
145
  3
A8
350
146
  3
A9
350
147
  3
B0
350
148
  3
B1
350
149
  3
B2
350
14A
  3
B3
350
14B
  3
B4
350
14C
  3
B5
350
14D
  3
B6
350
14E
  3
B7
350
14F
  3
B8
350
150
  3
B9
350
151
  3
C0
350
152
  3
C1
350
153
  3
C2
350
154
  3
C3
350
155
  3
C4
350
156
  3
C5
350
157
  3
C6
350
158
  3
C7
350
159
  3
C8
350
15A
  3
C9
350
15B
  3
D0
350
15C
  3
D1
350
15D
  3
D2
350
15E
  0
DICTIONARY
  5
38E
102
{ACAD_REACTORS
330
19
102
}
330
19
100
AcDbDictionary
281
     1
  0
DICTIONARY
  5
17C
102
{ACAD_REACTORS
330
19
102
}
330
19
100
AcDbDictionary
281
     1
  3
Standard
350
17D
  0
DICTIONARY
  5
15F
102
{ACAD_REACTORS
330
19
102
}
330
19
100
AcDbDictionary
281
     1
  3
2dWireframe
350
164
  3
Basic
350
167
  3
Brighten
350
16B
  3
ColorChange
350
16F
  3
Conceptual
350
169
  3
Dim
350
16A
  3
EdgeColorOff
350
172
  3
Facepattern
350
16E
  3
Flat
350
160
  3
FlatWithEdges
350
161
  3
Gouraud
350
162
  3
GouraudWithEdges
350
163
  3
Hidden
350
166
  3
JitterOff
350
170
  3
Linepattern
350
16D
  3
OverhangOff
350
171
  3
Realistic
350
168
  3
Shaded
350
177
  3
Shaded with edges
350
176
  3
Shades of Gray
350
173
  3
Sketchy
350
174
  3
Thicken
350
16C
  3
Wireframe
350
165
  3
X-Ray
350
175
  0
WIPEOUTVARIABLES
  5
23
330
19
100
AcDbWipeoutVariables
 70
     0
  0
XRECORD
  5
41B
102
{ACAD_REACTORS
330
19
102
}
330
19
100
AcDbXrecord
280
     1
 90
        1
330
17D
  0
DICTIONARY
  5
388
102
{ACAD_REACTORS
330
19
102
}
330
19
100
AcDbDictionary
281
     1
  3
CANNOSCALE
350
389
  3
CMLEADERSTYLE
350
38B
  3
CTABLESTYLE
350
38A
  3
MSLTSCALE
350
38C
  3
WIPEOUTFRAME
350
38F
  3
XCLIPFRAME
350
3AE
  0
DICTIONARY
  5
180
102
{ACAD_REACTORS
330
19
102
}
330
19
100
AcDbDictionary
281
     1
  0
DICTIONARY
  5
249
102
{ACAD_REACTORS
330
248
102
}
330
248
100
AcDbDictionary
281
     1
  0
DICTIONARY
  5
387
102
{ACAD_REACTORS
330
375
102
}
330
375
100
AcDbDictionary
280
     1
281
     1
  3
TEXT
360
377
  0
LAYOUT
  5
21
102
{ACAD_REACTORS
330
1E
102
}
330
1E
100
AcDbPlotSettings
  1

  2

  4

  6

 40
0.0
 41
0.0
 42
0.0
 43
0.0
 44
0.0
 45
0.0
 46
0.0
 47
0.0
 48
0.0
 49
0.0
140
0.0
141
0.0
142
1.0
143
1.0
 70
     0
 72
     0
 73
     0
 74
     0
  7

 75
     0
 76
     0
 77
     2
 78
   300
147
1.0
148
0.0
149
0.0
100
AcDbLayout
  1
Layout1
 70
     0
 71
     0
 10
0.0
 20
0.0
 11
0.0
 21
0.0
 12
0.0
 22
0.0
 32
0.0
 14
0.0
 24
0.0
 34
0.0
 15
0.0
 25
0.0
 35
0.0
146
0.0
 13
0.0
 23
0.0
 33
0.0
 16
0.0
 26
0.0
 36
0.0
 17
0.0
 27
0.0
 37
0.0
 76
     0
330
B
  0
LAYOUT
  5
20
102
{ACAD_REACTORS
330
1E
102
}
330
1E
100
AcDbPlotSettings
  1

  2

  4

  6

 40
0.0
 41
0.0
 42
0.0
 43
0.0
 44
0.0
 45
0.0
 46
0.0
 47
0.0
 48
0.0
 49
0.0
140
0.0
141
0.0
142
1.0
143
1.0
 70
  1024
 72
     0
 73
     0
 74
     0
  7

 75
     0
 76
     0
 77
     2
 78
   300
147
1.0
148
0.0
149
0.0
100
AcDbLayout
  1
Model
 70
     0
 71
     1
 10
0.0
 20
0.0
 11
0.0
 21
0.0
 12
0.0
 22
0.0
 32
0.0
 14
-975.0000000002412
 24
-1436.535732690497
 34
0.0
 15
975.0000000002412
 25
1405.9972926413
 35
0.0
146
0.0
 13
0.0
 23
0.0
 33
0.0
 16
0.0
 26
0.0
 36
0.0
 17
0.0
 27
0.0
 37
0.0
 76
     0
330
A
331
15
  0
MATERIAL
  5
17A
102
{ACAD_REACTORS
330
178
102
}
330
178
100
AcDbMaterial
  1
ByBlock
 72
     1
 94
      127
  0
MATERIAL
  5
179
102
{ACAD_REACTORS
330
178
102
}
330
178
100
AcDbMaterial
  1
ByLayer
 72
     1
 94
      127
  0
MATERIAL
  5
17B
102
{ACAD_REACTORS
330
178
102
}
330
178
100
AcDbMaterial
  1
Global
 72
     1
 94
      127
  0
MLEADERSTYLE
  5
17F
102
{ACAD_REACTORS
330
17E
102
}
330
17E
100
AcDbMLeaderStyle
170
     2
171
     1
172
     0
 90
        2
 40
0.0
 41
0.0
173
     1
 91
-1056964608
340
11
 92
       -2
290
     1
 42
2.0
291
     1
 43
8.0
  3
Standard
341
0
 44
4.0
300

342
17
174
     1
178
     1
175
     1
176
     0
 93
-1056964608
 45
4.0
292
     0
297
     0
 46
4.0
343
0
 94
-1056964608
 47
1.0
 49
1.0
140
1.0
293
     1
141
0.0
294
     1
177
     0
142
1.0
295
     0
296
     0
143
3.75
1001
ACAD_MLEADERVER
1070
     2
  0
MLINESTYLE
  5
1C
102
{ACAD_REACTORS
330
1B
102
}
330
1B
100
AcDbMlineStyle
  2
Standard
 70
     0
  3

 62
     0
 51
90.0
 52
90.0
 71
     2
 49
0.5
 62
   256
  6
BYLAYER
 49
-0.5
 62
   256
  6
BYLAYER
  0
ACDBPLACEHOLDER
  5
1D
102
{ACAD_REACTORS
330
1F
102
}
330
1F
  0
SCALE
  5
13E
102
{ACAD_REACTORS
330
13D
102
}
330
13D
100
AcDbScale
 70
     0
300
1:1
140
1.0
141
1.0
290
     1
  0
SCALE
  5
13F
102
{ACAD_REACTORS
330
13D
102
}
330
13D
100
AcDbScale
 70
     0
300
1:2
140
1.0
141
2.0
290
     0
  0
SCALE
  5
140
102
{ACAD_REACTORS
330
13D
102
}
330
13D
100
AcDbScale
 70
     0
300
1:4
140
1.0
141
4.0
290
     0
  0
SCALE
  5
141
102
{ACAD_REACTORS
330
13D
102
}
330
13D
100
AcDbScale
 70
     0
300
1:5
140
1.0
141
5.0
290
     0
  0
SCALE
  5
142
102
{ACAD_REACTORS
330
13D
102
}
330
13D
100
AcDbScale
 70
     0
300
1:8
140
1.0
141
8.0
290
     0
  0
SCALE
  5
143
102
{ACAD_REACTORS
330
13D
102
}
330
13D
100
AcDbScale
 70
     0
300
1:10
140
1.0
141
10.0
290
     0
  0
SCALE
  5
144
102
{ACAD_REACTORS
330
13D
102
}
330
13D
100
AcDbScale
 70
     0
300
1:16
140
1.0
141
16.0
290
     0
  0
SCALE
  5
145
102
{ACAD_REACTORS
330
13D
102
}
330
13D
100
AcDbScale
 70
     0
300
1:20
140
1.0
141
20.0
290
     0
  0
SCALE
  5
146
102
{ACAD_REACTORS
330
13D
102
}
330
13D
100
AcDbScale
 70
     0
300
1:30
140
1.0
141
30.0
290
     0
  0
SCALE
  5
147
102
{ACAD_REACTORS
330
13D
102
}
330
13D
100
AcDbScale
 70
     0
300
1:40
140
1.0
141
40.0
290
     0
  0
SCALE
  5
148
102
{ACAD_REACTORS
330
13D
102
}
330
13D
100
AcDbScale
 70
     0
300
1:50
140
1.0
141
50.0
290
     0
  0
SCALE
  5
149
102
{ACAD_REACTORS
330
13D
102
}
330
13D
100
AcDbScale
 70
     0
300
1:100
140
1.0
141
100.0
290
     0
  0
SCALE
  5
14A
102
{ACAD_REACTORS
330
13D
102
}
330
13D
100
AcDbScale
 70
     0
300
2:1
140
2.0
141
1.0
290
     0
  0
SCALE
  5
14B
102
{ACAD_REACTORS
330
13D
102
}
330
13D
100
AcDbScale
 70
     0
300
4:1
140
4.0
141
1.0
290
     0
  0
SCALE
  5
14C
102
{ACAD_REACTORS
330
13D
102
}
330
13D
100
AcDbScale
 70
     0
300
8:1
140
8.0
141
1.0
290
     0
  0
SCALE
  5
14D
102
{ACAD_REACTORS
330
13D
102
}
330
13D
100
AcDbScale
 70
     0
300
10:1
140
10.0
141
1.0
290
     0
  0
SCALE
  5
14E
102
{ACAD_REACTORS
330
13D
102
}
330
13D
100
AcDbScale
 70
     0
300
100:1
140
100.0
141
1.0
290
     0
  0
SCALE
  5
14F
102
{ACAD_REACTORS
330
13D
102
}
330
13D
100
AcDbScale
 70
     0
300
1/128" = 1'-0"
140
0.0078125
141
12.0
290
     0
  0
SCALE
  5
150
102
{ACAD_REACTORS
330
13D
102
}
330
13D
100
AcDbScale
 70
     0
300
1/64" = 1'-0"
140
0.015625
141
12.0
290
     0
  0
SCALE
  5
151
102
{ACAD_REACTORS
330
13D
102
}
330
13D
100
AcDbScale
 70
     0
300
1/32" = 1'-0"
140
0.03125
141
12.0
290
     0
  0
SCALE
  5
152
102
{ACAD_REACTORS
330
13D
102
}
330
13D
100
AcDbScale
 70
     0
300
1/16" = 1'-0"
140
0.0625
141
12.0
290
     0
  0
SCALE
  5
153
102
{ACAD_REACTORS
330
13D
102
}
330
13D
100
AcDbScale
 70
     0
300
3/32" = 1'-0"
140
0.09375
141
12.0
290
     0
  0
SCALE
  5
154
102
{ACAD_REACTORS
330
13D
102
}
330
13D
100
AcDbScale
 70
     0
300
1/8" = 1'-0"
140
0.125
141
12.0
290
     0
  0
SCALE
  5
155
102
{ACAD_REACTORS
330
13D
102
}
330
13D
100
AcDbScale
 70
     0
300
3/16" = 1'-0"
140
0.1875
141
12.0
290
     0
  0
SCALE
  5
156
102
{ACAD_REACTORS
330
13D
102
}
330
13D
100
AcDbScale
 70
     0
300
1/4" = 1'-0"
140
0.25
141
12.0
290
     0
  0
SCALE
  5
157
102
{ACAD_REACTORS
330
13D
102
}
330
13D
100
AcDbScale
 70
     0
300
3/8" = 1'-0"
140
0.375
141
12.0
290
     0
  0
SCALE
  5
158
102
{ACAD_REACTORS
330
13D
102
}
330
13D
100
AcDbScale
 70
     0
300
1/2" = 1'-0"
140
0.5
141
12.0
290
     0
  0
SCALE
  5
159
102
{ACAD_REACTORS
330
13D
102
}
330
13D
100
AcDbScale
 70
     0
300
3/4" = 1'-0"
140
0.75
141
12.0
290
     0
  0
SCALE
  5
15A
102
{ACAD_REACTORS
330
13D
102
}
330
13D
100
AcDbScale
 70
     0
300
1" = 1'-0"
140
1.0
141
12.0
290
     0
  0
SCALE
  5
15B
102
{ACAD_REACTORS
330
13D
102
}
330
13D
100
AcDbScale
 70
     0
300
1-1/2" = 1'-0"
140
1.5
141
12.0
290
     0
  0
SCALE
  5
15C
102
{ACAD_REACTORS
330
13D
102
}
330
13D
100
AcDbScale
 70
     0
300
3" = 1'-0"
140
3.0
141
12.0
290
     0
  0
SCALE
  5
15D
102
{ACAD_REACTORS
330
13D
102
}
330
13D
100
AcDbScale
 70
     0
300
6" = 1'-0"
140
6.0
141
12.0
290
     0
  0
SCALE
  5
15E
102
{ACAD_REACTORS
330
13D
102
}
330
13D
100
AcDbScale
 70
     0
300
1'-0" = 1'-0"
140
12.0
141
12.0
290
     0
  0
TABLESTYLE
  5
17D
102
{ACAD_REACTORS
330
17C
102
}
102
{ACAD_XDICTIONARY
360
419
102
}
330
17C
100
AcDbTableStyle
  3
Standard
 70
     0
 71
     0
 40
0.06
 41
0.06
280
     0
281
     0
  7
Standard
140
4.5
170
     2
 62
     0
 63
   257
283
     0
 90
        4
 91
        0
  1

274
    -2
284
     1
 64
     0
275
    -2
285
     1
 65
     0
276
    -2
286
     1
 66
     0
277
    -2
287
     1
 67
     0
278
    -2
288
     1
 68
     0
279
    -2
289
     1
 69
     0
  7
Standard
140
6.0
170
     5
 62
     0
 63
   257
283
     0
 90
        4
 91
        0
  1

274
    -2
284
     1
 64
     0
275
    -2
285
     1
 65
     0
276
    -2
286
     1
 66
     0
277
    -2
287
     1
 67
     0
278
    -2
288
     1
 68
     0
279
    -2
289
     1
 69
     0
  7
Standard
140
4.5
170
     5
 62
     0
 63
   257
283
     0
 90
        4
 91
        0
  1

274
    -2
284
     1
 64
     0
275
    -2
285
     1
 65
     0
276
    -2
286
     1
 66
     0
277
    -2
287
     1
 67
     0
278
    -2
288
     1
 68
     0
279
    -2
289
     1
 69
     0
  0
VISUALSTYLE
  5
164
102
{ACAD_REACTORS
330
15F
102
}
330
15F
100
AcDbVisualStyle
  2
2dWireframe
 70
     4
 71
     0
 72
     2
 73
     0
 90
        0
 40
0.6
 41
30.0
 62
     5
 63
     7
421
 16777215
 74
     1
 91
        4
 64
     7
 65
   257
 75
     1
175
     1
 42
1.0
 92
        0
 66
   257
 43
1.0
 76
     1
 77
     6
 78
     2
 67
     7
 79
     5
170
     0
171
     0
290
     0
174
     0
 93
        1
 44
0.0
173
     0
291
     0
 45
0.0
  0
VISUALSTYLE
  5
167
102
{ACAD_REACTORS
330
15F
102
}
330
15F
100
AcDbVisualStyle
  2
Basic
 70
     7
 71
     1
 72
     0
 73
     1
 90
        0
 40
0.6
 41
30.0
 62
     5
 63
     7
421
 16777215
 74
     0
 91
        4
 64
     7
 65
   257
 75
     1
175
     1
 42
1.0
 92
        8
 66
     7
 43
1.0
 76
     1
 77
     6
 78
     2
 67
     7
 79
     5
170
     0
171
     0
290
     0
174
     0
 93
        1
 44
0.0
173
     0
291
     1
 45
0.0
  0
VISUALSTYLE
  5
16B
102
{ACAD_REACTORS
330
15F
102
}
330
15F
100
AcDbVisualStyle
  2
Brighten
 70
    12
 71
     2
 72
     2
 73
     0
 90
        0
 40
0.6
 41
30.0
 62
     5
 63
     7
421
 16777215
 74
     1
 91
        4
 64
     7
 65
   257
 75
     1
175
     1
 42
1.0
 92
        8
 66
     7
 43
1.0
 76
     1
 77
     6
 78
     2
 67
     7
 79
     5
170
     0
171
     0
290
     0
174
     0
 93
        1
 44
50.0
173
     0
291
     1
 45
0.0
  0
VISUALSTYLE
  5
16F
102
{ACAD_REACTORS
330
15F
102
}
330
15F
100
AcDbVisualStyle
  2
ColorChange
 70
    16
 71
     2
 72
     2
 73
     3
 90
        0
 40
0.6
 41
30.0
 62
     5
 63
     8
421
  8421504
 74
     1
 91
        4
 64
     7
 65
   257
 75
     1
175
     1
 42
1.0
 92
        8
 66
     8
424
  8421504
 43
1.0
 76
     1
 77
     6
 78
     2
 67
     7
 79
     5
170
     0
171
     0
290
     0
174
     0
 93
        1
 44
0.0
173
     0
291
     1
 45
0.0
  0
VISUALSTYLE
  5
169
102
{ACAD_REACTORS
330
15F
102
}
330
15F
100
AcDbVisualStyle
  2
Conceptual
 70
     9
 71
     3
 72
     2
 73
     0
 90
        0
 40
0.6
 41
30.0
 62
     5
 63
     7
421
 16777215
 74
     2
 91
        2
 64
     7
 65
   257
 75
     1
175
     1
 42
179.0
 92
        8
 66
     7
 43
1.0
 76
     1
 77
     6
 78
     2
 67
     7
 79
     3
170
     0
171
     0
290
     0
174
     0
 93
        1
 44
0.0
173
     0
291
     0
 45
0.0
  0
VISUALSTYLE
  5
16A
102
{ACAD_REACTORS
330
15F
102
}
330
15F
100
AcDbVisualStyle
  2
Dim
 70
    11
 71
     2
 72
     2
 73
     0
 90
        0
 40
0.6
 41
30.0
 62
     5
 63
     7
421
 16777215
 74
     1
 91
        4
 64
     7
 65
   257
 75
     1
175
     1
 42
1.0
 92
        8
 66
     7
 43
1.0
 76
     1
 77
     6
 78
     2
 67
     7
 79
     5
170
     0
171
     0
290
     0
174
     0
 93
        1
 44
-50.0
173
     0
291
     1
 45
0.0
  0
VISUALSTYLE
  5
172
102
{ACAD_REACTORS
330
15F
102
}
330
15F
100
AcDbVisualStyle
  2
EdgeColorOff
 70
    22
 71
     2
 72
     2
 73
     0
 90
        0
 40
0.6
 41
30.0
 62
     5
 63
     7
421
 16777215
 74
     1
 91
        4
 64
     7
 65
   257
 75
     1
175
     1
 42
1.0
 92
        8
 66
     7
 43
1.0
 76
     1
 77
     6
 78
     2
 67
     7
 79
     5
170
     0
171
     0
290
     0
174
     0
 93
        1
 44
0.0
173
     0
291
     1
 45
0.0
  0
VISUALSTYLE
  5
16E
102
{ACAD_REACTORS
330
15F
102
}
330
15F
100
AcDbVisualStyle
  2
Facepattern
 70
    15
 71
     2
 72
     2
 73
     0
 90
        0
 40
0.6
 41
30.0
 62
     5
 63
     7
421
 16777215
 74
     1
 91
        4
 64
     7
 65
   257
 75
     1
175
     1
 42
1.0
 92
        8
 66
     7
 43
1.0
 76
     1
 77
     6
 78
     2
 67
     7
 79
     5
170
     0
171
     0
290
     0
174
     0
 93
        1
 44
0.0
173
     0
291
     1
 45
0.0
  0
VISUALSTYLE
  5
160
102
{ACAD_REACTORS
330
15F
102
}
330
15F
100
AcDbVisualStyle
  2
Flat
 70
     0
 71
     2
 72
     1
 73
     1
 90
        2
 40
0.6
 41
30.0
 62
     5
 63
     7
421
 16777215
 74
     0
 91
        0
 64
     7
 65
   257
 75
     1
175
     1
 42
1.0
 92
        8
 66
     7
 43
1.0
 76
     1
 77
     6
 78
     2
 67
     7
 79
     5
170
     0
171
     0
290
     0
174
     0
 93
       13
 44
0.0
173
     0
291
     1
 45
0.0
  0
VISUALSTYLE
  5
161
102
{ACAD_REACTORS
330
15F
102
}
330
15F
100
AcDbVisualStyle
  2
FlatWithEdges
 70
     1
 71
     2
 72
     1
 73
     1
 90
        2
 40
0.6
 41
30.0
 62
     5
 63
     7
421
 16777215
 74
     1
 91
        0
 64
     7
 65
   257
 75
     1
175
     1
 42
1.0
 92
        0
 66
   257
 43
1.0
 76
     1
 77
     6
 78
     2
 67
     7
 79
     5
170
     0
171
     0
290
     0
174
     0
 93
       13
 44
0.0
173
     0
291
     1
 45
0.0
  0
VISUALSTYLE
  5
162
102
{ACAD_REACTORS
330
15F
102
}
330
15F
100
AcDbVisualStyle
  2
Gouraud
 70
     2
 71
     2
 72
     2
 73
     1
 90
        2
 40
0.6
 41
30.0
 62
     5
 63
     7
421
 16777215
 74
     0
 91
        0
 64
     7
 65
   257
 75
     1
175
     1
 42
1.0
 92
        0
 66
     7
 43
1.0
 76
     1
 77
     6
 78
     2
 67
     7
 79
     5
170
     0
171
     0
290
     0
174
     0
 93
       13
 44
0.0
173
     0
291
     1
 45
0.0
  0
VISUALSTYLE
  5
163
102
{ACAD_REACTORS
330
15F
102
}
330
15F
100
AcDbVisualStyle
  2
GouraudWithEdges
 70
     3
 71
     2
 72
     2
 73
     1
 90
        2
 40
0.6
 41
30.0
 62
     5
 63
     7
421
 16777215
 74
     1
 91
        0
 64
     7
 65
   257
 75
     1
175
     1
 42
1.0
 92
        0
 66
   257
 43
1.0
 76
     1
 77
     6
 78
     2
 67
     7
 79
     5
170
     0
171
     0
290
     0
174
     0
 93
       13
 44
0.0
173
     0
291
     1
 45
0.0
  0
VISUALSTYLE
  5
166
102
{ACAD_REACTORS
330
15F
102
}
330
15F
100
AcDbVisualStyle
  2
Hidden
 70
     6
 71
     1
 72
     2
 73
     2
 90
        0
 40
0.6
 41
30.0
 62
     5
 63
     7
421
 16777215
 74
     2
 91
        2
 64
     7
 65
   257
 75
     2
175
     1
 42
40.0
 92
        0
 66
   257
 43
1.0
 76
     1
 77
     6
 78
     2
 67
     7
 79
     3
170
     0
171
     0
290
     0
174
     0
 93
        1
 44
0.0
173
     0
291
     0
 45
0.0
  0
VISUALSTYLE
  5
170
102
{ACAD_REACTORS
330
15F
102
}
330
15F
100
AcDbVisualStyle
  2
JitterOff
 70
    20
 71
     2
 72
     2
 73
     0
 90
        0
 40
0.6
 41
30.0
 62
     5
 63
     7
421
 16777215
 74
     1
 91
        4
 64
     7
 65
   257
 75
     1
175
     1
 42
1.0
 92
       10
 66
     7
 43
1.0
 76
     1
 77
     6
 78
     2
 67
     7
 79
     5
170
     0
171
     0
290
     0
174
     0
 93
        1
 44
0.0
173
     0
291
     1
 45
0.0
  0
VISUALSTYLE
  5
16D
102
{ACAD_REACTORS
330
15F
102
}
330
15F
100
AcDbVisualStyle
  2
Linepattern
 70
    14
 71
     2
 72
     2
 73
     0
 90
        0
 40
0.6
 41
30.0
 62
     5
 63
     7
421
 16777215
 74
     1
 91
        4
 64
     7
 65
   257
 75
     7
175
     7
 42
1.0
 92
        8
 66
     7
 43
1.0
 76
     1
 77
     6
 78
     2
 67
     7
 79
     5
170
     0
171
     0
290
     0
174
     0
 93
        1
 44
0.0
173
     0
291
     1
 45
0.0
  0
VISUALSTYLE
  5
171
102
{ACAD_REACTORS
330
15F
102
}
330
15F
100
AcDbVisualStyle
  2
OverhangOff
 70
    21
 71
     2
 72
     2
 73
     0
 90
        0
 40
0.6
 41
30.0
 62
     5
 63
     7
421
 16777215
 74
     1
 91
        4
 64
     7
 65
   257
 75
     1
175
     1
 42
1.0
 92
        9
 66
     7
 43
1.0
 76
     1
 77
     6
 78
     2
 67
     7
 79
     5
170
     0
171
     0
290
     0
174
     0
 93
        1
 44
0.0
173
     0
291
     1
 45
0.0
  0
VISUALSTYLE
  5
168
102
{ACAD_REACTORS
330
15F
102
}
330
15F
100
AcDbVisualStyle
  2
Realistic
 70
     8
 71
     2
 72
     3
 73
     0
 90
        2
 40
0.6
 41
30.0
 62
     5
 63
     7
421
 16777215
 74
     0
 91
        0
 64
     7
 65
   257
 75
     1
175
     1
 42
1.0
 92
        8
 66
   257
 43
1.0
 76
     1
 77
     6
 78
     2
 67
     7
 79
     3
170
     0
171
     0
290
     0
174
     0
 93
       13
 44
0.0
173
     0
291
     0
 45
0.0
  0
VISUALSTYLE
  5
177
102
{ACAD_REACTORS
330
15F
102
}
330
15F
100
AcDbVisualStyle
  2
Shaded
 70
    27
 71
     2
 72
     2
 73
     1
 90
        2
 40
0.6
 41
30.0
 62
     5
 63
     7
421
 16777215
 74
     0
 91
        4
 64
     7
 65
   257
 75
     1
175
     1
 42
1.0
 92
        8
 66
   257
 43
1.0
 76
     1
 77
     6
 78
     2
 67
     8
425
  7895160
 79
     3
170
     0
171
     0
290
     0
174
     0
 93
        5
 44
0.0
173
     0
291
     0
 45
0.0
  0
VISUALSTYLE
  5
176
102
{ACAD_REACTORS
330
15F
102
}
330
15F
100
AcDbVisualStyle
  2
Shaded with edges
 70
    26
 71
     2
 72
     2
 73
     1
 90
        2
 40
0.6
 41
30.0
 62
     5
 63
     7
421
 16777215
 74
     1
 91
       10
 64
     7
 65
   257
 75
     2
175
     1
 42
1.0
 92
        8
 66
   257
 43
1.0
 76
     1
 77
     6
 78
     2
 67
     7
 79
     3
170
     0
171
     0
290
     0
174
     0
 93
        5
 44
0.0
173
     0
291
     0
 45
0.0
  0
VISUALSTYLE
  5
173
102
{ACAD_REACTORS
330
15F
102
}
330
15F
100
AcDbVisualStyle
  2
Shades of Gray
 70
    23
 71
     2
 72
     2
 73
     3
 90
        0
 40
0.6
 41
30.0
 62
     5
 63
     7
421
 16777215
 74
     2
 91
        2
 64
     7
 65
     7
 75
     1
175
     1
 42
40.0
 92
        8
 66
     7
 43
1.0
 76
     1
 77
     6
 78
     2
 67
     7
 79
     3
170
     0
171
     0
290
     0
174
     0
 93
        1
 44
0.0
173
     0
291
     0
 45
0.0
  0
VISUALSTYLE
  5
174
102
{ACAD_REACTORS
330
15F
102
}
330
15F
100
AcDbVisualStyle
  2
Sketchy
 70
    24
 71
     1
 72
     2
 73
     2
 90
        0
 40
0.6
 41
30.0
 62
     5
 63
     7
421
 16777215
 74
     2
 91
        2
 64
     7
 65
     7
 75
     1
175
     1
 42
40.0
 92
       11
 66
     7
 43
1.0
 76
     1
 77
     6
 78
     2
 67
     7
 79
     6
170
     0
171
     0
290
     0
174
     0
 93
        1
 44
0.0
173
     0
291
     0
 45
0.0
  0
VISUALSTYLE
  5
16C
102
{ACAD_REACTORS
330
15F
102
}
330
15F
100
AcDbVisualStyle
  2
Thicken
 70
    13
 71
     2
 72
     2
 73
     0
 90
        0
 40
0.6
 41
30.0
 62
     5
 63
     7
421
 16777215
 74
     1
 91
        4
 64
     7
 65
   257
 75
     1
175
     1
 42
1.0
 92
       12
 66
     7
 43
1.0
 76
     1
 77
     6
 78
     2
 67
     7
 79
     5
170
     0
171
     0
290
     0
174
     0
 93
        1
 44
0.0
173
     0
291
     1
 45
0.0
  0
VISUALSTYLE
  5
165
102
{ACAD_REACTORS
330
15F
102
}
330
15F
100
AcDbVisualStyle
  2
Wireframe
 70
     5
 71
     0
 72
     2
 73
     0
 90
        0
 40
0.6
 41
30.0
 62
     5
 63
     7
421
 16777215
 74
     1
 91
        4
 64
     7
 65
   257
 75
     1
175
     1
 42
1.0
 92
        0
 66
   257
 43
1.0
 76
     1
 77
     6
 78
     2
 67
     7
 79
     3
170
     0
171
     0
290
     0
174
     0
 93
        1
 44
0.0
173
     0
291
     0
 45
0.0
  0
VISUALSTYLE
  5
175
102
{ACAD_REACTORS
330
15F
102
}
330
15F
100
AcDbVisualStyle
  2
X-Ray
 70
    25
 71
     2
 72
     2
 73
     1
 90
        1
 40
0.5
 41
30.0
 62
     5
 63
     7
421
 16777215
 74
     1
 91
        0
 64
     7
 65
   257
 75
     1
175
     1
 42
1.0
 92
        8
 66
     7
 43
1.0
 76
     1
 77
     6
 78
     2
 67
     7
 79
     3
170
     0
171
     0
290
     0
174
     0
 93
       13
 44
0.0
173
     0
291
     0
 45
0.0
  0
DICTIONARYVAR
  5
389
102
{ACAD_REACTORS
330
388
102
}
330
388
100
DictionaryVariables
280
     0
  1
1:1
  0
DICTIONARYVAR
  5
38B
102
{ACAD_REACTORS
330
388
102
}
330
388
100
DictionaryVariables
280
     0
  1
Standard
  0
DICTIONARYVAR
  5
38A
102
{ACAD_REACTORS
330
388
102
}
330
388
100
DictionaryVariables
280
     0
  1
Standard
  0
DICTIONARYVAR
  5
38C
102
{ACAD_REACTORS
330
388
102
}
330
388
100
DictionaryVariables
280
     0
  1
0
  0
DICTIONARYVAR
  5
38F
102
{ACAD_REACTORS
330
388
102
}
330
388
100
DictionaryVariables
280
     0
  1
0
  0
DICTIONARYVAR
  5
3AE
102
{ACAD_REACTORS
330
388
102
}
330
388
100
DictionaryVariables
280
     0
  1
0
  0
FIELD
  5
377
102
{ACAD_REACTORS
330
387
102
}
330
387
100
AcDbField
  1
_text
  2
{%<\_FldIdx 0>%N}
 90
        1
360
378
 97
        0
 91
       63
 92
        0
 94
       11
 95
        2
 96
        0
300

 93
        1
  6
ACFD_FIELDTEXT_CHECKSUM
 93
        2
 90
        2
140
4485.0
 94
        0
300

302

304
ACVALUE_END
  7
ACFD_FIELD_VALUE
 93
        6
 90
        4
  1
{20180312N}
 94
        0
300

302

304
ACVALUE_END
301
{20180312N}
 98
       11
  0
DICTIONARY
  5
419
330
17D
100
AcDbDictionary
280
     1
281
     1
  3
ACAD_ROUNDTRIP_2008_TABLESTYLE_CELLSTYLEMAP
360
41A
  0
FIELD
  5
378
330
377
100
AcDbField
  1
AcVar
  2
\AcVar Date \f "yyyyMMdd"
 90
        0
 97
        0
 91
       63
 92
        0
 94
        8
 95
       64
 96
        0
300
Variable not supported
 93
        1
  6
Variable
 93
        2
 90
        4
  1
Date
 94
        0
300

302

304
ACVALUE_END
  7
ACFD_FIELD_VALUE
 93
        6
 90
        8
 92
       16
310
E207030000000C000B0002003B000000
 94
        0
300
yyyyMMdd
302

304
ACVALUE_END
301
20180312
 98
        8
  0
CELLSTYLEMAP
  5
41A
102
{ACAD_REACTORS
330
419
102
}
330
419
100
AcDbCellStyleMap
 90
        3
300
CELLSTYLE
  1
TABLEFORMAT_BEGIN
 90
        5
170
     1
 91
        0
 92
    32768
 62
   257
 93
        1
300
CONTENTFORMAT
  1
CONTENTFORMAT_BEGIN
 90
        0
 91
        0
 92
        4
 93
        0
300

 40
0.0
140
1.0
 94
        5
 62
     0
340
17
144
6.0
309
CONTENTFORMAT_END
171
     1
301
MARGIN
  1
CELLMARGIN_BEGIN
 40
1.5
 40
1.5
 40
1.5
 40
1.5
 40
1.5
 40
1.5
309
CELLMARGIN_END
 94
        6
 95
        1
302
GRIDFORMAT
  1
GRIDFORMAT_BEGIN
 90
        0
 91
        1
 62
     0
 92
       -2
340
11
 93
        0
 40
0.045
309
GRIDFORMAT_END
 95
        2
302
GRIDFORMAT
  1
GRIDFORMAT_BEGIN
 90
        0
 91
        1
 62
     0
 92
       -2
340
11
 93
        0
 40
0.045
309
GRIDFORMAT_END
 95
        4
302
GRIDFORMAT
  1
GRIDFORMAT_BEGIN
 90
        0
 91
        1
 62
     0
 92
       -2
340
11
 93
        0
 40
0.045
309
GRIDFORMAT_END
 95
        8
302
GRIDFORMAT
  1
GRIDFORMAT_BEGIN
 90
        0
 91
        1
 62
     0
 92
       -2
340
11
 93
        0
 40
0.045
309
GRIDFORMAT_END
 95
       16
302
GRIDFORMAT
  1
GRIDFORMAT_BEGIN
 90
        0
 91
        1
 62
     0
 92
       -2
340
11
 93
        0
 40
0.045
309
GRIDFORMAT_END
 95
       32
302
GRIDFORMAT
  1
GRIDFORMAT_BEGIN
 90
        0
 91
        1
 62
     0
 92
       -2
340
11
 93
        0
 40
0.045
309
GRIDFORMAT_END
309
TABLEFORMAT_END
  1
CELLSTYLE_BEGIN
 90
        1
 91
        1
300
_TITLE
309
CELLSTYLE_END
300
CELLSTYLE
  1
TABLEFORMAT_BEGIN
 90
        5
170
     1
 91
        0
 92
        0
 62
   257
 93
        1
300
CONTENTFORMAT
  1
CONTENTFORMAT_BEGIN
 90
        0
 91
        0
 92
        4
 93
        0
300

 40
0.0
140
1.0
 94
        5
 62
     0
340
17
144
4.5
309
CONTENTFORMAT_END
171
     1
301
MARGIN
  1
CELLMARGIN_BEGIN
 40
1.5
 40
1.5
 40
1.5
 40
1.5
 40
1.5
 40
1.5
309
CELLMARGIN_END
 94
        6
 95
        1
302
GRIDFORMAT
  1
GRIDFORMAT_BEGIN
 90
        0
 91
        1
 62
     0
 92
       -2
340
11
 93
        0
 40
0.045
309
GRIDFORMAT_END
 95
        2
302
GRIDFORMAT
  1
GRIDFORMAT_BEGIN
 90
        0
 91
        1
 62
     0
 92
       -2
340
11
 93
        0
 40
0.045
309
GRIDFORMAT_END
 95
        4
302
GRIDFORMAT
  1
GRIDFORMAT_BEGIN
 90
        0
 91
        1
 62
     0
 92
       -2
340
11
 93
        0
 40
0.045
309
GRIDFORMAT_END
 95
        8
302
GRIDFORMAT
  1
GRIDFORMAT_BEGIN
 90
        0
 91
        1
 62
     0
 92
       -2
340
11
 93
        0
 40
0.045
309
GRIDFORMAT_END
 95
       16
302
GRIDFORMAT
  1
GRIDFORMAT_BEGIN
 90
        0
 91
        1
 62
     0
 92
       -2
340
11
 93
        0
 40
0.045
309
GRIDFORMAT_END
 95
       32
302
GRIDFORMAT
  1
GRIDFORMAT_BEGIN
 90
        0
 91
        1
 62
     0
 92
       -2
340
11
 93
        0
 40
0.045
309
GRIDFORMAT_END
309
TABLEFORMAT_END
  1
CELLSTYLE_BEGIN
 90
        2
 91
        1
300
_HEADER
309
CELLSTYLE_END
300
CELLSTYLE
  1
TABLEFORMAT_BEGIN
 90
        5
170
     1
 91
        0
 92
        0
 62
   257
 93
        1
300
CONTENTFORMAT
  1
CONTENTFORMAT_BEGIN
 90
        0
 91
        0
 92
        4
 93
        0
300

 40
0.0
140
1.0
 94
        2
 62
     0
340
17
144
4.5
309
CONTENTFORMAT_END
171
     1
301
MARGIN
  1
CELLMARGIN_BEGIN
 40
1.5
 40
1.5
 40
1.5
 40
1.5
 40
1.5
 40
1.5
309
CELLMARGIN_END
 94
        6
 95
        1
302
GRIDFORMAT
  1
GRIDFORMAT_BEGIN
 90
        0
 91
        1
 62
     0
 92
       -2
340
11
 93
        0
 40
0.045
309
GRIDFORMAT_END
 95
        2
302
GRIDFORMAT
  1
GRIDFORMAT_BEGIN
 90
        0
 91
        1
 62
     0
 92
       -2
340
11
 93
        0
 40
0.045
309
GRIDFORMAT_END
 95
        4
302
GRIDFORMAT
  1
GRIDFORMAT_BEGIN
 90
        0
 91
        1
 62
     0
 92
       -2
340
11
 93
        0
 40
0.045
309
GRIDFORMAT_END
 95
        8
302
GRIDFORMAT
  1
GRIDFORMAT_BEGIN
 90
        0
 91
        1
 62
     0
 92
       -2
340
11
 93
        0
 40
0.045
309
GRIDFORMAT_END
 95
       16
302
GRIDFORMAT
  1
GRIDFORMAT_BEGIN
 90
        0
 91
        1
 62
     0
 92
       -2
340
11
 93
        0
 40
0.045
309
GRIDFORMAT_END
 95
       32
302
GRIDFORMAT
  1
GRIDFORMAT_BEGIN
 90
        0
 91
        1
 62
     0
 92
       -2
340
11
 93
        0
 40
0.045
309
GRIDFORMAT_END
309
TABLEFORMAT_END
  1
CELLSTYLE_BEGIN
 90
        3
 91
        2
300
_DATA
309
CELLSTYLE_END
  0
ENDSEC
  0
EOF
