  0
SECTION
  2
HEADER
  9
$ACADVER
  1
AC1021
  9
$ACADMAINTVER
 70
    25
  9
$DWGCODEPAGE
  3
ANSI_932
  9
$LASTSAVEDBY
  1
howeNelson
  9
$INSBASE
 10
0.0
 20
0.0
 30
0.0
  9
$EXTMIN
 10
0.0
 20
0.0
 30
-0.0000000000000071
  9
$EXTMAX
 10
210.0
 20
297.0
 30
0.0000000000000142
  9
$LIMMIN
 10
0.0
 20
0.0
  9
$LIMMAX
 10
210.0
 20
297.0
  9
$ORTHOMODE
 70
     0
  9
$REGENMODE
 70
     1
  9
$FILLMODE
 70
     1
  9
$QTEXTMODE
 70
     0
  9
$MIRRTEXT
 70
     1
  9
$LTSCALE
 40
0.5
  9
$ATTMODE
 70
     1
  9
$TEXTSIZE
 40
2.5
  9
$TRACEWID
 40
1.0
  9
$TEXTSTYLE
  7
ＭＳ ゴシック
  9
$CLAYER
  8
DIM
  9
$CELTYPE
  6
ByLayer
  9
$CECOLOR
 62
   256
  9
$CELTSCALE
 40
1.0
  9
$DISPSILH
 70
     0
  9
$DIMSCALE
 40
1.0
  9
$DIMASZ
 40
1.0
  9
$DIMEXO
 40
2.0
  9
$DIMDLI
 40
0.9999999999999999
  9
$DIMRND
 40
0.0
  9
$DIMDLE
 40
0.0
  9
$DIMEXE
 40
0.0
  9
$DIMTP
 40
0.0
  9
$DIMTM
 40
0.0
  9
$DIMTXT
 40
3.0
  9
$DIMCEN
 40
0.0
  9
$DIMTSZ
 40
0.0
  9
$DIMTOL
 70
     0
  9
$DIMLIM
 70
     0
  9
$DIMTIH
 70
     0
  9
$DIMTOH
 70
     0
  9
$DIMSE1
 70
     0
  9
$DIMSE2
 70
     0
  9
$DIMTAD
 70
     1
  9
$DIMZIN
 70
    11
  9
$DIMBLK
  1
DOT
  9
$DIMASO
 70
     1
  9
$DIMSHO
 70
     1
  9
$DIMPOST
  1
<>
  9
$DIMAPOST
  1
[]
  9
$DIMALT
 70
     0
  9
$DIMALTD
 70
     1
  9
$DIMALTF
 40
1.0
  9
$DIMLFAC
 40
1.0
  9
$DIMTOFL
 70
     0
  9
$DIMTVP
 40
0.0
  9
$DIMTIX
 70
     1
  9
$DIMSOXD
 70
     0
  9
$DIMSAH
 70
     0
  9
$DIMBLK1
  1

  9
$DIMBLK2
  1

  9
$DIMSTYLE
  2
tfrom線あり
  9
$DIMCLRD
 70
     0
  9
$DIMCLRE
 70
     0
  9
$DIMCLRT
 70
     0
  9
$DIMTFAC
 40
1.0
  9
$DIMGAP
 40
1.0
  9
$DIMJUST
 70
     0
  9
$DIMSD1
 70
     0
  9
$DIMSD2
 70
     0
  9
$DIMTOLJ
 70
     1
  9
$DIMTZIN
 70
    11
  9
$DIMALTZ
 70
    11
  9
$DIMALTTZ
 70
    11
  9
$DIMUPT
 70
     0
  9
$DIMDEC
 70
     0
  9
$DIMTDEC
 70
     1
  9
$DIMALTU
 70
     2
  9
$DIMALTTD
 70
     2
  9
$DIMTXSTY
  7
ＭＳ ゴシック
  9
$DIMAUNIT
 70
     0
  9
$DIMADEC
 70
     2
  9
$DIMALTRND
 40
0.0
  9
$DIMAZIN
 70
     0
  9
$DIMDSEP
 70
    46
  9
$DIMATFIT
 70
     0
  9
$DIMFRAC
 70
     2
  9
$DIMLDRBLK
  1
DOT
  9
$DIMLUNIT
 70
     2
  9
$DIMLWD
 70
    -2
  9
$DIMLWE
 70
    -2
  9
$DIMTMOVE
 70
     0
  9
$DIMFXL
 40
1.0
  9
$DIMFXLON
 70
     0
  9
$DIMJOGANG
 40
0.7853981633974483
  9
$DIMTFILL
 70
     0
  9
$DIMTFILLCLR
 70
     0
  9
$DIMARCSYM
 70
     0
  9
$DIMLTYPE
  6

  9
$DIMLTEX1
  6

  9
$DIMLTEX2
  6

  9
$LUNITS
 70
     2
  9
$LUPREC
 70
     0
  9
$SKETCHINC
 40
0.1
  9
$FILLETRAD
 40
0.0
  9
$AUNITS
 70
     0
  9
$AUPREC
 70
     0
  9
$MENU
  1
acad
  9
$ELEVATION
 40
0.0
  9
$PELEVATION
 40
0.0
  9
$THICKNESS
 40
0.0
  9
$LIMCHECK
 70
     0
  9
$CHAMFERA
 40
0.0
  9
$CHAMFERB
 40
0.0
  9
$CHAMFERC
 40
0.0
  9
$CHAMFERD
 40
0.0
  9
$SKPOLY
 70
     0
  9
$TDCREATE
 40
2447893.375
  9
$TDUCREATE
 40
0.0
  9
$TDUPDATE
 40
2458872.698382002
  9
$TDUUPDATE
 40
2458872.323382002
  9
$TDINDWG
 40
0.0058651505
  9
$TDUSRTIMER
 40
0.0061155093
  9
$USRTIMER
 70
     1
  9
$ANGBASE
 50
0.0
  9
$ANGDIR
 70
     0
  9
$PDMODE
 70
     1
  9
$PDSIZE
 40
-2.0
  9
$PLINEWID
 40
0.0
  9
$SPLFRAME
 70
     0
  9
$SPLINETYPE
 70
     6
  9
$SPLINESEGS
 70
     8
  9
$HANDSEED
  5
238D
  9
$SURFTAB1
 70
     6
  9
$SURFTAB2
 70
     6
  9
$SURFTYPE
 70
     6
  9
$SURFU
 70
     6
  9
$SURFV
 70
     6
  9
$UCSBASE
  2

  9
$UCSNAME
  2

  9
$UCSORG
 10
0.0
 20
0.0
 30
0.0
  9
$UCSXDIR
 10
1.0
 20
0.0
 30
0.0
  9
$UCSYDIR
 10
0.0
 20
1.0
 30
0.0
  9
$UCSORTHOREF
  2

  9
$UCSORTHOVIEW
 70
     0
  9
$UCSORGTOP
 10
0.0
 20
0.0
 30
0.0
  9
$UCSORGBOTTOM
 10
0.0
 20
0.0
 30
0.0
  9
$UCSORGLEFT
 10
0.0
 20
0.0
 30
0.0
  9
$UCSORGRIGHT
 10
0.0
 20
0.0
 30
0.0
  9
$UCSORGFRONT
 10
0.0
 20
0.0
 30
0.0
  9
$UCSORGBACK
 10
0.0
 20
0.0
 30
0.0
  9
$PUCSBASE
  2

  9
$PUCSNAME
  2

  9
$PUCSORG
 10
0.0
 20
0.0
 30
0.0
  9
$PUCSXDIR
 10
1.0
 20
0.0
 30
0.0
  9
$PUCSYDIR
 10
0.0
 20
1.0
 30
0.0
  9
$PUCSORTHOREF
  2

  9
$PUCSORTHOVIEW
 70
     0
  9
$PUCSORGTOP
 10
0.0
 20
0.0
 30
0.0
  9
$PUCSORGBOTTOM
 10
0.0
 20
0.0
 30
0.0
  9
$PUCSORGLEFT
 10
0.0
 20
0.0
 30
0.0
  9
$PUCSORGRIGHT
 10
0.0
 20
0.0
 30
0.0
  9
$PUCSORGFRONT
 10
0.0
 20
0.0
 30
0.0
  9
$PUCSORGBACK
 10
0.0
 20
0.0
 30
0.0
  9
$USERI1
 70
     0
  9
$USERI2
 70
     0
  9
$USERI3
 70
     0
  9
$USERI4
 70
     0
  9
$USERI5
 70
     0
  9
$USERR1
 40
0.0
  9
$USERR2
 40
0.0
  9
$USERR3
 40
0.0
  9
$USERR4
 40
0.0
  9
$USERR5
 40
0.0
  9
$WORLDVIEW
 70
     1
  9
$SHADEDGE
 70
     3
  9
$SHADEDIF
 70
    70
  9
$TILEMODE
 70
     1
  9
$MAXACTVP
 70
    64
  9
$PINSBASE
 10
0.0
 20
0.0
 30
0.0
  9
$PLIMCHECK
 70
     0
  9
$PEXTMIN
 10
0.0
 20
0.0
 30
0.0
  9
$PEXTMAX
 10
0.0
 20
0.0
 30
0.0
  9
$PLIMMIN
 10
-7.5
 20
-20.0
  9
$PLIMMAX
 10
412.5
 20
277.0
  9
$UNITMODE
 70
     0
  9
$VISRETAIN
 70
     0
  9
$PLINEGEN
 70
     1
  9
$PSLTSCALE
 70
     0
  9
$TREEDEPTH
 70
  3020
  9
$CMLSTYLE
  2
Standard
  9
$CMLJUST
 70
     0
  9
$CMLSCALE
 40
1.0
  9
$PROXYGRAPHICS
 70
     0
  9
$MEASUREMENT
 70
     1
  9
$CELWEIGHT
370
    -1
  9
$ENDCAPS
280
     0
  9
$JOINSTYLE
280
     0
  9
$LWDISPLAY
290
     1
  9
$INSUNITS
 70
     4
  9
$HYPERLINKBASE
  1

  9
$STYLESHEET
  1

  9
$XEDIT
290
     1
  9
$CEPSNTYPE
380
     0
  9
$PSTYLEMODE
290
     1
  9
$FINGERPRINTGUID
  2

  9
$VERSIONGUID
  2

  9
$EXTNAMES
290
     1
  9
$PSVPSCALE
 40
0.0
  9
$OLESTARTUP
290
     0
  9
$SORTENTS
280
   127
  9
$INDEXCTL
280
     0
  9
$HIDETEXT
280
     1
  9
$XCLIPFRAME
290
     0
  9
$HALOGAP
280
     0
  9
$OBSCOLOR
 70
   257
  9
$OBSLTYPE
280
     0
  9
$INTERSECTIONDISPLAY
280
     0
  9
$INTERSECTIONCOLOR
 70
   257
  9
$DIMASSOC
280
     2
  9
$PROJECTNAME
  1

  9
$CAMERADISPLAY
290
     0
  9
$LENSLENGTH
 40
50.0
  9
$CAMERAHEIGHT
 40
0.0
  9
$STEPSPERSEC
 40
2.0
  9
$STEPSIZE
 40
6.0
  9
$3DDWFPREC
 40
2.0
  9
$PSOLWIDTH
 40
0.25
  9
$PSOLHEIGHT
 40
4.0
  9
$LOFTANG1
 40
1.570796326794897
  9
$LOFTANG2
 40
1.570796326794897
  9
$LOFTMAG1
 40
0.0
  9
$LOFTMAG2
 40
0.0
  9
$LOFTPARAM
 70
     7
  9
$LOFTNORMALS
280
     1
  9
$LATITUDE
 40
37.795
  9
$LONGITUDE
 40
-122.394
  9
$NORTHDIRECTION
 40
0.0
  9
$TIMEZONE
 70
 -8000
  9
$LIGHTGLYPHDISPLAY
280
     1
  9
$TILEMODELIGHTSYNCH
280
     1
  9
$SOLIDHIST
280
     1
  9
$SHOWHIST
280
     1
  9
$DWFFRAME
280
     2
  9
$DGNFRAME
280
     2
  9
$REALWORLDSCALE
290
     1
  9
$INTERFERECOLOR
 62
   256
  9
$CSHADOW
280
     0
  9
$SHADOWPLANELOCATION
 40
0.0
  0
ENDSEC
  0
SECTION
  2
CLASSES
  0
CLASS
  1
LWPOLYLINE
  2
AcDbPolyline
  3
ObjectDBX Classes
 90
        0
 91
        1
280
     0
281
     1
  0
CLASS
  1
IMAGE
  2
AcDbRasterImage
  3
ISM
 90
      127
 91
        5
280
     0
281
     1
  0
CLASS
  1
OLE2FRAME
  2
AcDbOle2Frame
  3
ObjectDBX Classes
 90
        0
 91
        1
280
     0
281
     1
  0
CLASS
  1
HATCH
  2
AcDbHatch
  3
ObjectDBX Classes
 90
        0
 91
        1
280
     0
281
     1
  0
CLASS
  1
DICTIONARYVAR
  2
AcDbDictionaryVar
  3
ObjectDBX Classes
 90
        0
 91
        4
280
     0
281
     0
  0
CLASS
  1
RASTERVARIABLES
  2
AcDbRasterVariables
  3
ISM
 90
        0
 91
        4
280
     0
281
     0
  0
CLASS
  1
IMAGEDEF
  2
AcDbRasterImageDef
  3
ISM
 90
        0
 91
        4
280
     0
281
     0
  0
CLASS
  1
IMAGEDEF_REACTOR
  2
AcDbRasterImageDefReactor
  3
ISM
 90
        1
 91
        4
280
     0
281
     0
  0
CLASS
  1
IDBUFFER
  2
AcDbIdBuffer
  3
ObjectDBX Classes
 90
        0
 91
        4
280
     0
281
     0
  0
CLASS
  1
SPATIAL_FILTER
  2
AcDbSpatialFilter
  3
ObjectDBX Classes
 90
        0
 91
        4
280
     0
281
     0
  0
CLASS
  1
XRECORD
  2
AcDbXrecord
  3
ObjectDBX Classes
 90
        0
 91
        1
280
     0
281
     0
  0
CLASS
  1
SORTENTSTABLE
  2
AcDbSortentsTable
  3
ObjectDBX Classes
 90
        0
 91
        4
280
     0
281
     0
  0
CLASS
  1
LAYER_INDEX
  2
AcDbLayerIndex
  3
ObjectDBX Classes
 90
        0
 91
        4
280
     0
281
     0
  0
CLASS
  1
SPATIAL_INDEX
  2
AcDbSpatialIndex
  3
AutoCAD 2000
 90
        0
 91
        4
280
     0
281
     0
  0
CLASS
  1
OBJECT_PTR
  2
CAseDLPNTableRecord
  3
ASE-LPNTableRecord
 90
        1
 91
        4
280
     0
281
     0
  0
CLASS
  1
LAYOUT
  2
AcDbLayout
  3
ObjectDBX Classes
 90
        0
 91
        1
280
     0
281
     0
  0
CLASS
  1
PLOTSETTINGS
  2
AcDbPlotSettings
  3
ObjectDBX Classes
 90
        0
 91
        4
280
     0
281
     0
  0
CLASS
  1
ACDBDICTIONARYWDFLT
  2
AcDbDictionaryWithDefault
  3
ObjectDBX Classes
 90
        0
 91
        4
280
     0
281
     0
  0
CLASS
  1
ACDBPLACEHOLDER
  2
AcDbPlaceHolder
  3
ObjectDBX Classes
 90
        0
 91
        1
280
     0
281
     0
  0
CLASS
  1
SCALE
  2
AcDbScale
  3
ObjectDBX Classes
 90
     1153
 91
        4
280
     0
281
     0
  0
CLASS
  1
MATERIAL
  2
AcDbMaterial
  3
ObjectDBX Classes
 90
     1153
 91
        4
280
     0
281
     0
  0
CLASS
  1
VISUALSTYLE
  2
AcDbVisualStyle
  3
ObjectDBX Classes
 90
     4095
 91
        4
280
     0
281
     0
  0
CLASS
  1
TABLESTYLE
  2
AcDbTableStyle
  3
ObjectDBX Classes
 90
     4095
 91
        4
280
     0
281
     0
  0
CLASS
  1
DIMASSOC
  2
AcDbDimAssoc
  3
"AcDbDimAssoc|Product Desc:     AcDim ARX App For Dimension|Company:          Autodesk, Inc.|WEB Address:      www.autodesk.com"
 90
        0
 91
        4
280
     0
281
     0
  0
CLASS
  1
CELLSTYLEMAP
  2
AcDbCellStyleMap
  3
ObjectDBX Classes
 90
     1152
 91
        4
280
     0
281
     0
  0
CLASS
  1
SUN
  2
AcDbSun
  3
SCENEOE
 90
     1153
 91
        4
280
     0
281
     0
  0
CLASS
  1
MLEADERSTYLE
  2
AcDbMLeaderStyle
  3
ACDB_MLEADERSTYLE_CLASS
 90
     4095
 91
        4
280
     0
281
     0
  0
CLASS
  1
FIELD
  2
AcDbField
  3
ObjectDBX Classes
 90
     1152
 91
        4
280
     0
281
     0
  0
CLASS
  1
FIELDLIST
  2
AcDbFieldList
  3
ObjectDBX Classes
 90
     1152
 91
        4
280
     0
281
     0
  0
ENDSEC
  0
SECTION
  2
TABLES
  0
TABLE
  2
VPORT
  5
7
330
0
100
AcDbSymbolTable
 70
     1
  0
VPORT
  5
15
330
7
100
AcDbSymbolTableRecord
100
AcDbViewportTableRecord
  2
*ACTIVE
 70
     0
 10
0.0
 20
0.0
 11
1.0
 21
1.0
 12
196.0201356709003
 22
74.90128546983397
 13
0.0
 23
0.0
 14
1.0
 24
1.0
 15
0.0
 25
0.0
 16
0.0
 26
0.0
 36
1.0
 17
-91.02013567090029
 27
73.59871453016603
 37
-46.86809886248109
 40
302.94
 41
2.311764705882353
 42
50.0
 43
0.0
 44
0.0
 50
0.0
 51
0.0
 71
    16
 72
  2000
 73
     1
 74
     1
 75
     0
 76
     0
 77
     0
 78
     0
281
     0
 65
     1
110
0.0
120
0.0
130
0.0
111
1.0
121
0.0
131
0.0
112
0.0
122
1.0
132
0.0
 79
     0
146
0.0
348
26C
 60
     3
 61
     5
292
     1
282
     1
141
0.0
142
0.0
 63
   256
361
904
  0
ENDTAB
  0
TABLE
  2
LTYPE
  5
4
330
0
100
AcDbSymbolTable
 70
     4
  0
LTYPE
  5
11
330
4
100
AcDbSymbolTableRecord
100
AcDbLinetypeTableRecord
  2
ByBlock
 70
     0
  3

 72
    65
 73
     0
 40
0.0
  0
LTYPE
  5
12
330
4
100
AcDbSymbolTableRecord
100
AcDbLinetypeTableRecord
  2
ByLayer
 70
     0
  3

 72
    65
 73
     0
 40
0.0
  0
LTYPE
  5
13
330
4
100
AcDbSymbolTableRecord
100
AcDbLinetypeTableRecord
  2
Continuous
 70
     0
  3
Solid line
 72
    65
 73
     0
 40
0.0
  0
LTYPE
  5
D6C
330
4
100
AcDbSymbolTableRecord
100
AcDbLinetypeTableRecord
  2
BORDER
 70
     0
  3
Border __  __  . __  __  . __  __  . __  __  . 
 72
    65
 73
     6
 40
44.45
 49
12.7
 74
     0
 49
-6.35
 74
     0
 49
12.7
 74
     0
 49
-6.35
 74
     0
 49
0.0
 74
     0
 49
-6.35
 74
     0
  0
LTYPE
  5
2247
330
4
100
AcDbSymbolTableRecord
100
AcDbLinetypeTableRecord
  2
CENTER
 70
     0
  3
 Center _____  _  _____  _  _____  _  _____  _ 
 72
    65
 73
     4
 40
50.8
 49
31.75
 74
     0
 49
-6.35
 74
     0
 49
6.35
 74
     0
 49
-6.35
 74
     0
  0
LTYPE
  5
22FF
330
4
100
AcDbSymbolTableRecord
100
AcDbLinetypeTableRecord
  2
HIDDEN
 70
     0
  3
Hidden _ _ _ _ _ _ _ _ _ _ _ _ _ _ _ _ _ _ _ _ 
 72
    65
 73
     2
 40
9.524999999999999
 49
6.35
 74
     0
 49
-3.175
 74
     0
  0
ENDTAB
  0
TABLE
  2
LAYER
  5
2
102
{ACAD_XDICTIONARY
360
2E1
102
}
330
0
100
AcDbSymbolTable
 70
     6
  0
LAYER
  5
14
330
2
100
AcDbSymbolTableRecord
100
AcDbLayerTableRecord
  2
0
 70
     0
 62
     7
  6
Continuous
370
    -3
390
1D
347
266
  0
LAYER
  5
4B
330
2
100
AcDbSymbolTableRecord
100
AcDbLayerTableRecord
  2
TEMPLATE
 70
     0
 62
     7
  6
Continuous
370
    20
390
1D
347
266
  0
LAYER
  5
4C
330
2
100
AcDbSymbolTableRecord
100
AcDbLayerTableRecord
  2
DIM
 70
     0
 62
     3
  6
Continuous
370
    13
390
1D
347
266
  0
LAYER
  5
4D
330
2
100
AcDbSymbolTableRecord
100
AcDbLayerTableRecord
  2
MODEL
 70
     0
 62
     7
  6
Continuous
370
    20
390
1D
347
266
  0
LAYER
  5
D6B
330
2
100
AcDbSymbolTableRecord
100
AcDbLayerTableRecord
  2
BORDER
 70
     0
 62
     4
  6
BORDER
290
     0
370
    20
390
1D
347
266
1001
AcAecLayerStandard
1000

1000

  0
LAYER
  5
22FE
330
2
100
AcDbSymbolTableRecord
100
AcDbLayerTableRecord
  2
HIDDEN
 70
     0
 62
     8
  6
HIDDEN
370
    20
390
1D
347
266
1001
AcAecLayerStandard
1000

1000

  0
ENDTAB
  0
TABLE
  2
STYLE
  5
3
330
0
100
AcDbSymbolTable
 70
     2
  0
STYLE
  5
17
330
3
100
AcDbSymbolTableRecord
100
AcDbTextStyleTableRecord
  2
Standard
 70
     0
 40
0.0
 41
1.0
 50
0.0
 71
     0
 42
2.5
  3
txt
  4
BIGFONT.SHX
  0
STYLE
  5
39
330
3
100
AcDbSymbolTableRecord
100
AcDbTextStyleTableRecord
  2
ＭＳ ゴシック
 70
     0
 40
0.0
 41
1.0
 50
0.0
 71
     0
 42
2.5
  3
msgothic.ttc
  4
ＭＳ ゴシック
1001
ACAD
1000
ＭＳ ゴシック
1071
        0
  0
ENDTAB
  0
TABLE
  2
VIEW
  5
5
330
0
100
AcDbSymbolTable
 70
     0
  0
ENDTAB
  0
TABLE
  2
UCS
  5
6
330
0
100
AcDbSymbolTable
 70
     0
  0
ENDTAB
  0
TABLE
  2
APPID
  5
8
330
0
100
AcDbSymbolTable
 70
     3
  0
APPID
  5
16
330
8
100
AcDbSymbolTableRecord
100
AcDbRegAppTableRecord
  2
ACAD
 70
     0
  0
APPID
  5
7AC
330
8
100
AcDbSymbolTableRecord
100
AcDbRegAppTableRecord
  2
AcAecLayerStandard
 70
     0
  0
APPID
  5
E29
330
8
100
AcDbSymbolTableRecord
100
AcDbRegAppTableRecord
  2
ACAD_MLEADERVER
 70
     0
  0
ENDTAB
  0
TABLE
  2
DIMSTYLE
  5
9
330
0
100
AcDbSymbolTable
 70
     2
100
AcDbDimStyleTable
  0
DIMSTYLE
105
18
330
9
100
AcDbSymbolTableRecord
100
AcDbDimStyleTableRecord
  2
Standard
 70
     0
178
     0
340
17
  0
DIMSTYLE
105
57
330
9
100
AcDbSymbolTableRecord
100
AcDbDimStyleTableRecord
  2
tfrom線あり
 70
     0
  3
<>
  4
[]
 41
1.0
 42
2.0
 43
0.9999999999999999
 44
0.0
 73
     0
 74
     0
 77
     1
 78
    11
140
3.0
141
0.0
143
1.0
147
1.0
171
     1
174
     1
178
     0
179
     2
271
     0
272
     1
276
     2
284
    11
285
    11
286
    11
289
     0
340
39
341
4E
342
4E
  0
ENDTAB
  0
TABLE
  2
BLOCK_RECORD
  5
1
330
0
100
AcDbSymbolTable
 70
     2
  0
BLOCK_RECORD
  5
A
102
{ACAD_XDICTIONARY
360
2109
102
}
330
1
100
AcDbSymbolTableRecord
100
AcDbBlockTableRecord
  2
*MODEL_SPACE
340
20
 70
     0
280
     1
281
     0
  0
BLOCK_RECORD
  5
B
330
1
100
AcDbSymbolTableRecord
100
AcDbBlockTableRecord
  2
*PAPER_SPACE
340
21
 70
     0
280
     1
281
     0
  0
BLOCK_RECORD
  5
4E
330
1
100
AcDbSymbolTableRecord
100
AcDbBlockTableRecord
  2
_DOT
340
0
 70
     0
280
     1
281
     0
  0
BLOCK_RECORD
  5
68D
330
1
100
AcDbSymbolTableRecord
100
AcDbBlockTableRecord
  2
block 2
340
0
102
{BLKREFS
331
68C
331
1343
102
}
 70
     0
280
     1
281
     0
  0
ENDTAB
  0
ENDSEC
  0
SECTION
  2
BLOCKS
  0
BLOCK
  5
D
330
A
100
AcDbEntity
  8
0
390
1D
100
AcDbBlockBegin
  2
*MODEL_SPACE
 70
     0
 10
0.0
 20
0.0
 30
0.0
  3
*MODEL_SPACE
  1
*MODEL_SPACE
  0
ENDBLK
  5
E
330
A
100
AcDbEntity
  8
0
390
1D
100
AcDbBlockEnd
  0
BLOCK
  5
F
330
B
100
AcDbEntity
 67
     1
  8
0
390
1D
100
AcDbBlockBegin
  2
*PAPER_SPACE
 70
     0
 10
0.0
 20
0.0
 30
0.0
  3
*PAPER_SPACE
  1
*PAPER_SPACE
  0
ENDBLK
  5
10
330
B
100
AcDbEntity
 67
     1
  8
0
390
1D
100
AcDbBlockEnd
  0
BLOCK
  5
1DF2
330
4E
100
AcDbEntity
  8
0
390
1D
100
AcDbBlockBegin
  2
_DOT
 70
     0
 10
0.0
 20
0.0
 30
0.0
  3
_DOT
  1
_DOT
  0
POLYLINE
  5
1DF4
330
4E
100
AcDbEntity
  8
0
  6
ByBlock
 62
     0
370
    -2
390
1D
100
AcDb2dPolyline
 66
     1
 10
0.0
 20
0.0
 30
0.0
 70
     1
 40
0.5
 41
0.5
  0
VERTEX
  5
1DF5
330
1DF4
100
AcDbEntity
  8
0
  6
ByBlock
 62
     0
370
    -2
390
1D
100
AcDbVertex
100
AcDb2dVertex
 10
-0.25
 20
0.0
 30
0.0
 42
1.0
  0
VERTEX
  5
1DF6
330
1DF4
100
AcDbEntity
  8
0
  6
ByBlock
 62
     0
370
    -2
390
1D
100
AcDbVertex
100
AcDb2dVertex
 10
0.25
 20
0.0
 30
0.0
 42
1.0
  0
SEQEND
  5
1DF7
330
1DF4
100
AcDbEntity
  8
0
390
1D
  0
LINE
  5
1DF8
330
4E
100
AcDbEntity
  8
0
  6
ByBlock
 62
     0
370
    -2
390
1D
100
AcDbLine
 10
-0.5
 20
0.0
 30
0.0
 11
-1.0
 21
0.0
 31
0.0
  0
ENDBLK
  5
1DF9
330
4E
100
AcDbEntity
  8
0
390
1D
100
AcDbBlockEnd
  0
BLOCK
  5
68E
330
68D
100
AcDbEntity
  8
0
100
AcDbBlockBegin
  2
block 2
 70
     0
 10
0.0
 20
0.0
 30
0.0
  3
block 2
  1
block 2
  0
ENDBLK
  5
6B0
330
68D
100
AcDbEntity
  8
0
100
AcDbBlockEnd
  0
ENDSEC
  0
SECTION
  2
ENTITIES
  0
MTEXT
  5
177
330
A
100
AcDbEntity
  8
TEMPLATE
390
1D
100
AcDbMText
 10
7.920214454773076
 20
34.37317516314283
 30
0.0
 40
1.628841145833333
 41
0.0
 46
0.0
 71
     1
 72
     1
  1
品名
  7
ＭＳ ゴシック
 73
     1
 44
0.7828267384257843
  0
MTEXT
  5
178
330
A
100
AcDbEntity
  8
TEMPLATE
390
1D
100
AcDbMText
 10
7.920214454773076
 20
25.8731751631428
 30
0.0
 40
1.628841145833333
 41
0.0
 46
0.0
 71
     1
 72
     1
  1
仕様
  7
ＭＳ ゴシック
 73
     1
 44
0.7828267384257843
  0
LINE
  5
179
330
A
100
AcDbEntity
  8
TEMPLATE
390
1D
100
AcDbLine
 10
202.2202144547248
 20
26.71466735064284
 30
0.0
 11
7.220214454724874
 21
26.71466735064284
 31
0.0
  0
LWPOLYLINE
  5
17A
330
A
100
AcDbEntity
  8
TEMPLATE
390
1D
100
AcDbPolyline
 90
        5
 70
   128
 43
0.0
 10
202.2202144547248
 20
289.7146673506426
 10
7.220214454724874
 20
289.7146673506426
 10
7.220214454724874
 20
9.714667350642827
 10
202.2202144547248
 20
9.714667350642827
 10
202.2202144547248
 20
289.7146673506426
  0
LINE
  5
17B
330
A
100
AcDbEntity
  8
TEMPLATE
390
1D
100
AcDbLine
 10
202.2202144547248
 20
35.21466735064282
 30
0.0
 11
7.220214454724874
 21
35.21466735064282
 31
0.0
  0
LINE
  5
17C
330
A
100
AcDbEntity
  8
TEMPLATE
390
1D
100
AcDbLine
 10
202.2202144547732
 20
18.21466735064282
 30
0.0
 11
126.920214454773
 21
18.21466735064282
 31
0.0
  0
MTEXT
  5
17E
330
A
100
AcDbEntity
  8
TEMPLATE
390
1D
100
AcDbMText
 10
129.9073550799991
 20
15.22362790331201
 30
0.0
 40
2.44326171875
 41
0.0
 46
0.0
 71
     1
 72
     1
  1
大洋金物株式会社 ティーフォルム事業部
  7
ＭＳ ゴシック
 73
     1
 44
0.7828267384257843
  0
MTEXT
  5
180
330
A
100
AcDbEntity
  8
TEMPLATE
390
1D
100
AcDbMText
 10
183.120214454799
 20
23.01492906939282
 30
0.0
 40
2.44326171875
 41
0.0
 46
2.44326171875
 71
     1
 72
     1
  1
{1:1}
  7
ＭＳ ゴシック
 73
     1
 44
0.7828267384257843
1001
ACAD
1000
ACAD_MTEXT_DEFINED_HEIGHT_BEGIN
1070
    46
1040
2.44326171875
1000
ACAD_MTEXT_DEFINED_HEIGHT_END
  0
MTEXT
  5
181
330
A
100
AcDbEntity
  8
TEMPLATE
390
1D
100
AcDbMText
 10
177.820214454799
 20
25.8731751631428
 30
0.0
 40
1.628841145833333
 41
0.0
 46
0.0
 71
     1
 72
     1
  1
縮尺
  7
ＭＳ ゴシック
 73
     1
 44
0.7828267384257843
  0
LINE
  5
182
330
A
100
AcDbEntity
  8
TEMPLATE
390
1D
100
AcDbLine
 10
177.120214454799
 20
18.21466735064282
 30
0.0
 11
177.120214454799
 21
26.71466735064284
 31
0.0
  0
MTEXT
  5
183
330
A
100
AcDbEntity
  8
TEMPLATE
390
1D
100
AcDbMText
 10
152.720214454799
 20
25.8731751631428
 30
0.0
 40
1.628841145833333
 41
0.0
 46
0.0
 71
     1
 72
     1
  1
容量
  7
ＭＳ ゴシック
 73
     1
 44
0.7828267384257843
  0
LINE
  5
184
330
A
100
AcDbEntity
  8
TEMPLATE
390
1D
100
AcDbLine
 10
152.020214454799
 20
18.21466735064282
 30
0.0
 11
152.020214454799
 21
26.71466735064284
 31
0.0
  0
MTEXT
  5
185
330
A
100
AcDbEntity
  8
TEMPLATE
390
1D
100
AcDbMText
 10
127.620214454799
 20
34.37317516314283
 30
0.0
 40
1.628841145833333
 41
0.0
 46
0.0
 71
     1
 72
     1
  1
品番
  7
ＭＳ ゴシック
 73
     1
 44
0.7828267384257843
  0
MTEXT
  5
186
330
A
100
AcDbEntity
  8
TEMPLATE
390
1D
100
AcDbMText
 10
127.620214454799
 20
25.8731751631428
 30
0.0
 40
1.628841145833333
 41
0.0
 46
0.0
 71
     1
 72
     1
  1
重量
  7
ＭＳ ゴシック
 73
     1
 44
0.7828267384257843
  0
LINE
  5
188
330
A
100
AcDbEntity
  8
TEMPLATE
390
1D
100
AcDbLine
 10
126.920214454799
 20
9.714667350642827
 30
0.0
 11
126.920214454799
 21
35.21466735064282
 31
0.0
  0
INSERT
  5
68C
330
A
100
AcDbEntity
  8
TEMPLATE
100
AcDbBlockReference
  2
block 2
 10
183.8548603540515
 20
1.674615302867274
 30
0.0
 41
0.0762
 42
0.0762
 43
0.0762
  0
LWPOLYLINE
  5
D69
330
A
100
AcDbEntity
  8
BORDER
100
AcDbPolyline
 90
        4
 70
     1
 43
0.0
 10
0.0
 20
0.0
 10
0.0
 20
297.0
 10
210.0
 20
297.0
 10
210.0
 20
0.0
  0
INSERT
  5
1343
330
A
100
AcDbEntity
  8
TEMPLATE
100
AcDbBlockReference
  2
block 2
 10
419.3486941732937
 20
4.887064282459138
 30
0.0
 41
0.0762
 42
0.0762
 43
0.0762
  0
MTEXT
  5
1EAB
102
{ACAD_XDICTIONARY
360
1EAC
102
}
330
A
100
AcDbEntity
  8
TEMPLATE
100
AcDbMText
 10
7.472865654857031
 20
8.386172105142833
 30
0.0
 40
2.2
 41
0.0
 46
2.2
 71
     1
 72
     1
  1
{20200124N}
  7
ＭＳ ゴシック
 73
     1
 44
1.0
1001
ACAD
1000
ACAD_MTEXT_DEFINED_HEIGHT_BEGIN
1070
    46
1040
2.2
1000
ACAD_MTEXT_DEFINED_HEIGHT_END
  0
MTEXT
  5
1EB1
330
A
100
AcDbEntity
  8
TEMPLATE
390
1D
100
AcDbMText
 10
13.22021445477307
 20
31.51492906939281
 30
0.0
 40
2.44326171875
 41
0.0
 46
2.85128642578125
 71
     1
 72
     1
  1
{シャワーホース　-GROHE, ShowerSystem-}
  7
ＭＳ ゴシック
 73
     1
 44
0.7828267384257843
1001
ACAD
1000
ACAD_MTEXT_DEFINED_HEIGHT_BEGIN
1070
    46
1040
2.85128642578125
1000
ACAD_MTEXT_DEFINED_HEIGHT_END
  0
MTEXT
  5
1EB2
330
A
100
AcDbEntity
  8
TEMPLATE
390
1D
100
AcDbMText
 10
132.920214454799
 20
31.51492906939281
 30
0.0
 40
2.44326171875
 41
0.0
 46
2.44326171875
 71
     1
 72
     1
  1
{FHT73-3333}
  7
ＭＳ ゴシック
 73
     1
 44
0.7828267384257843
1001
ACAD
1000
ACAD_MTEXT_DEFINED_HEIGHT_BEGIN
1070
    46
1040
2.44326171875
1000
ACAD_MTEXT_DEFINED_HEIGHT_END
  0
HATCH
  5
2071
102
{ACAD_REACTORS
330
20A3
102
}
330
A
100
AcDbEntity
  8
TEMPLATE
100
AcDbHatch
 10
0.0
 20
0.0
 30
0.0
210
0.0
220
0.0
230
1.0
  2
SOLID
 70
     1
 71
     1
 91
        6
 92
        1
 93
        8
 72
     1
 10
193.3992346462619
 20
15.33324928988617
 11
193.3992346462619
 21
14.74230852682012
 72
     1
 10
193.3992346462619
 20
14.74230852682012
 11
192.4631754912307
 21
14.74230852682012
 72
     1
 10
192.4631754912307
 20
14.74230852682012
 11
192.4631754912307
 21
12.33324929003077
 72
     1
 10
192.4631754912307
 20
12.33324929003077
 11
191.6399141759031
 21
12.33324929003077
 72
     1
 10
191.6399141759031
 20
12.33324929003077
 11
191.6399141759031
 21
14.74230852682012
 72
     1
 10
191.6399141759031
 20
14.74230852682012
 11
190.7204440324488
 21
14.74230852682012
 72
     1
 10
190.7204440324488
 20
14.74230852682012
 11
190.7204440324488
 21
15.33324928988617
 72
     1
 10
190.7204440324488
 20
15.33324928988617
 11
193.3992346462619
 21
15.33324928988617
 97
        1
330
2072
 92
        1
 93
        1
 72
     4
 94
        3
 73
     0
 74
     1
 95
       56
 96
       52
 40
0.0
 40
0.0
 40
0.0
 40
0.0
 40
1.0
 40
1.0
 40
1.0
 40
2.0
 40
2.0
 40
2.0
 40
3.0
 40
3.0
 40
3.0
 40
4.0
 40
4.0
 40
4.0
 40
5.0
 40
5.0
 40
5.0
 40
6.0
 40
6.0
 40
6.0
 40
7.0
 40
7.0
 40
7.0
 40
8.0
 40
8.0
 40
8.0
 40
9.0
 40
9.0
 40
9.0
 40
10.0
 40
10.0
 40
10.0
 40
11.0
 40
11.0
 40
11.0
 40
12.0
 40
12.0
 40
12.0
 40
13.0
 40
13.0
 40
13.0
 40
14.0
 40
14.0
 40
14.0
 40
15.0
 40
15.0
 40
15.0
 40
16.0
 40
16.0
 40
16.0
 40
17.0
 40
17.0
 40
17.0
 40
17.0
 10
194.6534531896912
 20
15.26181239384494
 10
194.768839807883
 20
15.29429114924596
 10
194.9177987172164
 20
15.26712385315697
 10
194.9177987172164
 20
15.26712385315697
 10
194.9177987172164
 20
15.26712385315697
 10
194.8462353578582
 20
15.05236682391462
 10
194.8462353578582
 20
15.05236682391462
 10
194.8462353578582
 20
15.05236682391462
 10
194.6999991293486
 20
15.08620691972755
 10
194.5872087286637
 20
14.99726601281628
 10
194.4995622109965
 20
14.92771118849205
 10
194.4427801816846
 20
14.74289620929302
 10
194.420998735094
 20
14.67262723917894
 10
194.420998735094
 20
14.67262723917894
 10
194.3238897857113
 20
14.37456064013906
 10
194.3238897857113
 20
14.37456064013906
 10
194.3238897857113
 20
14.37456064013906
 10
194.6423021007434
 20
14.37456064013906
 10
194.6423021007434
 20
14.37456064013906
 10
194.6423021007434
 20
14.37456064013906
 10
194.5927805536282
 20
14.18696346796705
 10
194.5927805536282
 20
14.18696346796705
 10
194.5927805536282
 20
14.18696346796705
 10
194.2717720210894
 20
14.18696346796705
 10
194.2717720210894
 20
14.18696346796705
 10
194.2717720210894
 20
14.18696346796705
 10
193.6974277086187
 20
12.33324929003077
 10
193.6974277086187
 20
12.33324929003077
 10
193.6974277086187
 20
12.33324929003077
 10
193.51760431093
 20
12.33324929003077
 10
193.51760431093
 20
12.33324929003077
 10
193.51760431093
 20
12.33324929003077
 10
194.0924693547057
 20
14.18696346796705
 10
194.0924693547057
 20
14.18696346796705
 10
194.0924693547057
 20
14.18696346796705
 10
193.8555961230339
 20
14.18696346796705
 10
193.8555961230339
 20
14.18696346796705
 10
193.8555961230339
 20
14.18696346796705
 10
193.9052515724846
 20
14.37456064013906
 10
193.9052515724846
 20
14.37456064013906
 10
193.9052515724846
 20
14.37456064013906
 10
194.1445871193277
 20
14.37456064013906
 10
194.1445871193277
 20
14.37456064013906
 10
194.1445871193277
 20
14.37456064013906
 10
194.2292431514999
 20
14.63450970764554
 10
194.2292431514999
 20
14.63450970764554
 10
194.2976970010647
 20
14.85245063686765
 10
194.3557808586394
 20
14.96945896112388
 10
194.4055702104258
 20
15.05767828322665
 10
194.4548313918883
 20
15.14597199551587
 10
194.5523271702405
 20
15.23270351388978
 10
194.6534531896912
 20
15.26181239384494
 97
        1
330
207D
 92
        1
 93
        1
 72
     4
 94
        3
 73
     0
 74
     1
 95
       32
 96
       28
 40
0.0
 40
0.0
 40
0.0
 40
0.0
 40
1.0
 40
1.0
 40
1.0
 40
2.0
 40
2.0
 40
2.0
 40
3.0
 40
3.0
 40
3.0
 40
4.0
 40
4.0
 40
4.0
 40
5.0
 40
5.0
 40
5.0
 40
6.0
 40
6.0
 40
6.0
 40
7.0
 40
7.0
 40
7.0
 40
8.0
 40
8.0
 40
8.0
 40
9.0
 40
9.0
 40
9.0
 40
9.0
 10
195.0910088273304
 20
14.2611899959999
 10
194.9827562280185
 20
14.12116534805821
 10
194.8993945850904
 20
13.99514837222373
 10
194.7644359088455
 20
13.59907270254517
 10
194.6403605168772
 20
13.23677761653038
 10
194.5614027729866
 20
12.97319830792548
 10
194.5494780260998
 20
12.65218977538657
 10
194.5404024233537
 20
12.41330800868075
 10
194.6858649939244
 20
12.33324929003077
 10
194.8991416584565
 20
12.33324929003077
 10
194.9910581728255
 20
12.33324929003077
 10
195.2230067741548
 20
12.33909635868519
 10
195.388182744133
 20
12.54328254243399
 10
195.5038148499399
 20
12.68673657797071
 10
195.6103862310383
 20
12.8354425606703
 10
195.7532600231207
 20
13.32324876925175
 10
195.8721504190939
 20
13.73105577133237
 10
195.9544705994118
 20
13.99462764091863
 10
195.9483854821607
 20
14.14469496403013
 10
195.9483854821607
 20
14.14469496403013
 10
195.9483854821607
 20
14.14469496403013
 10
195.9483854821607
 20
14.14469496403013
 10
195.9096133169866
 20
14.39504769748547
 10
195.7278483354318
 20
14.4479465590651
 10
195.6239996351573
 20
14.4479465590651
 10
195.5217131287981
 20
14.4479465590651
 10
195.2476299258675
 20
14.46564398441989
 10
195.0910088273304
 20
14.2611899959999
 97
        1
330
2080
 92
        1
 93
        1
 72
     4
 94
        3
 73
     0
 74
     1
 95
       38
 96
       34
 40
0.0
 40
0.0
 40
0.0
 40
0.0
 40
1.0
 40
1.0
 40
1.0
 40
2.0
 40
2.0
 40
2.0
 40
3.0
 40
3.0
 40
3.0
 40
4.0
 40
4.0
 40
4.0
 40
5.0
 40
5.0
 40
5.0
 40
6.0
 40
6.0
 40
6.0
 40
7.0
 40
7.0
 40
7.0
 40
8.0
 40
8.0
 40
8.0
 40
9.0
 40
9.0
 40
9.0
 40
10.0
 40
10.0
 40
10.0
 40
11.0
 40
11.0
 40
11.0
 40
11.0
 10
196.6058310719068
 20
14.36736710911002
 10
196.6058310719068
 20
14.36736710911002
 10
196.790705563255
 20
14.36736710911002
 10
196.790705563255
 20
14.36736710911002
 10
196.790705563255
 20
14.36736710911002
 10
196.708117578266
 20
14.10294719139831
 10
196.708117578266
 20
14.10294719139831
 10
196.7708731395493
 20
14.17717371943115
 10
196.8699162337796
 20
14.27603083819528
 10
196.9549739729585
 20
14.32587970213075
 10
197.0820324114032
 20
14.40010623016359
 10
197.1546372333715
 20
14.40989597869949
 10
197.2344876594995
 20
14.40794695581469
 10
197.2344876594995
 20
14.40794695581469
 10
197.1564523539208
 20
14.1579215391797
 10
197.1564523539208
 20
14.1579215391797
 10
197.1056289785429
 20
14.17944262011767
 10
196.9490078800058
 20
14.1384759444435
 10
196.8591594128199
 20
14.0738457504618
 10
196.7781336217462
 20
14.01556847840234
 10
196.7221178113546
 20
13.96597998011942
 10
196.6557468870101
 20
13.84131690567822
 10
196.5898818159334
 20
13.71646785577089
 10
196.5378979536471
 20
13.51739227783074
 10
196.4484363154307
 20
13.22859469602165
 10
196.4484363154307
 20
13.22859469602165
 10
196.169041653188
 20
12.33324929003077
 10
196.169041653188
 20
12.33324929003077
 10
196.169041653188
 20
12.33324929003077
 10
195.9896125234874
 20
12.33324929003077
 10
195.9896125234874
 20
12.33324929003077
 10
195.9896125234874
 20
12.33324929003077
 10
196.6058310719068
 20
14.36736710911002
 10
196.6058310719068
 20
14.36736710911002
 97
        1
330
207E
 92
        1
 93
        1
 72
     4
 94
        3
 73
     0
 74
     1
 95
      104
 96
      100
 40
0.0
 40
0.0
 40
0.0
 40
0.0
 40
1.0
 40
1.0
 40
1.0
 40
2.0
 40
2.0
 40
2.0
 40
3.0
 40
3.0
 40
3.0
 40
4.0
 40
4.0
 40
4.0
 40
5.0
 40
5.0
 40
5.0
 40
6.0
 40
6.0
 40
6.0
 40
7.0
 40
7.0
 40
7.0
 40
8.0
 40
8.0
 40
8.0
 40
9.0
 40
9.0
 40
9.0
 40
10.0
 40
10.0
 40
10.0
 40
11.0
 40
11.0
 40
11.0
 40
12.0
 40
12.0
 40
12.0
 40
13.0
 40
13.0
 40
13.0
 40
14.0
 40
14.0
 40
14.0
 40
15.0
 40
15.0
 40
15.0
 40
16.0
 40
16.0
 40
16.0
 40
17.0
 40
17.0
 40
17.0
 40
18.0
 40
18.0
 40
18.0
 40
19.0
 40
19.0
 40
19.0
 40
20.0
 40
20.0
 40
20.0
 40
21.0
 40
21.0
 40
21.0
 40
22.0
 40
22.0
 40
22.0
 40
23.0
 40
23.0
 40
23.0
 40
24.0
 40
24.0
 40
24.0
 40
25.0
 40
25.0
 40
25.0
 40
26.0
 40
26.0
 40
26.0
 40
27.0
 40
27.0
 40
27.0
 40
28.0
 40
28.0
 40
28.0
 40
29.0
 40
29.0
 40
29.0
 40
30.0
 40
30.0
 40
30.0
 40
31.0
 40
31.0
 40
31.0
 40
32.0
 40
32.0
 40
32.0
 40
33.0
 40
33.0
 40
33.0
 40
33.0
 10
197.6234441883354
 20
14.36846808386937
 10
197.6234441883354
 20
14.36846808386937
 10
197.7848560148795
 20
14.36846808386937
 10
197.7848560148795
 20
14.36846808386937
 10
197.7848560148795
 20
14.36846808386937
 10
197.7033094925007
 20
14.10379523952376
 10
197.7033094925007
 20
14.10379523952376
 10
197.7740843158826
 20
14.21477051965945
 10
197.8376135351049
 20
14.26423255462542
 10
197.9220166406432
 20
14.32814860281726
 10
198.0066726728153
 20
14.3911570907345
 10
198.1071589366625
 20
14.40399683691456
 10
198.1769071754715
 20
14.40399683691456
 10
198.2632593038946
 20
14.40399683691456
 10
198.3466209468226
 20
14.38694660618182
 10
198.3904367666375
 20
14.29229997197037
 10
198.4240164967979
 20
14.21808088295617
 10
198.4255786907132
 20
14.20932515801183
 10
198.4159823566621
 20
14.06282112483094
 10
198.5037478986276
 20
14.21302235027805
 10
198.568571507094
 20
14.27771949542754
 10
198.6787731292907
 20
14.33987993521932
 10
198.794420113135
 20
14.40399683691456
 10
198.8618325000897
 20
14.40879500394014
 10
198.9401504883769
 20
14.39724964700418
 10
199.05552966755
 20
14.38020685529008
 10
199.1291759521286
 20
14.33903932611252
 10
199.1676803126315
 20
14.21392991055265
 10
199.20631857547
 20
14.08920732396228
 10
199.1854446891541
 20
14.02230822929408
 10
199.1377308235695
 20
13.82375338265902
 10
199.115949376979
 20
13.73332467201888
 10
199.0844376940018
 20
13.62382975659341
 10
199.043210652675
 20
13.4935427840571
 10
199.043210652675
 20
13.4935427840571
 10
198.6787731292907
 20
12.33324929003077
 10
198.6787731292907
 20
12.33324929003077
 10
198.6787731292907
 20
12.33324929003077
 10
198.4892269342339
 20
12.33324929003077
 10
198.4892269342339
 20
12.33324929003077
 10
198.4892269342339
 20
12.33324929003077
 10
198.8083013219253
 20
13.34761899433048
 10
198.8083013219253
 20
13.34761899433048
 10
198.8749400509409
 20
13.55985419625241
 10
198.92005026
 20
13.71484614970644
 10
198.9433939005058
 20
13.81202205025695
 10
198.972688755927
 20
13.93324085906585
 10
198.9843531371613
 20
13.97324046231626
 10
198.9704868064084
 20
14.06146722343768
 10
198.9577809625639
 20
14.14359398927077
 10
198.916286116566
 20
14.19707309430466
 10
198.8452434885129
 20
14.19707309430466
 10
198.7695291567512
 20
14.19707309430466
 10
198.7082018870476
 20
14.18864468618067
 10
198.6223853679669
 20
14.10243389911185
 10
198.536553970849
 20
14.01556847840234
 10
198.4656303670941
 20
13.9136018498449
 10
198.4100162637093
 20
13.79633315993612
 10
198.3545211846229
 20
13.6783503242375
 10
198.2982524475973
 20
13.52880373243109
 10
198.2412100526329
 20
13.34761899433048
 10
198.2412100526329
 20
13.34761899433048
 10
197.9220166406432
 20
12.33324929003077
 10
197.9220166406432
 20
12.33324929003077
 10
197.9220166406432
 20
12.33324929003077
 10
197.7437479978511
 20
12.33324929003077
 10
197.7437479978511
 20
12.33324929003077
 10
197.7437479978511
 20
12.33324929003077
 10
198.1087062525406
 20
13.493022052752
 10
198.1087062525406
 20
13.493022052752
 10
198.1472106130435
 20
13.61645025009826
 10
198.1761335175325
 20
13.7170555382438
 10
198.1951922832992
 20
13.79568596531406
 10
198.2275966485138
 20
13.93103890954714
 10
198.2366722512598
 20
14.02256859494663
 10
198.2121681238455
 20
14.10379523952376
 10
198.1880508254007
 20
14.18476151844834
 10
198.1456632971655
 20
14.2054419902795
 10
198.0748735957463
 20
14.2054419902795
 10
198.0154953489275
 20
14.2054419902795
 10
197.9575453936883
 20
14.17996335142277
 10
197.8914273959778
 20
14.12926643936185
 10
197.8081847773481
 20
14.06548429350561
 10
197.7748728518588
 20
14.01310616323108
 10
197.7340326395017
 20
13.95087133325285
 10
197.6789243893847
 20
13.86854371391636
 10
197.6531258727262
 20
13.81312302501631
 10
197.6065873720875
 20
13.69150994821926
 10
197.5600339934114
 20
13.56918272563237
 10
197.5159652469626
 20
13.426829664855
 10
197.4852272219243
 20
13.32836681407902
 10
197.4852272219243
 20
13.32836681407902
 10
197.172133805223
 20
12.33324929003077
 10
197.172133805223
 20
12.33324929003077
 10
197.172133805223
 20
12.33324929003077
 10
196.9854441933256
 20
12.33324929003077
 10
196.9854441933256
 20
12.33324929003077
 10
196.9854441933256
 20
12.33324929003077
 10
197.6234441883354
 20
14.36846808386937
 10
197.6234441883354
 20
14.36846808386937
 97
        1
330
207F
 92
       16
 93
        1
 72
     4
 94
        3
 73
     0
 74
     1
 95
       29
 96
       25
 40
0.0
 40
0.0
 40
0.0
 40
0.0
 40
1.0
 40
1.0
 40
1.0
 40
2.0
 40
2.0
 40
2.0
 40
3.0
 40
3.0
 40
3.0
 40
4.0
 40
4.0
 40
4.0
 40
5.0
 40
5.0
 40
5.0
 40
6.0
 40
6.0
 40
6.0
 40
7.0
 40
7.0
 40
7.0
 40
8.0
 40
8.0
 40
8.0
 40
8.0
 10
194.7431751935601
 20
12.71220777780879
 10
194.7423866575838
 20
12.85392108298274
 10
194.7871249157106
 20
13.10570210801778
 10
194.9017304369448
 20
13.44258550634363
 10
195.0578308041768
 20
13.89875356863087
 10
195.1514434147967
 20
14.06548429350561
 10
195.2333618881077
 20
14.14664398691494
 10
195.3530408200572
 20
14.26482023709832
 10
195.5139319152962
 20
14.2707119398646
 10
195.5613928542469
 20
14.26482023709832
 10
195.6289391435371
 20
14.25671170677603
 10
195.7243519966689
 20
14.21250161897294
 10
195.7300502849505
 20
14.06366917295639
 10
195.7346029643608
 20
13.93629085671002
 10
195.6978988463698
 20
13.69773640682454
 10
195.5694269943827
 20
13.32324876925175
 10
195.4213607672865
 20
12.88808105659738
 10
195.3324198603752
 20
12.71701338385301
 10
195.2611243056883
 20
12.64245953899982
 10
195.1268053850467
 20
12.50269525671068
 10
194.9827562280185
 20
12.516115246345
 10
194.9614955127331
 20
12.516115246345
 10
194.9338818755254
 20
12.516115246345
 10
194.7435620225296
 20
12.54607961344425
 10
194.7431751935601
 20
12.71220777780879
 97
        1
330
2081
 75
     0
 76
     1
 98
        1
 10
185.8850447185594
 20
7.249468582626761
1001
ACAD
1010
0.0
1020
0.0
1030
0.0
  0
POLYLINE
  5
2072
102
{ACAD_REACTORS
330
2071
330
20A3
102
}
330
A
100
AcDbEntity
  8
TEMPLATE
100
AcDb2dPolyline
 66
     1
 10
0.0
 20
0.0
 30
0.0
  0
VERTEX
  5
2073
330
2072
100
AcDbEntity
  8
TEMPLATE
100
AcDbVertex
100
AcDb2dVertex
 10
193.3992346462619
 20
15.33324928988617
 30
0.0
  0
VERTEX
  5
2074
330
2072
100
AcDbEntity
  8
TEMPLATE
100
AcDbVertex
100
AcDb2dVertex
 10
193.3992346462619
 20
14.74230852682012
 30
0.0
  0
VERTEX
  5
2075
330
2072
100
AcDbEntity
  8
TEMPLATE
100
AcDbVertex
100
AcDb2dVertex
 10
192.4631754912307
 20
14.74230852682012
 30
0.0
  0
VERTEX
  5
2076
330
2072
100
AcDbEntity
  8
TEMPLATE
100
AcDbVertex
100
AcDb2dVertex
 10
192.4631754912307
 20
12.33324929003077
 30
0.0
  0
VERTEX
  5
2077
330
2072
100
AcDbEntity
  8
TEMPLATE
100
AcDbVertex
100
AcDb2dVertex
 10
191.6399141759031
 20
12.33324929003077
 30
0.0
  0
VERTEX
  5
2078
330
2072
100
AcDbEntity
  8
TEMPLATE
100
AcDbVertex
100
AcDb2dVertex
 10
191.6399141759031
 20
14.74230852682012
 30
0.0
  0
VERTEX
  5
2079
330
2072
100
AcDbEntity
  8
TEMPLATE
100
AcDbVertex
100
AcDb2dVertex
 10
190.7204440324488
 20
14.74230852682012
 30
0.0
  0
VERTEX
  5
207A
330
2072
100
AcDbEntity
  8
TEMPLATE
100
AcDbVertex
100
AcDb2dVertex
 10
190.7204440324488
 20
15.33324928988617
 30
0.0
  0
VERTEX
  5
207B
330
2072
100
AcDbEntity
  8
TEMPLATE
100
AcDbVertex
100
AcDb2dVertex
 10
193.3992346462619
 20
15.33324928988617
 30
0.0
  0
SEQEND
  5
207C
330
2072
100
AcDbEntity
  8
TEMPLATE
  0
SPLINE
  5
207D
102
{ACAD_REACTORS
330
2071
330
20A3
102
}
330
A
100
AcDbEntity
  8
TEMPLATE
100
AcDbSpline
210
0.0
220
0.0
230
1.0
 70
    11
 71
     3
 72
    56
 73
    52
 74
     0
 42
0.000000001
 43
0.0000000001
 40
0.0
 40
0.0
 40
0.0
 40
0.0
 40
1.0
 40
1.0
 40
1.0
 40
2.0
 40
2.0
 40
2.0
 40
3.0
 40
3.0
 40
3.0
 40
4.0
 40
4.0
 40
4.0
 40
5.0
 40
5.0
 40
5.0
 40
6.0
 40
6.0
 40
6.0
 40
7.0
 40
7.0
 40
7.0
 40
8.0
 40
8.0
 40
8.0
 40
9.0
 40
9.0
 40
9.0
 40
10.0
 40
10.0
 40
10.0
 40
11.0
 40
11.0
 40
11.0
 40
12.0
 40
12.0
 40
12.0
 40
13.0
 40
13.0
 40
13.0
 40
14.0
 40
14.0
 40
14.0
 40
15.0
 40
15.0
 40
15.0
 40
16.0
 40
16.0
 40
16.0
 40
17.0
 40
17.0
 40
17.0
 40
17.0
 10
194.6534531896912
 20
15.26181239384494
 30
0.0
 10
194.768839807883
 20
15.29429114924596
 30
0.0
 10
194.9177987172164
 20
15.26712385315697
 30
0.0
 10
194.9177987172164
 20
15.26712385315697
 30
0.0
 10
194.9177987172164
 20
15.26712385315697
 30
0.0
 10
194.8462353578582
 20
15.05236682391462
 30
0.0
 10
194.8462353578582
 20
15.05236682391462
 30
0.0
 10
194.8462353578582
 20
15.05236682391462
 30
0.0
 10
194.6999991293486
 20
15.08620691972755
 30
0.0
 10
194.5872087286637
 20
14.99726601281628
 30
0.0
 10
194.4995622109965
 20
14.92771118849205
 30
0.0
 10
194.4427801816846
 20
14.74289620929302
 30
0.0
 10
194.420998735094
 20
14.67262723917894
 30
0.0
 10
194.420998735094
 20
14.67262723917894
 30
0.0
 10
194.3238897857113
 20
14.37456064013906
 30
0.0
 10
194.3238897857113
 20
14.37456064013906
 30
0.0
 10
194.3238897857113
 20
14.37456064013906
 30
0.0
 10
194.6423021007434
 20
14.37456064013906
 30
0.0
 10
194.6423021007434
 20
14.37456064013906
 30
0.0
 10
194.6423021007434
 20
14.37456064013906
 30
0.0
 10
194.5927805536282
 20
14.18696346796705
 30
0.0
 10
194.5927805536282
 20
14.18696346796705
 30
0.0
 10
194.5927805536282
 20
14.18696346796705
 30
0.0
 10
194.2717720210894
 20
14.18696346796705
 30
0.0
 10
194.2717720210894
 20
14.18696346796705
 30
0.0
 10
194.2717720210894
 20
14.18696346796705
 30
0.0
 10
193.6974277086187
 20
12.33324929003077
 30
0.0
 10
193.6974277086187
 20
12.33324929003077
 30
0.0
 10
193.6974277086187
 20
12.33324929003077
 30
0.0
 10
193.51760431093
 20
12.33324929003077
 30
0.0
 10
193.51760431093
 20
12.33324929003077
 30
0.0
 10
193.51760431093
 20
12.33324929003077
 30
0.0
 10
194.0924693547057
 20
14.18696346796705
 30
0.0
 10
194.0924693547057
 20
14.18696346796705
 30
0.0
 10
194.0924693547057
 20
14.18696346796705
 30
0.0
 10
193.8555961230339
 20
14.18696346796705
 30
0.0
 10
193.8555961230339
 20
14.18696346796705
 30
0.0
 10
193.8555961230339
 20
14.18696346796705
 30
0.0
 10
193.9052515724846
 20
14.37456064013906
 30
0.0
 10
193.9052515724846
 20
14.37456064013906
 30
0.0
 10
193.9052515724846
 20
14.37456064013906
 30
0.0
 10
194.1445871193277
 20
14.37456064013906
 30
0.0
 10
194.1445871193277
 20
14.37456064013906
 30
0.0
 10
194.1445871193277
 20
14.37456064013906
 30
0.0
 10
194.2292431514999
 20
14.63450970764554
 30
0.0
 10
194.2292431514999
 20
14.63450970764554
 30
0.0
 10
194.2976970010647
 20
14.85245063686765
 30
0.0
 10
194.3557808586394
 20
14.96945896112388
 30
0.0
 10
194.4055702104258
 20
15.05767828322665
 30
0.0
 10
194.4548313918883
 20
15.14597199551587
 30
0.0
 10
194.5523271702405
 20
15.23270351388978
 30
0.0
 10
194.6534531896912
 20
15.26181239384494
 30
0.0
  0
SPLINE
  5
207E
102
{ACAD_REACTORS
330
2071
330
20A3
102
}
330
A
100
AcDbEntity
  8
TEMPLATE
100
AcDbSpline
210
0.0
220
0.0
230
1.0
 70
    11
 71
     3
 72
    38
 73
    34
 74
     0
 42
0.000000001
 43
0.0000000001
 40
0.0
 40
0.0
 40
0.0
 40
0.0
 40
1.0
 40
1.0
 40
1.0
 40
2.0
 40
2.0
 40
2.0
 40
3.0
 40
3.0
 40
3.0
 40
4.0
 40
4.0
 40
4.0
 40
5.0
 40
5.0
 40
5.0
 40
6.0
 40
6.0
 40
6.0
 40
7.0
 40
7.0
 40
7.0
 40
8.0
 40
8.0
 40
8.0
 40
9.0
 40
9.0
 40
9.0
 40
10.0
 40
10.0
 40
10.0
 40
11.0
 40
11.0
 40
11.0
 40
11.0
 10
196.6058310719068
 20
14.36736710911002
 30
0.0
 10
196.6058310719068
 20
14.36736710911002
 30
0.0
 10
196.790705563255
 20
14.36736710911002
 30
0.0
 10
196.790705563255
 20
14.36736710911002
 30
0.0
 10
196.790705563255
 20
14.36736710911002
 30
0.0
 10
196.708117578266
 20
14.10294719139831
 30
0.0
 10
196.708117578266
 20
14.10294719139831
 30
0.0
 10
196.7708731395493
 20
14.17717371943115
 30
0.0
 10
196.8699162337796
 20
14.27603083819528
 30
0.0
 10
196.9549739729585
 20
14.32587970213075
 30
0.0
 10
197.0820324114032
 20
14.40010623016359
 30
0.0
 10
197.1546372333715
 20
14.40989597869949
 30
0.0
 10
197.2344876594995
 20
14.40794695581469
 30
0.0
 10
197.2344876594995
 20
14.40794695581469
 30
0.0
 10
197.1564523539208
 20
14.1579215391797
 30
0.0
 10
197.1564523539208
 20
14.1579215391797
 30
0.0
 10
197.1056289785429
 20
14.17944262011767
 30
0.0
 10
196.9490078800058
 20
14.1384759444435
 30
0.0
 10
196.8591594128199
 20
14.0738457504618
 30
0.0
 10
196.7781336217462
 20
14.01556847840234
 30
0.0
 10
196.7221178113546
 20
13.96597998011942
 30
0.0
 10
196.6557468870101
 20
13.84131690567822
 30
0.0
 10
196.5898818159334
 20
13.71646785577089
 30
0.0
 10
196.5378979536471
 20
13.51739227783074
 30
0.0
 10
196.4484363154307
 20
13.22859469602165
 30
0.0
 10
196.4484363154307
 20
13.22859469602165
 30
0.0
 10
196.169041653188
 20
12.33324929003077
 30
0.0
 10
196.169041653188
 20
12.33324929003077
 30
0.0
 10
196.169041653188
 20
12.33324929003077
 30
0.0
 10
195.9896125234874
 20
12.33324929003077
 30
0.0
 10
195.9896125234874
 20
12.33324929003077
 30
0.0
 10
195.9896125234874
 20
12.33324929003077
 30
0.0
 10
196.6058310719068
 20
14.36736710911002
 30
0.0
 10
196.6058310719068
 20
14.36736710911002
 30
0.0
  0
SPLINE
  5
207F
102
{ACAD_REACTORS
330
2071
330
20A3
102
}
330
A
100
AcDbEntity
  8
TEMPLATE
100
AcDbSpline
210
0.0
220
0.0
230
1.0
 70
    11
 71
     3
 72
   104
 73
   100
 74
     0
 42
0.000000001
 43
0.0000000001
 40
0.0
 40
0.0
 40
0.0
 40
0.0
 40
1.0
 40
1.0
 40
1.0
 40
2.0
 40
2.0
 40
2.0
 40
3.0
 40
3.0
 40
3.0
 40
4.0
 40
4.0
 40
4.0
 40
5.0
 40
5.0
 40
5.0
 40
6.0
 40
6.0
 40
6.0
 40
7.0
 40
7.0
 40
7.0
 40
8.0
 40
8.0
 40
8.0
 40
9.0
 40
9.0
 40
9.0
 40
10.0
 40
10.0
 40
10.0
 40
11.0
 40
11.0
 40
11.0
 40
12.0
 40
12.0
 40
12.0
 40
13.0
 40
13.0
 40
13.0
 40
14.0
 40
14.0
 40
14.0
 40
15.0
 40
15.0
 40
15.0
 40
16.0
 40
16.0
 40
16.0
 40
17.0
 40
17.0
 40
17.0
 40
18.0
 40
18.0
 40
18.0
 40
19.0
 40
19.0
 40
19.0
 40
20.0
 40
20.0
 40
20.0
 40
21.0
 40
21.0
 40
21.0
 40
22.0
 40
22.0
 40
22.0
 40
23.0
 40
23.0
 40
23.0
 40
24.0
 40
24.0
 40
24.0
 40
25.0
 40
25.0
 40
25.0
 40
26.0
 40
26.0
 40
26.0
 40
27.0
 40
27.0
 40
27.0
 40
28.0
 40
28.0
 40
28.0
 40
29.0
 40
29.0
 40
29.0
 40
30.0
 40
30.0
 40
30.0
 40
31.0
 40
31.0
 40
31.0
 40
32.0
 40
32.0
 40
32.0
 40
33.0
 40
33.0
 40
33.0
 40
33.0
 10
197.6234441883354
 20
14.36846808386937
 30
0.0
 10
197.6234441883354
 20
14.36846808386937
 30
0.0
 10
197.7848560148795
 20
14.36846808386937
 30
0.0
 10
197.7848560148795
 20
14.36846808386937
 30
0.0
 10
197.7848560148795
 20
14.36846808386937
 30
0.0
 10
197.7033094925007
 20
14.10379523952376
 30
0.0
 10
197.7033094925007
 20
14.10379523952376
 30
0.0
 10
197.7740843158826
 20
14.21477051965945
 30
0.0
 10
197.8376135351049
 20
14.26423255462542
 30
0.0
 10
197.9220166406432
 20
14.32814860281726
 30
0.0
 10
198.0066726728153
 20
14.3911570907345
 30
0.0
 10
198.1071589366625
 20
14.40399683691456
 30
0.0
 10
198.1769071754715
 20
14.40399683691456
 30
0.0
 10
198.2632593038946
 20
14.40399683691456
 30
0.0
 10
198.3466209468226
 20
14.38694660618182
 30
0.0
 10
198.3904367666375
 20
14.29229997197037
 30
0.0
 10
198.4240164967979
 20
14.21808088295617
 30
0.0
 10
198.4255786907132
 20
14.20932515801183
 30
0.0
 10
198.4159823566621
 20
14.06282112483094
 30
0.0
 10
198.5037478986276
 20
14.21302235027805
 30
0.0
 10
198.568571507094
 20
14.27771949542754
 30
0.0
 10
198.6787731292907
 20
14.33987993521932
 30
0.0
 10
198.794420113135
 20
14.40399683691456
 30
0.0
 10
198.8618325000897
 20
14.40879500394014
 30
0.0
 10
198.9401504883769
 20
14.39724964700418
 30
0.0
 10
199.05552966755
 20
14.38020685529008
 30
0.0
 10
199.1291759521286
 20
14.33903932611252
 30
0.0
 10
199.1676803126315
 20
14.21392991055265
 30
0.0
 10
199.20631857547
 20
14.08920732396228
 30
0.0
 10
199.1854446891541
 20
14.02230822929408
 30
0.0
 10
199.1377308235695
 20
13.82375338265902
 30
0.0
 10
199.115949376979
 20
13.73332467201888
 30
0.0
 10
199.0844376940018
 20
13.62382975659341
 30
0.0
 10
199.043210652675
 20
13.4935427840571
 30
0.0
 10
199.043210652675
 20
13.4935427840571
 30
0.0
 10
198.6787731292907
 20
12.33324929003077
 30
0.0
 10
198.6787731292907
 20
12.33324929003077
 30
0.0
 10
198.6787731292907
 20
12.33324929003077
 30
0.0
 10
198.4892269342339
 20
12.33324929003077
 30
0.0
 10
198.4892269342339
 20
12.33324929003077
 30
0.0
 10
198.4892269342339
 20
12.33324929003077
 30
0.0
 10
198.8083013219253
 20
13.34761899433048
 30
0.0
 10
198.8083013219253
 20
13.34761899433048
 30
0.0
 10
198.8749400509409
 20
13.55985419625241
 30
0.0
 10
198.92005026
 20
13.71484614970644
 30
0.0
 10
198.9433939005058
 20
13.81202205025695
 30
0.0
 10
198.972688755927
 20
13.93324085906585
 30
0.0
 10
198.9843531371613
 20
13.97324046231626
 30
0.0
 10
198.9704868064084
 20
14.06146722343768
 30
0.0
 10
198.9577809625639
 20
14.14359398927077
 30
0.0
 10
198.916286116566
 20
14.19707309430466
 30
0.0
 10
198.8452434885129
 20
14.19707309430466
 30
0.0
 10
198.7695291567512
 20
14.19707309430466
 30
0.0
 10
198.7082018870476
 20
14.18864468618067
 30
0.0
 10
198.6223853679669
 20
14.10243389911185
 30
0.0
 10
198.536553970849
 20
14.01556847840234
 30
0.0
 10
198.4656303670941
 20
13.9136018498449
 30
0.0
 10
198.4100162637093
 20
13.79633315993612
 30
0.0
 10
198.3545211846229
 20
13.6783503242375
 30
0.0
 10
198.2982524475973
 20
13.52880373243109
 30
0.0
 10
198.2412100526329
 20
13.34761899433048
 30
0.0
 10
198.2412100526329
 20
13.34761899433048
 30
0.0
 10
197.9220166406432
 20
12.33324929003077
 30
0.0
 10
197.9220166406432
 20
12.33324929003077
 30
0.0
 10
197.9220166406432
 20
12.33324929003077
 30
0.0
 10
197.7437479978511
 20
12.33324929003077
 30
0.0
 10
197.7437479978511
 20
12.33324929003077
 30
0.0
 10
197.7437479978511
 20
12.33324929003077
 30
0.0
 10
198.1087062525406
 20
13.493022052752
 30
0.0
 10
198.1087062525406
 20
13.493022052752
 30
0.0
 10
198.1472106130435
 20
13.61645025009826
 30
0.0
 10
198.1761335175325
 20
13.7170555382438
 30
0.0
 10
198.1951922832992
 20
13.79568596531406
 30
0.0
 10
198.2275966485138
 20
13.93103890954714
 30
0.0
 10
198.2366722512598
 20
14.02256859494663
 30
0.0
 10
198.2121681238455
 20
14.10379523952376
 30
0.0
 10
198.1880508254007
 20
14.18476151844834
 30
0.0
 10
198.1456632971655
 20
14.2054419902795
 30
0.0
 10
198.0748735957463
 20
14.2054419902795
 30
0.0
 10
198.0154953489275
 20
14.2054419902795
 30
0.0
 10
197.9575453936883
 20
14.17996335142277
 30
0.0
 10
197.8914273959778
 20
14.12926643936185
 30
0.0
 10
197.8081847773481
 20
14.06548429350561
 30
0.0
 10
197.7748728518588
 20
14.01310616323108
 30
0.0
 10
197.7340326395017
 20
13.95087133325285
 30
0.0
 10
197.6789243893847
 20
13.86854371391636
 30
0.0
 10
197.6531258727262
 20
13.81312302501631
 30
0.0
 10
197.6065873720875
 20
13.69150994821926
 30
0.0
 10
197.5600339934114
 20
13.56918272563237
 30
0.0
 10
197.5159652469626
 20
13.426829664855
 30
0.0
 10
197.4852272219243
 20
13.32836681407902
 30
0.0
 10
197.4852272219243
 20
13.32836681407902
 30
0.0
 10
197.172133805223
 20
12.33324929003077
 30
0.0
 10
197.172133805223
 20
12.33324929003077
 30
0.0
 10
197.172133805223
 20
12.33324929003077
 30
0.0
 10
196.9854441933256
 20
12.33324929003077
 30
0.0
 10
196.9854441933256
 20
12.33324929003077
 30
0.0
 10
196.9854441933256
 20
12.33324929003077
 30
0.0
 10
197.6234441883354
 20
14.36846808386937
 30
0.0
 10
197.6234441883354
 20
14.36846808386937
 30
0.0
  0
SPLINE
  5
2080
102
{ACAD_REACTORS
330
2071
330
20A3
102
}
330
A
100
AcDbEntity
  8
TEMPLATE
100
AcDbSpline
210
0.0
220
0.0
230
1.0
 70
    11
 71
     3
 72
    32
 73
    28
 74
     0
 42
0.000000001
 43
0.0000000001
 40
0.0
 40
0.0
 40
0.0
 40
0.0
 40
1.0
 40
1.0
 40
1.0
 40
2.0
 40
2.0
 40
2.0
 40
3.0
 40
3.0
 40
3.0
 40
4.0
 40
4.0
 40
4.0
 40
5.0
 40
5.0
 40
5.0
 40
6.0
 40
6.0
 40
6.0
 40
7.0
 40
7.0
 40
7.0
 40
8.0
 40
8.0
 40
8.0
 40
9.0
 40
9.0
 40
9.0
 40
9.0
 10
195.0910088273304
 20
14.2611899959999
 30
0.0
 10
194.9827562280185
 20
14.12116534805821
 30
0.0
 10
194.8993945850904
 20
13.99514837222373
 30
0.0
 10
194.7644359088455
 20
13.59907270254517
 30
0.0
 10
194.6403605168772
 20
13.23677761653038
 30
0.0
 10
194.5614027729866
 20
12.97319830792548
 30
0.0
 10
194.5494780260998
 20
12.65218977538657
 30
0.0
 10
194.5404024233537
 20
12.41330800868075
 30
0.0
 10
194.6858649939244
 20
12.33324929003077
 30
0.0
 10
194.8991416584565
 20
12.33324929003077
 30
0.0
 10
194.9910581728255
 20
12.33324929003077
 30
0.0
 10
195.2230067741548
 20
12.33909635868519
 30
0.0
 10
195.388182744133
 20
12.54328254243399
 30
0.0
 10
195.5038148499399
 20
12.68673657797071
 30
0.0
 10
195.6103862310383
 20
12.8354425606703
 30
0.0
 10
195.7532600231207
 20
13.32324876925175
 30
0.0
 10
195.8721504190939
 20
13.73105577133237
 30
0.0
 10
195.9544705994118
 20
13.99462764091863
 30
0.0
 10
195.9483854821607
 20
14.14469496403013
 30
0.0
 10
195.9483854821607
 20
14.14469496403013
 30
0.0
 10
195.9483854821607
 20
14.14469496403013
 30
0.0
 10
195.9483854821607
 20
14.14469496403013
 30
0.0
 10
195.9096133169866
 20
14.39504769748547
 30
0.0
 10
195.7278483354318
 20
14.4479465590651
 30
0.0
 10
195.6239996351573
 20
14.4479465590651
 30
0.0
 10
195.5217131287981
 20
14.4479465590651
 30
0.0
 10
195.2476299258675
 20
14.46564398441989
 30
0.0
 10
195.0910088273304
 20
14.2611899959999
 30
0.0
  0
SPLINE
  5
2081
102
{ACAD_REACTORS
330
2071
330
20A3
102
}
330
A
100
AcDbEntity
  8
TEMPLATE
100
AcDbSpline
210
0.0
220
0.0
230
1.0
 70
    11
 71
     3
 72
    29
 73
    25
 74
     0
 42
0.000000001
 43
0.0000000001
 40
0.0
 40
0.0
 40
0.0
 40
0.0
 40
1.0
 40
1.0
 40
1.0
 40
2.0
 40
2.0
 40
2.0
 40
3.0
 40
3.0
 40
3.0
 40
4.0
 40
4.0
 40
4.0
 40
5.0
 40
5.0
 40
5.0
 40
6.0
 40
6.0
 40
6.0
 40
7.0
 40
7.0
 40
7.0
 40
8.0
 40
8.0
 40
8.0
 40
8.0
 10
194.7431751935601
 20
12.71220777780879
 30
0.0
 10
194.7423866575838
 20
12.85392108298274
 30
0.0
 10
194.7871249157106
 20
13.10570210801778
 30
0.0
 10
194.9017304369448
 20
13.44258550634363
 30
0.0
 10
195.0578308041768
 20
13.89875356863087
 30
0.0
 10
195.1514434147967
 20
14.06548429350561
 30
0.0
 10
195.2333618881077
 20
14.14664398691494
 30
0.0
 10
195.3530408200572
 20
14.26482023709832
 30
0.0
 10
195.5139319152962
 20
14.2707119398646
 30
0.0
 10
195.5613928542469
 20
14.26482023709832
 30
0.0
 10
195.6289391435371
 20
14.25671170677603
 30
0.0
 10
195.7243519966689
 20
14.21250161897294
 30
0.0
 10
195.7300502849505
 20
14.06366917295639
 30
0.0
 10
195.7346029643608
 20
13.93629085671002
 30
0.0
 10
195.6978988463698
 20
13.69773640682454
 30
0.0
 10
195.5694269943827
 20
13.32324876925175
 30
0.0
 10
195.4213607672865
 20
12.88808105659738
 30
0.0
 10
195.3324198603752
 20
12.71701338385301
 30
0.0
 10
195.2611243056883
 20
12.64245953899982
 30
0.0
 10
195.1268053850467
 20
12.50269525671068
 30
0.0
 10
194.9827562280185
 20
12.516115246345
 30
0.0
 10
194.9614955127331
 20
12.516115246345
 30
0.0
 10
194.9338818755254
 20
12.516115246345
 30
0.0
 10
194.7435620225296
 20
12.54607961344425
 30
0.0
 10
194.7431751935601
 20
12.71220777780879
 30
0.0
  0
CIRCLE
  5
21FC
330
A
100
AcDbEntity
  8
MODEL
  6
CENTER
100
AcDbCircle
 10
103.7954429060732
 20
203.7629166648325
 30
0.0
 40
46.31977061785551
  0
LINE
  5
2213
330
A
100
AcDbEntity
  8
MODEL
  6
Continuous
100
AcDbLine
 10
171.7550907310361
 20
127.84406997699
 30
0.0
 11
171.7550907310361
 21
111.84406997699
 31
0.0
  0
LINE
  5
2214
330
A
100
AcDbEntity
  8
MODEL
  6
Continuous
100
AcDbLine
 10
155.7550907310361
 20
127.84406997699
 30
0.0
 11
155.7550907310361
 21
111.84406997699
 31
0.0
  0
LINE
  5
2215
102
{ACAD_REACTORS
330
228A
102
}
330
A
100
AcDbEntity
  8
MODEL
  6
Continuous
100
AcDbLine
 10
174.2550907310361
 20
99.33905741409002
 30
0.0
 11
153.2550907310361
 21
99.33905741409002
 31
0.0
  0
LINE
  5
2216
102
{ACAD_REACTORS
330
228A
102
}
330
A
100
AcDbEntity
  8
MODEL
  6
Continuous
100
AcDbLine
 10
152.2550907310361
 20
100.33905741409
 30
0.0
 11
152.2550907310361
 21
110.84406997699
 31
0.0
  0
LINE
  5
2217
102
{ACAD_REACTORS
330
228A
102
}
330
A
100
AcDbEntity
  8
MODEL
  6
Continuous
100
AcDbLine
 10
153.2550907310361
 20
111.84406997699
 30
0.0
 11
174.2550907310361
 21
111.84406997699
 31
0.0
  0
LINE
  5
2218
102
{ACAD_REACTORS
330
228A
102
}
330
A
100
AcDbEntity
  8
MODEL
  6
Continuous
100
AcDbLine
 10
175.2550907310361
 20
110.84406997699
 30
0.0
 11
175.2550907310361
 21
100.33905741409
 31
0.0
  0
ARC
  5
2219
102
{ACAD_REACTORS
330
228A
102
}
330
A
100
AcDbEntity
  8
MODEL
  6
Continuous
100
AcDbCircle
 10
174.2550907310361
 20
100.33905741409
 30
0.0
 40
0.9999999999999974
100
AcDbArc
 50
270.0
 51
0.0
  0
ARC
  5
221A
102
{ACAD_REACTORS
330
228A
102
}
330
A
100
AcDbEntity
  8
MODEL
  6
Continuous
100
AcDbCircle
 10
174.2550907310361
 20
110.84406997699
 30
0.0
 40
0.9999999999999991
100
AcDbArc
 50
0.0
 51
90.0
  0
ARC
  5
221B
102
{ACAD_REACTORS
330
228A
102
}
330
A
100
AcDbEntity
  8
MODEL
  6
Continuous
100
AcDbCircle
 10
153.2550907310361
 20
110.84406997699
 30
0.0
 40
0.9999999999999991
100
AcDbArc
 50
90.0
 51
180.0
  0
ARC
  5
221C
102
{ACAD_REACTORS
330
228A
102
}
330
A
100
AcDbEntity
  8
MODEL
  6
Continuous
100
AcDbCircle
 10
153.2550907310361
 20
100.33905741409
 30
0.0
 40
1.000000000000001
100
AcDbArc
 50
180.0
 51
270.0
  0
LINE
  5
221D
330
A
100
AcDbEntity
  8
MODEL
  6
Continuous
100
AcDbLine
 10
171.7550907310361
 20
127.84406997699
 30
0.0
 11
155.7550907310361
 21
127.84406997699
 31
0.0
  0
LINE
  5
2220
330
A
100
AcDbEntity
  8
MODEL
  6
Continuous
100
AcDbLine
 10
57.09187789601174
 20
102.53905741409
 30
0.0
 11
34.09187789601174
 21
102.53905741409
 31
0.0
  0
LINE
  5
2221
102
{ACAD_REACTORS
330
2292
102
}
330
A
100
AcDbEntity
  8
MODEL
  6
Continuous
100
AcDbLine
 10
57.39187789601181
 20
102.83905741409
 30
0.0
 11
33.79187789601178
 21
102.83905741409
 31
0.0
  0
LINE
  5
2222
102
{ACAD_REACTORS
330
2292
102
}
330
A
100
AcDbEntity
  8
MODEL
  6
Continuous
100
AcDbLine
 10
55.91243551021182
 20
131.06849979989
 30
0.0
 11
35.27132028181177
 21
131.06849979989
 31
0.0
  0
LINE
  5
2223
330
A
100
AcDbEntity
  8
MODEL
  6
Continuous
100
AcDbLine
 10
55.54187789601178
 20
131.43905741409
 30
0.0
 11
35.64187789601181
 21
131.43905741409
 31
0.0
  0
LINE
  5
2224
330
A
100
AcDbEntity
  8
MODEL
  6
Continuous
100
AcDbLine
 10
36.64187789601181
 20
134.63905741409
 30
0.0
 11
54.54187789601178
 21
134.63905741409
 31
0.0
  0
LINE
  5
2225
330
A
100
AcDbEntity
  8
MODEL
  6
Continuous
100
AcDbLine
 10
56.59187789601174
 20
99.33905741409001
 30
0.0
 11
34.59187789601174
 21
99.33905741409001
 31
0.0
  0
LINE
  5
2226
330
A
100
AcDbEntity
  8
MODEL
  6
Continuous
100
AcDbLine
 10
57.09187789601174
 20
99.83905741409001
 30
0.0
 11
57.09187789601174
 21
102.53905741409
 31
0.0
  0
LINE
  5
2227
330
A
100
AcDbEntity
  8
MODEL
  6
Continuous
100
AcDbLine
 10
34.09187789601174
 20
102.53905741409
 30
0.0
 11
34.09187789601174
 21
99.83905741409001
 31
0.0
  0
LINE
  5
2228
330
A
100
AcDbEntity
  8
MODEL
  6
Continuous
100
AcDbLine
 10
33.79187789601178
 20
102.83905741409
 30
0.0
 11
34.09187789601174
 21
102.53905741409
 31
0.0
  0
LINE
  5
2229
330
A
100
AcDbEntity
  8
MODEL
  6
Continuous
100
AcDbLine
 10
57.09187789601174
 20
102.53905741409
 30
0.0
 11
57.39187789601181
 21
102.83905741409
 31
0.0
  0
LINE
  5
222A
102
{ACAD_REACTORS
330
2292
102
}
330
A
100
AcDbEntity
  8
MODEL
  6
Continuous
100
AcDbLine
 10
57.39187789601181
 20
102.83905741409
 30
0.0
 11
55.91243551021182
 21
131.06849979989
 31
0.0
  0
LINE
  5
222B
102
{ACAD_REACTORS
330
2292
102
}
330
A
100
AcDbEntity
  8
MODEL
  6
Continuous
100
AcDbLine
 10
35.27132028181177
 20
131.06849979989
 30
0.0
 11
33.79187789601178
 21
102.83905741409
 31
0.0
  0
LINE
  5
222C
330
A
100
AcDbEntity
  8
MODEL
  6
Continuous
100
AcDbLine
 10
55.91243551021182
 20
131.06849979989
 30
0.0
 11
55.54187789601178
 21
131.43905741409
 31
0.0
  0
LINE
  5
222D
330
A
100
AcDbEntity
  8
MODEL
  6
Continuous
100
AcDbLine
 10
35.64187789601181
 20
131.43905741409
 30
0.0
 11
35.27132028181177
 21
131.06849979989
 31
0.0
  0
LINE
  5
222E
330
A
100
AcDbEntity
  8
MODEL
  6
Continuous
100
AcDbLine
 10
55.54187789601178
 20
131.43905741409
 30
0.0
 11
55.54187789601178
 21
133.63905741409
 31
0.0
  0
LINE
  5
222F
330
A
100
AcDbEntity
  8
MODEL
  6
Continuous
100
AcDbLine
 10
35.64187789601181
 20
133.63905741409
 30
0.0
 11
35.64187789601181
 21
131.43905741409
 31
0.0
  0
ARC
  5
2230
330
A
100
AcDbEntity
  8
MODEL
  6
Continuous
100
AcDbCircle
 10
54.54187789601178
 20
133.63905741409
 30
0.0
 40
1.000000000000001
100
AcDbArc
 50
0.0
 51
90.0
  0
ARC
  5
2231
330
A
100
AcDbEntity
  8
MODEL
  6
Continuous
100
AcDbCircle
 10
36.64187789601181
 20
133.63905741409
 30
0.0
 40
1.000000000000001
100
AcDbArc
 50
90.0
 51
180.0
  0
ARC
  5
2232
330
A
100
AcDbEntity
  8
MODEL
  6
Continuous
100
AcDbCircle
 10
34.59187789601174
 20
99.83905741409001
 30
0.0
 40
0.5000000000000004
100
AcDbArc
 50
180.0
 51
270.0
  0
ARC
  5
2233
330
A
100
AcDbEntity
  8
MODEL
  6
Continuous
100
AcDbCircle
 10
56.59187789601174
 20
99.83905741409001
 30
0.0
 40
0.5000000000000004
100
AcDbArc
 50
270.0
 51
0.0
  0
LINE
  5
2235
330
A
100
AcDbEntity
  8
MODEL
  6
Continuous
100
AcDbLine
 10
38.09187789601179
 20
134.83084079309
 30
0.0
 11
38.09187789601179
 21
160.8729003753131
 31
0.0
  0
LINE
  5
2236
330
A
100
AcDbEntity
  8
MODEL
  6
Continuous
100
AcDbLine
 10
53.09187789601179
 20
134.73602396269
 30
0.0
 11
53.09187789601179
 21
164.5418709864742
 31
0.0
  0
SPLINE
  5
223A
330
A
100
AcDbEntity
  8
MODEL
100
AcDbSpline
210
0.0
220
0.0
230
1.0
 70
  1064
 71
     3
 72
    10
 73
     6
 74
     4
 42
0.000000001
 43
0.0000000001
 44
0.0
 40
0.0
 40
0.0
 40
0.0
 40
0.0
 40
5.12795083440852
 40
12.12513001253176
 40
18.50282495882476
 40
18.50282495882476
 40
18.50282495882476
 40
18.50282495882476
 10
38.09187789601179
 20
160.8729003753131
 30
0.0
 10
39.0329418404906
 20
162.8116432437208
 30
0.0
 10
41.25810410225549
 20
167.3958348827236
 30
0.0
 10
47.34547073737148
 20
159.3664693394194
 30
0.0
 10
51.23648218703799
 20
162.8708411163191
 30
0.0
 10
53.09187789601179
 20
164.5418709864742
 30
0.0
 11
38.09187789601179
 21
160.8729003753131
 31
0.0
 11
41.23057361115565
 21
164.9280784192279
 31
0.0
 11
47.40989253521641
 21
161.6453152408207
 31
0.0
 11
53.09187789601179
 21
164.5418709864742
 31
0.0
  0
SPLINE
  5
223B
330
A
100
AcDbEntity
  8
MODEL
100
AcDbSpline
210
0.0
220
0.0
230
1.0
 70
  1064
 71
     3
 72
     9
 73
     5
 74
     3
 42
0.000000001
 43
0.0000000001
 44
0.0
 40
0.0
 40
0.0
 40
0.0
 40
0.0
 40
3.9557939315045
 40
8.889042250937763
 40
8.889042250937763
 40
8.889042250937763
 40
8.889042250937763
 10
44.69664718775897
 20
163.154208263998
 30
0.0
 10
45.82507239302324
 20
163.9451228913347
 30
0.0
 10
48.36075031262668
 20
165.7223826932899
 30
0.0
 10
51.40331353824973
 20
164.9632018334905
 30
0.0
 10
53.09187789601179
 20
164.5418709864742
 30
0.0
 11
44.69664718775897
 21
163.154208263998
 31
0.0
 11
48.18230740072403
 21
165.0246302774164
 31
0.0
 11
53.09187789601179
 21
164.5418709864742
 31
0.0
  0
SPLINE
  5
223C
330
A
100
AcDbEntity
  8
MODEL
100
AcDbSpline
210
0.0
220
0.0
230
1.0
 70
  1064
 71
     3
 72
    10
 73
     6
 74
     4
 42
0.000000001
 43
0.0000000001
 44
0.0
 40
0.0
 40
0.0
 40
0.0
 40
0.0
 40
5.127950834408662
 40
12.12513001253206
 40
18.50282495882511
 40
18.50282495882511
 40
18.50282495882511
 40
18.50282495882511
 10
156.2550907310361
 20
154.077912938213
 30
0.0
 10
157.1961546755149
 20
156.0166558066208
 30
0.0
 10
159.4213169372797
 20
160.6008474456238
 30
0.0
 10
165.5086835723957
 20
152.5714819023192
 30
0.0
 10
169.3996950220623
 20
156.075853679219
 30
0.0
 10
171.2550907310361
 20
157.7468835493742
 30
0.0
 11
156.2550907310361
 21
154.077912938213
 31
0.0
 11
159.3937864461799
 21
158.133090982128
 31
0.0
 11
165.5731053702407
 21
154.8503278037206
 31
0.0
 11
171.2550907310361
 21
157.7468835493742
 31
0.0
  0
SPLINE
  5
223D
330
A
100
AcDbEntity
  8
MODEL
100
AcDbSpline
210
0.0
220
0.0
230
1.0
 70
  1064
 71
     3
 72
     9
 73
     5
 74
     3
 42
0.000000001
 43
0.0000000001
 44
0.0
 40
0.0
 40
0.0
 40
0.0
 40
0.0
 40
3.955793931504437
 40
8.889042250937734
 40
8.889042250937734
 40
8.889042250937734
 40
8.889042250937734
 10
162.8598600227833
 20
156.359220826898
 30
0.0
 10
163.9882852280475
 20
157.1501354542347
 30
0.0
 10
166.523963147651
 20
158.9273952561899
 30
0.0
 10
169.566526373274
 20
158.1682143963905
 30
0.0
 10
171.2550907310361
 20
157.7468835493742
 30
0.0
 11
162.8598600227833
 21
156.359220826898
 31
0.0
 11
166.3455202357483
 21
158.2296428403164
 31
0.0
 11
171.2550907310361
 21
157.7468835493742
 31
0.0
  0
LINE
  5
223E
330
A
100
AcDbEntity
  8
MODEL
  6
Continuous
100
AcDbLine
 10
171.2550907310361
 20
127.94103652559
 30
0.0
 11
171.2550907310361
 21
157.7468835493742
 31
0.0
  0
LINE
  5
223F
330
A
100
AcDbEntity
  8
MODEL
  6
Continuous
100
AcDbLine
 10
156.2550907310361
 20
128.03585335599
 30
0.0
 11
156.2550907310361
 21
154.077912938213
 31
0.0
  0
SPLINE
  5
2244
330
A
100
AcDbEntity
  8
MODEL
  6
CENTER
100
AcDbSpline
210
0.0
220
0.0
230
1.0
 70
  1064
 71
     3
 72
    16
 73
    12
 74
    10
 42
0.000000001
 43
0.0000000001
 44
0.0
 40
0.0
 40
0.0
 40
0.0
 40
0.0
 40
15.88112079795612
 40
32.91287218737813
 40
53.41985859870912
 40
67.1814829024356
 40
90.89129442622716
 40
107.4203337284993
 40
121.0904691031183
 40
132.4051399845773
 40
139.2410869754588
 40
139.2410869754588
 40
139.2410869754588
 40
139.2410869754588
 10
104.3749181021412
 20
250.1339713202776
 30
0.0
 10
99.06461482874661
 20
249.6644440245734
 30
0.0
 10
88.05926230123829
 20
248.6913708977708
 30
0.0
 10
71.79793502882453
 20
240.3153754156639
 30
0.0
 10
59.85808187549997
 20
227.853687456166
 30
0.0
 10
48.98322688906594
 20
211.6236455988169
 30
0.0
 10
45.90752842346146
 20
193.3810352492983
 30
0.0
 10
44.96323213945427
 20
175.50910078235
 30
0.0
 10
45.13971908931193
 20
161.6528871841069
 30
0.0
 10
45.10632008209507
 20
151.0494259824681
 30
0.0
 10
45.10905510610885
 20
144.9989369704999
 30
0.0
 10
45.11008518008806
 20
142.7201813685898
 30
0.0
 11
104.3749181021412
 21
250.1339713202776
 31
0.0
 11
88.67368506759001
 21
247.7504279508393
 31
0.0
 11
73.40958557189295
 21
240.1947796016545
 31
0.0
 11
58.84253778609765
 21
225.7608747079374
 31
0.0
 11
51.50929209651137
 21
214.1158838907199
 31
0.0
 11
46.04953430923989
 21
191.0432549248208
 31
0.0
 11
45.11008518008807
 21
174.5409346155493
 31
0.0
 11
45.11008518008807
 21
160.8707992409303
 31
0.0
 11
45.11008518008807
 21
149.5561283594713
 31
0.0
 11
45.11008518008806
 21
142.7201813685898
 31
0.0
  0
SPLINE
  5
2246
330
A
100
AcDbEntity
  8
MODEL
  6
CENTER
100
AcDbSpline
210
0.0
220
0.0
230
1.0
 70
  1064
 71
     3
 72
    16
 73
    12
 74
    10
 42
0.000000001
 43
0.0000000001
 44
0.0
 40
0.0
 40
0.0
 40
0.0
 40
0.0
 40
15.88112079795615
 40
32.91287218737815
 40
53.41985859870907
 40
67.18148290243562
 40
90.89129442622715
 40
107.4203337284994
 40
121.0904691031184
 40
132.4051399845774
 40
139.2410869754588
 40
139.2410869754588
 40
139.2410869754588
 40
139.2410869754588
 10
104.374918102141
 20
250.1339713202776
 30
0.0
 10
109.6852213755356
 20
249.6644440245734
 30
0.0
 10
120.6905739030439
 20
248.6913708977707
 30
0.0
 10
136.9519011754578
 20
240.3153754156641
 30
0.0
 10
148.8917543287822
 20
227.8536874561662
 30
0.0
 10
159.7666093152164
 20
211.6236455988171
 30
0.0
 10
162.8423077808209
 20
193.3810352492985
 30
0.0
 10
163.7866040648282
 20
175.5091007823502
 30
0.0
 10
163.6101171149707
 20
161.6528871841071
 30
0.0
 10
163.6435161221875
 20
151.0494259824683
 30
0.0
 10
163.6407810981737
 20
144.9989369705001
 30
0.0
 10
163.6397510241945
 20
142.7201813685901
 30
0.0
 11
104.374918102141
 21
250.1339713202776
 31
0.0
 11
120.0761511366922
 21
247.7504279508393
 31
0.0
 11
135.3402506323893
 21
240.1947796016546
 31
0.0
 11
149.9072984181846
 21
225.7608747079376
 31
0.0
 11
157.240544107771
 21
214.1158838907201
 31
0.0
 11
162.7003018950425
 21
191.043254924821
 31
0.0
 11
163.6397510241944
 21
174.5409346155495
 31
0.0
 11
163.6397510241945
 21
160.8707992409305
 31
0.0
 11
163.6397510241945
 21
149.5561283594715
 31
0.0
 11
163.6397510241945
 21
142.7201813685901
 31
0.0
  0
LINE
  5
224B
330
A
100
AcDbEntity
  8
DIM
100
AcDbLine
 10
129.2897550332132
 20
243.9822551349223
 30
0.0
 11
144.4310018844985
 21
254.5188713069909
 31
0.0
  0
LINE
  5
224C
330
A
100
AcDbEntity
  8
DIM
100
AcDbLine
 10
144.4310018844985
 20
254.5188713069909
 30
0.0
 11
157.847058133974
 21
254.5188713069909
 31
0.0
  0
MTEXT
  5
2282
330
A
100
AcDbEntity
  8
DIM
390
1D
100
AcDbMText
 10
147.2489830750074
 20
258.2720856293154
 30
0.0
 40
2.44326171875
 41
0.0
 46
2.44326171875
 71
     1
 72
     1
  1
{1750mm}
  7
ＭＳ ゴシック
 73
     1
 44
0.7828267384257843
1001
ACAD
1000
ACAD_MTEXT_DEFINED_HEIGHT_BEGIN
1070
    46
1040
2.44326171875
1000
ACAD_MTEXT_DEFINED_HEIGHT_END
  0
HATCH
  5
228A
330
A
100
AcDbEntity
  8
MODEL
  6
Continuous
100
AcDbHatch
 10
0.0
 20
0.0
 30
0.0
210
0.0
220
0.0
230
1.0
  2
ANSI37
 70
     0
 71
     1
 91
        1
 92
        1
 93
        8
 72
     1
 10
174.2550907310361
 20
99.33905741409002
 11
153.2550907310361
 21
99.33905741409002
 72
     2
 10
174.2550907310361
 20
100.33905741409
 40
0.9999999999999974
 50
270.0
 51
360.0
 73
     1
 72
     1
 10
175.2550907310361
 20
110.84406997699
 11
175.2550907310361
 21
100.33905741409
 72
     2
 10
174.2550907310361
 20
110.84406997699
 40
0.9999999999999991
 50
0.0
 51
90.0
 73
     1
 72
     1
 10
153.2550907310361
 20
111.84406997699
 11
174.2550907310361
 21
111.84406997699
 72
     2
 10
153.2550907310361
 20
110.84406997699
 40
0.9999999999999991
 50
90.0
 51
180.0
 73
     1
 72
     1
 10
152.2550907310361
 20
100.33905741409
 11
152.2550907310361
 21
110.84406997699
 72
     2
 10
153.2550907310361
 20
100.33905741409
 40
1.000000000000001
 50
180.0
 51
270.0
 73
     1
 97
        8
330
2215
330
2219
330
2218
330
221A
330
2217
330
221B
330
2216
330
221C
 75
     0
 76
     1
 52
0.0
 41
0.5
 77
     0
 78
     2
 53
45.0
 43
-3.222765957446825
 44
4.788109422492425
 45
-1.122532015133644
 46
1.122532015133644
 79
     0
 53
135.0
 43
-3.222765957446825
 44
4.788109422492425
 45
-1.122532015133644
 46
-1.122532015133644
 79
     0
 98
        1
 10
-3.222765957446825
 20
4.788109422492425
1001
ACAD
1010
0.0
1020
0.0
1030
0.0
  0
HATCH
  5
2292
330
A
100
AcDbEntity
  8
MODEL
  6
Continuous
100
AcDbHatch
 10
0.0
 20
0.0
 30
0.0
210
0.0
220
0.0
230
1.0
  2
ANSI37
 70
     0
 71
     1
 91
        1
 92
        1
 93
        4
 72
     1
 10
57.39187789601181
 20
102.83905741409
 11
33.79187789601178
 21
102.83905741409
 72
     1
 10
57.39187789601181
 20
102.83905741409
 11
55.91243551021182
 21
131.06849979989
 72
     1
 10
55.91243551021182
 20
131.06849979989
 11
35.27132028181177
 21
131.06849979989
 72
     1
 10
35.27132028181177
 20
131.06849979989
 11
33.79187789601178
 21
102.83905741409
 97
        4
330
2221
330
222A
330
2222
330
222B
 75
     0
 76
     1
 52
0.0
 41
0.5
 77
     0
 78
     2
 53
45.0
 43
-3.222765957446825
 44
11.0494832826748
 45
-1.122532015133644
 46
1.122532015133644
 79
     0
 53
135.0
 43
-3.222765957446825
 44
11.0494832826748
 45
-1.122532015133644
 46
-1.122532015133644
 79
     0
 98
        1
 10
-3.222765957446825
 20
11.0494832826748
1001
ACAD
1010
0.0
1020
0.0
1030
0.0
  0
MTEXT
  5
22CE
330
A
100
AcDbEntity
  8
DIM
390
1D
100
AcDbMText
 10
41.8936017702128
 20
92.35111662496679
 30
0.0
 40
2.44326171875
 41
0.0
 46
2.7902048828125
 71
     1
 72
     1
  1
{G1/2"}
  7
ＭＳ ゴシック
 73
     1
 44
0.7828267384257843
1001
ACAD
1000
ACAD_MTEXT_DEFINED_HEIGHT_BEGIN
1070
    46
1040
2.7902048828125
1000
ACAD_MTEXT_DEFINED_HEIGHT_END
  0
MTEXT
  5
2337
330
A
100
AcDbEntity
  8
TEMPLATE
390
1D
100
AcDbMText
 10
112.6853544909571
 20
40.01914389816477
 30
0.0
 40
2.44326171875
 41
0.0
 46
2.72912333984375
 71
     1
 72
     1
  1
{FHT73-3333-GL1 クールサンライズ(ゴールド)}
  7
ＭＳ ゴシック
 73
     1
 44
0.7828267384257843
1001
ACAD
1000
ACAD_MTEXT_DEFINED_HEIGHT_BEGIN
1070
    46
1040
2.72912333984375
1000
ACAD_MTEXT_DEFINED_HEIGHT_END
  0
MTEXT
  5
2338
330
A
100
AcDbEntity
  8
TEMPLATE
390
1D
100
AcDbMText
 10
112.6853544909571
 20
43.76603753840501
 30
0.0
 40
2.44326171875
 41
0.0
 46
2.583261397078125
 71
     1
 72
     1
  1
{FHT73-3333-BE1 \H1.02322x;ニッケル}
  7
ＭＳ ゴシック
 73
     1
 44
0.7828267384257843
1001
ACAD
1000
ACAD_MTEXT_DEFINED_HEIGHT_BEGIN
1070
    46
1040
2.583261397078125
1000
ACAD_MTEXT_DEFINED_HEIGHT_END
  0
MTEXT
  5
2339
330
A
100
AcDbEntity
  8
TEMPLATE
390
1D
100
AcDbMText
 10
112.6853544909571
 20
47.74880168867856
 30
0.0
 40
2.44326171875
 41
0.0
 46
2.72912333984375
 71
     1
 72
     1
  1
{FHT73-3333-A01 ハードグラファイト(ガンメタル)}
  7
ＭＳ ゴシック
 73
     1
 44
0.7828267384257843
1001
ACAD
1000
ACAD_MTEXT_DEFINED_HEIGHT_BEGIN
1070
    46
1040
2.72912333984375
1000
ACAD_MTEXT_DEFINED_HEIGHT_END
  0
MTEXT
  5
233A
330
A
100
AcDbEntity
  8
TEMPLATE
390
1D
100
AcDbMText
 10
112.6853544909571
 20
51.73597314730235
 30
0.0
 40
2.44326171875
 41
0.0
 46
2.72912277443805
 71
     1
 72
     1
  1
{FHT73-3333-DA1 \H1.02322x;ウォームサンセット(ポリッシュドコッパー\H0.977305x;)}
  7
ＭＳ ゴシック
 73
     1
 44
0.7828267384257843
1001
ACAD
1000
ACAD_MTEXT_DEFINED_HEIGHT_BEGIN
1070
    46
1040
2.72912277443805
1000
ACAD_MTEXT_DEFINED_HEIGHT_END
  0
MTEXT
  5
233C
330
A
100
AcDbEntity
  8
TEMPLATE
390
1D
100
AcDbMText
 10
112.6853544909571
 20
55.4480297180813
 30
0.0
 40
2.44326171875
 41
0.0
 46
2.72912333984375
 71
     1
 72
     1
  1
{FHT73-3333-001 クローム}
  7
ＭＳ ゴシック
 73
     1
 44
0.7828267384257843
1001
ACAD
1000
ACAD_MTEXT_DEFINED_HEIGHT_BEGIN
1070
    46
1040
2.72912333984375
1000
ACAD_MTEXT_DEFINED_HEIGHT_END
  0
MTEXT
  5
234F
330
A
100
AcDbEntity
  8
DIM
390
1D
100
AcDbMText
 10
161.2256640000001
 20
92.35111662496679
 30
0.0
 40
2.44326171875
 41
0.0
 46
2.7902048828125
 71
     1
 72
     1
  1
{G1/2"}
  7
ＭＳ ゴシック
 73
     1
 44
0.7828267384257843
1001
ACAD
1000
ACAD_MTEXT_DEFINED_HEIGHT_BEGIN
1070
    46
1040
2.7902048828125
1000
ACAD_MTEXT_DEFINED_HEIGHT_END
  0
MTEXT
  5
2353
330
A
100
AcDbEntity
  8
TEMPLATE
390
1D
100
AcDbMText
 10
13.22021445477307
 20
21.93698473709859
 30
0.0
 40
2.44326171875
 41
0.0
 46
2.8781623046875
 71
     1
 72
     1
  1
{樹脂外装}
  7
ＭＳ ゴシック
 73
     1
 44
0.7828267384257843
1001
ACAD
1000
ACAD_MTEXT_DEFINED_HEIGHT_BEGIN
1070
    46
1040
2.8781623046875
1000
ACAD_MTEXT_DEFINED_HEIGHT_END
  0
VIEWPORT
  5
349
330
B
100
AcDbEntity
 67
     1
  8
0
100
AcDbViewport
 10
202.5
 20
128.5
 30
0.0
 40
486.0
 41
308.4
 68
     1
 69
     1
 12
202.5
 22
128.5
 13
0.0
 23
0.0
 14
0.5
 24
0.5
 15
0.0
 25
0.0
 16
0.0
 26
0.0
 36
1.0
 17
0.0
 27
0.0
 37
0.0
 42
50.0
 43
0.0
 44
0.0
 45
308.4
 50
0.0
 51
0.0
 72
   100
 90
   557152
  1

281
     0
 71
     1
 74
     0
110
0.0
120
0.0
130
0.0
111
1.0
121
0.0
131
0.0
112
0.0
122
1.0
132
0.0
 79
     0
146
0.0
170
     0
 61
     5
348
26C
292
     1
282
     1
141
0.0
142
0.0
 63
   256
  0
VIEWPORT
  5
34A
330
B
100
AcDbEntity
 67
     1
  8
0
100
AcDbViewport
 10
202.5
 20
128.5
 30
0.0
 40
324.0
 41
205.6
 68
     2
 69
     2
 12
986.6781359294573
 22
1427.077061889956
 13
0.0
 23
0.0
 14
0.5
 24
0.5
 15
0.0
 25
0.0
 16
0.0
 26
0.0
 36
1.0
 17
0.0
 27
0.0
 37
0.0
 42
50.0
 43
0.0
 44
0.0
 45
2890.021615685494
 50
0.0
 51
0.0
 72
   100
 90
   557152
  1

281
     0
 71
     1
 74
     0
110
0.0
120
0.0
130
0.0
111
1.0
121
0.0
131
0.0
112
0.0
122
1.0
132
0.0
 79
     0
146
0.0
170
     0
 61
     5
348
26C
292
     1
282
     1
141
0.0
142
0.0
 63
   256
  0
ENDSEC
  0
SECTION
  2
OBJECTS
  0
DICTIONARY
  5
19
330
0
100
AcDbDictionary
281
     1
  3
ACAD_COLOR
350
674
  3
ACAD_DETAILVIEWSTYLE
350
BBF
  3
ACAD_FIELDLIST
350
1E8E
  3
ACAD_GROUP
350
1A
  3
ACAD_IMAGE_VARS
350
27B
  3
ACAD_LAYOUT
350
1E
  3
ACAD_MATERIAL
350
263
  3
ACAD_MLEADERSTYLE
350
336
  3
ACAD_MLINESTYLE
350
1B
  3
ACAD_PLOTSETTINGS
350
22
  3
ACAD_PLOTSTYLENAME
350
1F
  3
ACAD_SCALELIST
350
241
  3
ACAD_SECTIONVIEWSTYLE
350
BC0
  3
ACAD_TABLESTYLE
350
278
  3
ACAD_VISUALSTYLE
350
267
  3
ACDB_RECOMPOSE_DATA
350
238C
  3
AcDbVariableDictionary
350
330
  3
APPDATA
350
27A
  3
DimOffsetDictionary
350
E38
  0
SUN
  5
904
330
15
100
AcDbSun
 90
        1
290
     0
 63
     7
421
 16777215
 40
1.0
291
     1
 91
  2455826
 92
 54000000
292
     0
 70
     2
 71
   256
280
     1
  0
DICTIONARY
  5
2E1
330
2
100
AcDbDictionary
280
     1
281
     1
  3
ACAD_LAYERSTATES
360
2E2
  3
ACLYDICTIONARY
360
DDE
  0
DICTIONARY
  5
2109
330
A
100
AcDbDictionary
280
     1
281
     1
  3
ACAD_SORTENTS
360
210A
  0
DICTIONARY
  5
1EAC
330
1EAB
100
AcDbDictionary
280
     1
281
     1
  3
ACAD_FIELD
360
2374
  0
DICTIONARY
  5
674
102
{ACAD_REACTORS
330
19
102
}
330
19
100
AcDbDictionary
281
     1
  0
DICTIONARY
  5
BBF
102
{ACAD_REACTORS
330
19
102
}
330
19
100
AcDbDictionary
281
     1
  0
FIELDLIST
  5
1E8E
102
{ACAD_REACTORS
330
19
102
}
330
19
100
AcDbIdSet
 90
        2
330
1EAF
330
1EAE
100
AcDbFieldList
  0
DICTIONARY
  5
1A
102
{ACAD_REACTORS
330
19
102
}
330
19
100
AcDbDictionary
281
     1
  3
*A1
350
20A3
  0
RASTERVARIABLES
  5
27B
102
{ACAD_REACTORS
330
19
102
}
330
19
100
AcDbRasterVariables
 90
        0
 70
     1
 71
     1
 72
     1
  0
DICTIONARY
  5
1E
102
{ACAD_REACTORS
330
19
102
}
330
19
100
AcDbDictionary
281
     1
  3
Layout1
350
21
  3
Model
350
20
  0
DICTIONARY
  5
263
102
{ACAD_REACTORS
330
19
102
}
330
19
100
AcDbDictionary
281
     1
  3
ByBlock
350
265
  3
ByLayer
350
264
  3
Global
350
266
  0
DICTIONARY
  5
336
102
{ACAD_REACTORS
330
19
102
}
330
19
100
AcDbDictionary
281
     1
  3
Standard
350
D59
  0
DICTIONARY
  5
1B
102
{ACAD_REACTORS
330
19
102
}
330
19
100
AcDbDictionary
281
     1
  3
Standard
350
1C
  0
DICTIONARY
  5
22
102
{ACAD_REACTORS
330
19
102
}
330
19
100
AcDbDictionary
281
     1
  0
ACDBDICTIONARYWDFLT
  5
1F
102
{ACAD_REACTORS
330
19
102
}
330
19
100
AcDbDictionary
281
     1
  3
Normal
350
1D
100
AcDbDictionaryWithDefault
340
1D
  0
DICTIONARY
  5
241
102
{ACAD_REACTORS
330
19
102
}
330
19
100
AcDbDictionary
281
     1
  3
A0
350
242
  3
A1
350
243
  3
A2
350
244
  3
A3
350
245
  3
A4
350
246
  3
A5
350
247
  3
A6
350
248
  3
A7
350
249
  3
A8
350
24A
  3
A9
350
24B
  3
B0
350
24C
  3
B1
350
24D
  3
B2
350
24E
  3
B3
350
24F
  3
B4
350
250
  3
B5
350
251
  3
B6
350
252
  3
B7
350
253
  3
B8
350
254
  3
B9
350
255
  3
C0
350
256
  3
C1
350
257
  3
C2
350
258
  3
C3
350
259
  3
C4
350
25A
  3
C5
350
25B
  3
C6
350
25C
  3
C7
350
25D
  3
C8
350
25E
  3
C9
350
25F
  3
D0
350
260
  3
D1
350
261
  3
D2
350
262
  0
DICTIONARY
  5
BC0
102
{ACAD_REACTORS
330
19
102
}
330
19
100
AcDbDictionary
281
     1
  0
DICTIONARY
  5
278
102
{ACAD_REACTORS
330
19
102
}
330
19
100
AcDbDictionary
281
     1
  3
Standard
350
279
  0
DICTIONARY
  5
267
102
{ACAD_REACTORS
330
19
102
}
330
19
100
AcDbDictionary
281
     1
  3
2dWireframe
350
26C
  3
3D Hidden
350
26E
  3
3dWireframe
350
26D
  3
Basic
350
26F
  3
Brighten
350
273
  3
ColorChange
350
277
  3
Conceptual
350
271
  3
Dim
350
272
  3
EdgeColorOff
350
8FE
  3
Facepattern
350
276
  3
Flat
350
268
  3
FlatWithEdges
350
269
  3
Gouraud
350
26A
  3
GouraudWithEdges
350
26B
  3
Hidden
350
8FB
  3
JitterOff
350
8FC
  3
Linepattern
350
275
  3
OverhangOff
350
8FD
  3
Realistic
350
270
  3
Shaded
350
903
  3
Shaded with edges
350
902
  3
Shades of Gray
350
8FF
  3
Sketchy
350
900
  3
Thicken
350
274
  3
Wireframe
350
8FA
  3
X-Ray
350
901
  0
XRECORD
  5
238C
102
{ACAD_REACTORS
330
19
102
}
330
19
100
AcDbXrecord
280
     1
 90
        1
330
279
  0
DICTIONARY
  5
330
102
{ACAD_REACTORS
330
19
102
}
330
19
100
AcDbDictionary
281
     1
  3
CANNOSCALE
350
331
  3
CMLEADERSTYLE
350
D5E
  3
CTABLESTYLE
350
335
  3
HPTRANSPARENCY
350
D52
  3
XCLIPFRAME
350
896
  0
DICTIONARY
  5
27A
102
{ACAD_REACTORS
330
19
102
}
330
19
100
AcDbDictionary
281
     1
  0
DICTIONARY
  5
E38
102
{ACAD_REACTORS
330
19
102
}
330
19
100
AcDbDictionary
281
     1
  3
DIMRAILANGLE
350
1DFC
  3
DIMRAILFIRSTOFFSET
350
1DFA
  3
DIMRAILOFFSET
350
1DFB
  3
DIMRAILSENABLED
350
1DFD
  0
DICTIONARY
  5
2E2
102
{ACAD_REACTORS
330
2E1
102
}
330
2E1
100
AcDbDictionary
281
     1
  0
DICTIONARY
  5
DDE
102
{ACAD_REACTORS
330
2E1
102
}
330
2E1
100
AcDbDictionary
281
     1
1001
ACAD
1000
<All
  0
SORTENTSTABLE
  5
210A
102
{ACAD_REACTORS
330
2109
102
}
330
2109
100
AcDbSortentsTable
330
A
331
0
  5
2140
331
1EAB
  5
1D9C
331
1EB1
  5
1EAB
331
1EB2
  5
1EB0
331
2071
  5
1EB4
331
2072
  5
2070
331
207D
  5
2071
331
207E
  5
2072
331
207F
  5
207D
331
2080
  5
207E
331
2081
  5
207F
331
2215
  5
2217
331
2216
  5
2218
331
2217
  5
2219
331
2218
  5
221A
331
2219
  5
221B
331
221A
  5
221C
331
221B
  5
221D
331
221C
  5
221E
331
221D
  5
221F
331
2220
  5
2222
331
2221
  5
2225
331
2222
  5
2226
331
2223
  5
2227
331
2224
  5
2228
331
2225
  5
2229
331
2226
  5
222A
331
2227
  5
222B
331
2228
  5
222C
331
2229
  5
222D
331
222A
  5
222E
331
222B
  5
222F
331
222C
  5
2230
331
222D
  5
2231
331
222E
  5
2232
331
222F
  5
2233
331
2230
  5
2234
331
2231
  5
2235
331
2232
  5
2236
331
2233
  5
2237
331
2235
  5
2239
331
2236
  5
223A
331
223A
  5
223E
331
223B
  5
223F
331
223C
  5
2240
331
223D
  5
2241
331
223E
  5
2242
331
223F
  5
2243
331
2244
  5
224C
331
2246
  5
224E
331
224B
  5
2281
331
224C
  5
2282
331
2282
  5
2292
331
228A
  5
2216
331
2292
  5
2224
  0
DICTIONARY
  5
2374
102
{ACAD_REACTORS
330
1EAC
102
}
330
1EAC
100
AcDbDictionary
280
     1
281
     1
  3
TEXT
360
1EAE
  0
GROUP
  5
20A3
102
{ACAD_REACTORS
330
1A
102
}
330
1A
100
AcDbGroup
300

 70
     1
 71
     1
340
2071
340
2072
340
207D
340
207E
340
207F
340
2080
340
2081
  0
LAYOUT
  5
21
102
{ACAD_REACTORS
330
1E
102
}
330
1E
100
AcDbPlotSettings
  1

  2
none_device
  4
ISO_A3_(420.00_x_297.00_MM)
  6

 40
7.5
 41
20.0
 42
7.5
 43
20.0
 44
420.0
 45
297.0
 46
0.0
 47
0.0
 48
0.0
 49
0.0
140
0.0
141
0.0
142
1.0
143
1.0
 70
     0
 72
     1
 73
     0
 74
     0
  7

 75
     0
 76
     0
 77
     2
 78
   300
147
1.0
148
0.0
149
0.0
100
AcDbLayout
  1
Layout1
 70
     0
 71
     0
 10
-7.5
 20
-20.0
 11
412.5
 21
277.0
 12
0.0
 22
0.0
 32
0.0
 14
0.0
 24
0.0
 34
0.0
 15
0.0
 25
0.0
 35
0.0
146
0.0
 13
0.0
 23
0.0
 33
0.0
 16
0.0
 26
0.0
 36
0.0
 17
0.0
 27
0.0
 37
0.0
 76
     0
330
B
331
349
  0
LAYOUT
  5
20
102
{ACAD_REACTORS
330
1E
102
}
330
1E
100
AcDbPlotSettings
  1

  2
none_device
  4
ISO_A3_(420.00_x_297.00_MM)
  6

 40
7.5
 41
20.0
 42
7.5
 43
20.0
 44
420.0
 45
297.0
 46
0.0
 47
0.0
 48
0.0
 49
0.0
140
0.0
141
0.0
142
1.0
143
1.0
 70
  1024
 72
     1
 73
     0
 74
     0
  7

 75
     0
 76
     0
 77
     2
 78
   300
147
1.0
148
0.0
149
0.0
100
AcDbLayout
  1
Model
 70
     0
 71
     1
 10
0.0
 20
0.0
 11
210.0
 21
297.0
 12
0.0
 22
0.0
 32
0.0
 14
0.0
 24
0.0
 34
-0.0000000000000071
 15
210.0
 25
297.0
 35
0.0000000000000142
146
0.0
 13
0.0
 23
0.0
 33
0.0
 16
0.0
 26
0.0
 36
0.0
 17
0.0
 27
0.0
 37
0.0
 76
     0
330
A
331
15
  0
MATERIAL
  5
265
102
{ACAD_REACTORS
330
263
102
}
330
263
100
AcDbMaterial
  1
ByBlock
 72
     1
 94
      127
  0
MATERIAL
  5
264
102
{ACAD_REACTORS
330
263
102
}
330
263
100
AcDbMaterial
  1
ByLayer
 72
     1
 94
      127
  0
MATERIAL
  5
266
102
{ACAD_REACTORS
330
263
102
}
330
263
100
AcDbMaterial
  1
Global
 72
     1
 94
      127
  0
MLEADERSTYLE
  5
D59
102
{ACAD_REACTORS
330
336
102
}
330
336
100
AcDbMLeaderStyle
170
     2
171
     1
172
     0
 90
        2
 40
0.0
 41
0.0
173
     1
 91
-1056964608
340
11
 92
       -2
290
     1
 42
2.0
291
     1
 43
8.0
  3
Standard
341
0
 44
4.0
300

342
17
174
     1
178
     6
175
     1
176
     0
 93
-1056964608
 45
4.0
292
     0
297
     0
 46
4.0
343
0
 94
-1056964608
 47
1.0
 49
1.0
140
1.0
293
     1
141
0.0
294
     1
177
     0
142
1.0
295
     0
296
     0
143
3.75
1001
ACAD_MLEADERVER
1070
     2
  0
MLINESTYLE
  5
1C
102
{ACAD_REACTORS
330
1B
102
}
330
1B
100
AcDbMlineStyle
  2
Standard
 70
     0
  3

 62
     0
 51
90.0
 52
90.0
 71
     2
 49
0.5
 62
   256
  6
BYLAYER
 49
-0.5
 62
   256
  6
BYLAYER
  0
ACDBPLACEHOLDER
  5
1D
102
{ACAD_REACTORS
330
1F
102
}
330
1F
  0
SCALE
  5
242
102
{ACAD_REACTORS
330
241
102
}
330
241
100
AcDbScale
 70
     0
300
1:1
140
1.0
141
1.0
290
     1
  0
SCALE
  5
243
102
{ACAD_REACTORS
330
241
102
}
330
241
100
AcDbScale
 70
     0
300
1:2
140
1.0
141
2.0
290
     0
  0
SCALE
  5
244
102
{ACAD_REACTORS
330
241
102
}
330
241
100
AcDbScale
 70
     0
300
1:4
140
1.0
141
4.0
290
     0
  0
SCALE
  5
245
102
{ACAD_REACTORS
330
241
102
}
330
241
100
AcDbScale
 70
     0
300
1:5
140
1.0
141
5.0
290
     0
  0
SCALE
  5
246
102
{ACAD_REACTORS
330
241
102
}
330
241
100
AcDbScale
 70
     0
300
1:8
140
1.0
141
8.0
290
     0
  0
SCALE
  5
247
102
{ACAD_REACTORS
330
241
102
}
330
241
100
AcDbScale
 70
     0
300
1:10
140
1.0
141
10.0
290
     0
  0
SCALE
  5
248
102
{ACAD_REACTORS
330
241
102
}
330
241
100
AcDbScale
 70
     0
300
1:16
140
1.0
141
16.0
290
     0
  0
SCALE
  5
249
102
{ACAD_REACTORS
330
241
102
}
330
241
100
AcDbScale
 70
     0
300
1:20
140
1.0
141
20.0
290
     0
  0
SCALE
  5
24A
102
{ACAD_REACTORS
330
241
102
}
330
241
100
AcDbScale
 70
     0
300
1:30
140
1.0
141
30.0
290
     0
  0
SCALE
  5
24B
102
{ACAD_REACTORS
330
241
102
}
330
241
100
AcDbScale
 70
     0
300
1:40
140
1.0
141
40.0
290
     0
  0
SCALE
  5
24C
102
{ACAD_REACTORS
330
241
102
}
330
241
100
AcDbScale
 70
     0
300
1:50
140
1.0
141
50.0
290
     0
  0
SCALE
  5
24D
102
{ACAD_REACTORS
330
241
102
}
330
241
100
AcDbScale
 70
     0
300
1:100
140
1.0
141
100.0
290
     0
  0
SCALE
  5
24E
102
{ACAD_REACTORS
330
241
102
}
330
241
100
AcDbScale
 70
     0
300
2:1
140
2.0
141
1.0
290
     0
  0
SCALE
  5
24F
102
{ACAD_REACTORS
330
241
102
}
330
241
100
AcDbScale
 70
     0
300
4:1
140
4.0
141
1.0
290
     0
  0
SCALE
  5
250
102
{ACAD_REACTORS
330
241
102
}
330
241
100
AcDbScale
 70
     0
300
8:1
140
8.0
141
1.0
290
     0
  0
SCALE
  5
251
102
{ACAD_REACTORS
330
241
102
}
330
241
100
AcDbScale
 70
     0
300
10:1
140
10.0
141
1.0
290
     0
  0
SCALE
  5
252
102
{ACAD_REACTORS
330
241
102
}
330
241
100
AcDbScale
 70
     0
300
100:1
140
100.0
141
1.0
290
     0
  0
SCALE
  5
253
102
{ACAD_REACTORS
330
241
102
}
330
241
100
AcDbScale
 70
     0
300
1/128" = 1'-0"
140
0.0078125
141
12.0
290
     0
  0
SCALE
  5
254
102
{ACAD_REACTORS
330
241
102
}
330
241
100
AcDbScale
 70
     0
300
1/64" = 1'-0"
140
0.015625
141
12.0
290
     0
  0
SCALE
  5
255
102
{ACAD_REACTORS
330
241
102
}
330
241
100
AcDbScale
 70
     0
300
1/32" = 1'-0"
140
0.03125
141
12.0
290
     0
  0
SCALE
  5
256
102
{ACAD_REACTORS
330
241
102
}
330
241
100
AcDbScale
 70
     0
300
1/16" = 1'-0"
140
0.0625
141
12.0
290
     0
  0
SCALE
  5
257
102
{ACAD_REACTORS
330
241
102
}
330
241
100
AcDbScale
 70
     0
300
3/32" = 1'-0"
140
0.09375
141
12.0
290
     0
  0
SCALE
  5
258
102
{ACAD_REACTORS
330
241
102
}
330
241
100
AcDbScale
 70
     0
300
1/8" = 1'-0"
140
0.125
141
12.0
290
     0
  0
SCALE
  5
259
102
{ACAD_REACTORS
330
241
102
}
330
241
100
AcDbScale
 70
     0
300
3/16" = 1'-0"
140
0.1875
141
12.0
290
     0
  0
SCALE
  5
25A
102
{ACAD_REACTORS
330
241
102
}
330
241
100
AcDbScale
 70
     0
300
1/4" = 1'-0"
140
0.25
141
12.0
290
     0
  0
SCALE
  5
25B
102
{ACAD_REACTORS
330
241
102
}
330
241
100
AcDbScale
 70
     0
300
3/8" = 1'-0"
140
0.375
141
12.0
290
     0
  0
SCALE
  5
25C
102
{ACAD_REACTORS
330
241
102
}
330
241
100
AcDbScale
 70
     0
300
1/2" = 1'-0"
140
0.5
141
12.0
290
     0
  0
SCALE
  5
25D
102
{ACAD_REACTORS
330
241
102
}
330
241
100
AcDbScale
 70
     0
300
3/4" = 1'-0"
140
0.75
141
12.0
290
     0
  0
SCALE
  5
25E
102
{ACAD_REACTORS
330
241
102
}
330
241
100
AcDbScale
 70
     0
300
1" = 1'-0"
140
1.0
141
12.0
290
     0
  0
SCALE
  5
25F
102
{ACAD_REACTORS
330
241
102
}
330
241
100
AcDbScale
 70
     0
300
1-1/2" = 1'-0"
140
1.5
141
12.0
290
     0
  0
SCALE
  5
260
102
{ACAD_REACTORS
330
241
102
}
330
241
100
AcDbScale
 70
     0
300
3" = 1'-0"
140
3.0
141
12.0
290
     0
  0
SCALE
  5
261
102
{ACAD_REACTORS
330
241
102
}
330
241
100
AcDbScale
 70
     0
300
6" = 1'-0"
140
6.0
141
12.0
290
     0
  0
SCALE
  5
262
102
{ACAD_REACTORS
330
241
102
}
330
241
100
AcDbScale
 70
     0
300
1'-0" = 1'-0"
140
12.0
141
12.0
290
     0
  0
TABLESTYLE
  5
279
102
{ACAD_REACTORS
330
278
102
}
102
{ACAD_XDICTIONARY
360
238A
102
}
330
278
100
AcDbTableStyle
  3
Standard
 70
     0
 71
     0
 40
0.06
 41
0.06
280
     0
281
     0
  7
Standard
140
4.5
170
     2
 62
     0
 63
   257
283
     0
 90
        4
 91
        0
  1

274
    -2
284
     1
 64
     0
275
    -2
285
     1
 65
     0
276
    -2
286
     1
 66
     0
277
    -2
287
     1
 67
     0
278
    -2
288
     1
 68
     0
279
    -2
289
     1
 69
     0
  7
Standard
140
6.0
170
     5
 62
     0
 63
   257
283
     0
 90
        4
 91
        0
  1

274
    -2
284
     1
 64
     0
275
    -2
285
     1
 65
     0
276
    -2
286
     1
 66
     0
277
    -2
287
     1
 67
     0
278
    -2
288
     1
 68
     0
279
    -2
289
     1
 69
     0
  7
Standard
140
4.5
170
     5
 62
     0
 63
   257
283
     0
 90
        4
 91
        0
  1

274
    -2
284
     1
 64
     0
275
    -2
285
     1
 65
     0
276
    -2
286
     1
 66
     0
277
    -2
287
     1
 67
     0
278
    -2
288
     1
 68
     0
279
    -2
289
     1
 69
     0
  0
VISUALSTYLE
  5
26C
102
{ACAD_REACTORS
330
267
102
}
330
267
100
AcDbVisualStyle
  2
2dWireframe
 70
     4
 71
     0
 72
     2
 73
     0
 90
        0
 40
-0.6
 41
-30.0
 62
     5
 63
     7
421
 16777215
 74
     1
 91
        4
 64
     7
 65
   257
 75
     1
175
     1
 42
1.0
 92
        0
 66
   257
 43
1.0
 76
     1
 77
     6
 78
     2
 67
     7
 79
     5
170
     0
171
     0
290
     0
174
     0
 93
        1
 44
0.0
173
     0
291
     0
 45
0.0
  0
VISUALSTYLE
  5
26E
102
{ACAD_REACTORS
330
267
102
}
330
267
100
AcDbVisualStyle
  2
3D Hidden
 70
     6
 71
     1
 72
     2
 73
     2
 90
        0
 40
-0.6
 41
-30.0
 62
     5
 63
     7
421
 16777215
 74
     2
 91
        2
 64
     7
 65
   257
 75
     2
175
     1
 42
40.0
 92
        0
 66
   257
 43
1.0
 76
     1
 77
     6
 78
     2
 67
     7
 79
     3
170
     0
171
     0
290
     0
174
     0
 93
        1
 44
0.0
173
     0
291
     0
 45
0.0
  0
VISUALSTYLE
  5
26D
102
{ACAD_REACTORS
330
267
102
}
330
267
100
AcDbVisualStyle
  2
3dWireframe
 70
     5
 71
     0
 72
     2
 73
     0
 90
        0
 40
-0.6
 41
-30.0
 62
     5
 63
     7
421
 16777215
 74
     1
 91
        4
 64
     7
 65
   257
 75
     1
175
     1
 42
1.0
 92
        0
 66
   257
 43
1.0
 76
     1
 77
     6
 78
     2
 67
     7
 79
     5
170
     0
171
     0
290
     0
174
     0
 93
        1
 44
0.0
173
     0
291
     0
 45
0.0
  0
VISUALSTYLE
  5
26F
102
{ACAD_REACTORS
330
267
102
}
330
267
100
AcDbVisualStyle
  2
Basic
 70
     7
 71
     1
 72
     0
 73
     1
 90
        0
 40
-0.6
 41
-30.0
 62
     5
 63
     7
421
 16777215
 74
     0
 91
        4
 64
     7
 65
   257
 75
     1
175
     1
 42
1.0
 92
        8
 66
     7
 43
1.0
 76
     1
 77
     6
 78
     2
 67
     7
 79
     5
170
     0
171
     0
290
     0
174
     0
 93
        1
 44
0.0
173
     0
291
     1
 45
0.0
  0
VISUALSTYLE
  5
273
102
{ACAD_REACTORS
330
267
102
}
330
267
100
AcDbVisualStyle
  2
Brighten
 70
    12
 71
     2
 72
     2
 73
     0
 90
        0
 40
-0.6
 41
-30.0
 62
     5
 63
     7
421
 16777215
 74
     1
 91
        4
 64
     7
 65
   257
 75
     1
175
     1
 42
1.0
 92
        8
 66
     7
 43
1.0
 76
     1
 77
     6
 78
     2
 67
     7
 79
     5
170
     0
171
     0
290
     0
174
     0
 93
        1
 44
50.0
173
     0
291
     1
 45
0.0
  0
VISUALSTYLE
  5
277
102
{ACAD_REACTORS
330
267
102
}
330
267
100
AcDbVisualStyle
  2
ColorChange
 70
    16
 71
     2
 72
     2
 73
     3
 90
        0
 40
-0.6
 41
-30.0
 62
     5
 63
     8
421
  8421504
 74
     1
 91
        4
 64
     7
 65
   257
 75
     1
175
     1
 42
1.0
 92
        8
 66
     8
424
  8421504
 43
1.0
 76
     1
 77
     6
 78
     2
 67
     7
 79
     5
170
     0
171
     0
290
     0
174
     0
 93
        1
 44
0.0
173
     0
291
     1
 45
0.0
  0
VISUALSTYLE
  5
271
102
{ACAD_REACTORS
330
267
102
}
330
267
100
AcDbVisualStyle
  2
Conceptual
 70
     9
 71
     3
 72
     2
 73
     0
 90
        0
 40
-0.6
 41
-30.0
 62
     5
 63
     7
421
 16777215
 74
     2
 91
        2
 64
     7
 65
   257
 75
     1
175
     1
 42
40.0
 92
        8
 66
     7
 43
1.0
 76
     1
 77
     6
 78
     2
 67
     7
 79
     3
170
     0
171
     0
290
     0
174
     0
 93
        1
 44
0.0
173
     0
291
     0
 45
0.0
  0
VISUALSTYLE
  5
272
102
{ACAD_REACTORS
330
267
102
}
330
267
100
AcDbVisualStyle
  2
Dim
 70
    11
 71
     2
 72
     2
 73
     0
 90
        0
 40
-0.6
 41
-30.0
 62
     5
 63
     7
421
 16777215
 74
     1
 91
        4
 64
     7
 65
   257
 75
     1
175
     1
 42
1.0
 92
        8
 66
     7
 43
1.0
 76
     1
 77
     6
 78
     2
 67
     7
 79
     5
170
     0
171
     0
290
     0
174
     0
 93
        1
 44
-50.0
173
     0
291
     1
 45
0.0
  0
VISUALSTYLE
  5
8FE
102
{ACAD_REACTORS
330
267
102
}
330
267
100
AcDbVisualStyle
  2
EdgeColorOff
 70
    22
 71
     2
 72
     2
 73
     0
 90
        0
 40
0.6
 41
30.0
 62
     5
 63
     7
421
 16777215
 74
     1
 91
        4
 64
     7
 65
   257
 75
     1
175
     1
 42
1.0
 92
        8
 66
     7
 43
1.0
 76
     1
 77
     6
 78
     2
 67
     7
 79
     5
170
     0
171
     0
290
     0
174
     0
 93
        1
 44
0.0
173
     0
291
     1
 45
0.0
  0
VISUALSTYLE
  5
276
102
{ACAD_REACTORS
330
267
102
}
330
267
100
AcDbVisualStyle
  2
Facepattern
 70
    15
 71
     2
 72
     2
 73
     0
 90
        0
 40
-0.6
 41
-30.0
 62
     5
 63
     7
421
 16777215
 74
     1
 91
        4
 64
     7
 65
   257
 75
     1
175
     1
 42
1.0
 92
        8
 66
     7
 43
1.0
 76
     1
 77
     6
 78
     2
 67
     7
 79
     5
170
     0
171
     0
290
     0
174
     0
 93
        1
 44
0.0
173
     0
291
     1
 45
0.0
  0
VISUALSTYLE
  5
268
102
{ACAD_REACTORS
330
267
102
}
330
267
100
AcDbVisualStyle
  2
Flat
 70
     0
 71
     2
 72
     1
 73
     1
 90
        2
 40
-0.6
 41
30.0
 62
     5
 63
     7
421
 16777215
 74
     0
 91
        4
 64
     7
 65
   257
 75
     1
175
     1
 42
1.0
 92
        8
 66
     7
 43
1.0
 76
     1
 77
     6
 78
     2
 67
     7
 79
     5
170
     0
171
     0
290
     0
174
     0
 93
       13
 44
0.0
173
     0
291
     1
 45
0.0
  0
VISUALSTYLE
  5
269
102
{ACAD_REACTORS
330
267
102
}
330
267
100
AcDbVisualStyle
  2
FlatWithEdges
 70
     1
 71
     2
 72
     1
 73
     1
 90
        2
 40
-0.6
 41
30.0
 62
     5
 63
     7
421
 16777215
 74
     1
 91
        4
 64
     7
 65
   257
 75
     1
175
     1
 42
1.0
 92
        0
 66
   257
 43
1.0
 76
     1
 77
     6
 78
     2
 67
     7
 79
     5
170
     0
171
     0
290
     0
174
     0
 93
       13
 44
0.0
173
     0
291
     1
 45
0.0
  0
VISUALSTYLE
  5
26A
102
{ACAD_REACTORS
330
267
102
}
330
267
100
AcDbVisualStyle
  2
Gouraud
 70
     2
 71
     2
 72
     2
 73
     1
 90
        2
 40
-0.6
 41
30.0
 62
     5
 63
     7
421
 16777215
 74
     0
 91
        4
 64
     7
 65
   257
 75
     1
175
     1
 42
1.0
 92
        0
 66
     7
 43
1.0
 76
     1
 77
     6
 78
     2
 67
     7
 79
     5
170
     0
171
     0
290
     0
174
     0
 93
       13
 44
0.0
173
     0
291
     1
 45
0.0
  0
VISUALSTYLE
  5
26B
102
{ACAD_REACTORS
330
267
102
}
330
267
100
AcDbVisualStyle
  2
GouraudWithEdges
 70
     3
 71
     2
 72
     2
 73
     1
 90
        2
 40
-0.6
 41
30.0
 62
     5
 63
     7
421
 16777215
 74
     1
 91
        4
 64
     7
 65
   257
 75
     1
175
     1
 42
1.0
 92
        0
 66
   257
 43
1.0
 76
     1
 77
     6
 78
     2
 67
     7
 79
     5
170
     0
171
     0
290
     0
174
     0
 93
       13
 44
0.0
173
     0
291
     1
 45
0.0
  0
VISUALSTYLE
  5
8FB
102
{ACAD_REACTORS
330
267
102
}
330
267
100
AcDbVisualStyle
  2
Hidden
 70
     6
 71
     1
 72
     2
 73
     2
 90
        0
 40
0.6
 41
30.0
 62
     5
 63
     7
421
 16777215
 74
     2
 91
        2
 64
     7
 65
   257
 75
     2
175
     1
 42
40.0
 92
        0
 66
   257
 43
1.0
 76
     1
 77
     6
 78
     2
 67
     7
 79
     3
170
     0
171
     0
290
     0
174
     0
 93
        1
 44
0.0
173
     0
291
     0
 45
0.0
  0
VISUALSTYLE
  5
8FC
102
{ACAD_REACTORS
330
267
102
}
330
267
100
AcDbVisualStyle
  2
JitterOff
 70
    20
 71
     2
 72
     2
 73
     0
 90
        0
 40
0.6
 41
30.0
 62
     5
 63
     7
421
 16777215
 74
     1
 91
        4
 64
     7
 65
   257
 75
     1
175
     1
 42
1.0
 92
       10
 66
     7
 43
1.0
 76
     1
 77
     6
 78
     2
 67
     7
 79
     5
170
     0
171
     0
290
     0
174
     0
 93
        1
 44
0.0
173
     0
291
     1
 45
0.0
  0
VISUALSTYLE
  5
275
102
{ACAD_REACTORS
330
267
102
}
330
267
100
AcDbVisualStyle
  2
Linepattern
 70
    14
 71
     2
 72
     2
 73
     0
 90
        0
 40
-0.6
 41
-30.0
 62
     5
 63
     7
421
 16777215
 74
     1
 91
        4
 64
     7
 65
   257
 75
     7
175
     7
 42
1.0
 92
        8
 66
     7
 43
1.0
 76
     1
 77
     6
 78
     2
 67
     7
 79
     5
170
     0
171
     0
290
     0
174
     0
 93
        1
 44
0.0
173
     0
291
     1
 45
0.0
  0
VISUALSTYLE
  5
8FD
102
{ACAD_REACTORS
330
267
102
}
330
267
100
AcDbVisualStyle
  2
OverhangOff
 70
    21
 71
     2
 72
     2
 73
     0
 90
        0
 40
0.6
 41
30.0
 62
     5
 63
     7
421
 16777215
 74
     1
 91
        4
 64
     7
 65
   257
 75
     1
175
     1
 42
1.0
 92
        9
 66
     7
 43
1.0
 76
     1
 77
     6
 78
     2
 67
     7
 79
     5
170
     0
171
     0
290
     0
174
     0
 93
        1
 44
0.0
173
     0
291
     1
 45
0.0
  0
VISUALSTYLE
  5
270
102
{ACAD_REACTORS
330
267
102
}
330
267
100
AcDbVisualStyle
  2
Realistic
 70
     8
 71
     2
 72
     2
 73
     0
 90
        0
 40
-0.6
 41
-30.0
 62
     5
 63
     7
421
 16777215
 74
     1
 91
        0
 64
     7
 65
   257
 75
     1
175
     1
 42
1.0
 92
        8
 66
     8
424
  7895160
 43
1.0
 76
     1
 77
     6
 78
     2
 67
     7
 79
     5
170
     0
171
     0
290
     0
174
     0
 93
       13
 44
0.0
173
     0
291
     0
 45
0.0
  0
VISUALSTYLE
  5
903
102
{ACAD_REACTORS
330
267
102
}
330
267
100
AcDbVisualStyle
  2
Shaded
 70
    27
 71
     2
 72
     2
 73
     1
 90
        2
 40
0.6
 41
30.0
 62
     5
 63
     7
421
 16777215
 74
     0
 91
        4
 64
     7
 65
   257
 75
     1
175
     1
 42
1.0
 92
        8
 66
   257
 43
1.0
 76
     1
 77
     6
 78
     2
 67
     8
425
  7895160
 79
     3
170
     0
171
     0
290
     0
174
     0
 93
        5
 44
0.0
173
     0
291
     0
 45
0.0
  0
VISUALSTYLE
  5
902
102
{ACAD_REACTORS
330
267
102
}
330
267
100
AcDbVisualStyle
  2
Shaded with edges
 70
    26
 71
     2
 72
     2
 73
     1
 90
        2
 40
0.6
 41
30.0
 62
     5
 63
     7
421
 16777215
 74
     1
 91
       10
 64
     7
 65
   257
 75
     2
175
     1
 42
1.0
 92
        8
 66
   257
 43
1.0
 76
     1
 77
     6
 78
     2
 67
     7
 79
     3
170
     0
171
     0
290
     0
174
     0
 93
        5
 44
0.0
173
     0
291
     0
 45
0.0
  0
VISUALSTYLE
  5
8FF
102
{ACAD_REACTORS
330
267
102
}
330
267
100
AcDbVisualStyle
  2
Shades of Gray
 70
    23
 71
     2
 72
     2
 73
     3
 90
        0
 40
0.6
 41
30.0
 62
     5
 63
     7
421
 16777215
 74
     2
 91
        2
 64
     7
 65
     7
 75
     1
175
     1
 42
40.0
 92
        8
 66
     7
 43
1.0
 76
     1
 77
     6
 78
     2
 67
     7
 79
     3
170
     0
171
     0
290
     0
174
     0
 93
        1
 44
0.0
173
     0
291
     0
 45
0.0
  0
VISUALSTYLE
  5
900
102
{ACAD_REACTORS
330
267
102
}
330
267
100
AcDbVisualStyle
  2
Sketchy
 70
    24
 71
     1
 72
     2
 73
     2
 90
        0
 40
0.6
 41
30.0
 62
     5
 63
     7
421
 16777215
 74
     2
 91
        2
 64
     7
 65
     7
 75
     1
175
     1
 42
40.0
 92
       11
 66
     7
 43
1.0
 76
     1
 77
     6
 78
     2
 67
     7
 79
     6
170
     0
171
     0
290
     0
174
     0
 93
        1
 44
0.0
173
     0
291
     0
 45
0.0
  0
VISUALSTYLE
  5
274
102
{ACAD_REACTORS
330
267
102
}
330
267
100
AcDbVisualStyle
  2
Thicken
 70
    13
 71
     2
 72
     2
 73
     0
 90
        0
 40
-0.6
 41
-30.0
 62
     5
 63
     7
421
 16777215
 74
     1
 91
        4
 64
     7
 65
   257
 75
     1
175
     1
 42
1.0
 92
       12
 66
     7
 43
1.0
 76
     1
 77
     6
 78
     2
 67
     7
 79
     5
170
     0
171
     0
290
     0
174
     0
 93
        1
 44
0.0
173
     0
291
     1
 45
0.0
  0
VISUALSTYLE
  5
8FA
102
{ACAD_REACTORS
330
267
102
}
330
267
100
AcDbVisualStyle
  2
Wireframe
 70
     5
 71
     0
 72
     2
 73
     0
 90
        0
 40
0.6
 41
30.0
 62
     5
 63
     7
421
 16777215
 74
     1
 91
        4
 64
     7
 65
   257
 75
     1
175
     1
 42
1.0
 92
        0
 66
   257
 43
1.0
 76
     1
 77
     6
 78
     2
 67
     7
 79
     3
170
     0
171
     0
290
     0
174
     0
 93
        1
 44
0.0
173
     0
291
     0
 45
0.0
  0
VISUALSTYLE
  5
901
102
{ACAD_REACTORS
330
267
102
}
330
267
100
AcDbVisualStyle
  2
X-Ray
 70
    25
 71
     2
 72
     2
 73
     1
 90
        1
 40
0.5
 41
30.0
 62
     5
 63
     7
421
 16777215
 74
     1
 91
        0
 64
     7
 65
   257
 75
     1
175
     1
 42
1.0
 92
        8
 66
     7
 43
1.0
 76
     1
 77
     6
 78
     2
 67
     7
 79
     3
170
     0
171
     0
290
     0
174
     0
 93
       13
 44
0.0
173
     0
291
     0
 45
0.0
  0
DICTIONARYVAR
  5
331
102
{ACAD_REACTORS
330
330
102
}
330
330
100
DictionaryVariables
280
     0
  1
1:1
  0
DICTIONARYVAR
  5
D5E
102
{ACAD_REACTORS
330
330
102
}
330
330
100
DictionaryVariables
280
     0
  1
Standard
  0
DICTIONARYVAR
  5
335
102
{ACAD_REACTORS
330
330
102
}
330
330
100
DictionaryVariables
280
     0
  1
Standard
  0
DICTIONARYVAR
  5
D52
102
{ACAD_REACTORS
330
330
102
}
330
330
100
DictionaryVariables
280
     0
  1
ByLayer
  0
DICTIONARYVAR
  5
896
102
{ACAD_REACTORS
330
330
102
}
330
330
100
DictionaryVariables
280
     0
  1
0
  0
DICTIONARYVAR
  5
1DFC
102
{ACAD_REACTORS
330
E38
102
}
330
E38
100
DictionaryVariables
280
     0
  1
0.261799
  0
DICTIONARYVAR
  5
1DFA
102
{ACAD_REACTORS
330
E38
102
}
330
E38
100
DictionaryVariables
280
     0
  1
0.400000
  0
DICTIONARYVAR
  5
1DFB
102
{ACAD_REACTORS
330
E38
102
}
330
E38
100
DictionaryVariables
280
     0
  1
0.250000
  0
DICTIONARYVAR
  5
1DFD
102
{ACAD_REACTORS
330
E38
102
}
330
E38
100
DictionaryVariables
280
     0
  1
1
  0
FIELD
  5
1EAE
102
{ACAD_REACTORS
330
22E5
330
2373
330
2374
102
}
330
2374
100
AcDbField
  1
_text
  2
{%<\_FldIdx 0>%N}
 90
        1
360
1EAF
 97
        0
 91
       63
 92
        0
 94
       11
 95
        2
 96
        0
300

 93
        1
  6
ACFD_FIELDTEXT_CHECKSUM
 93
        2
 90
        2
140
4461.0
 94
        0
300

302

304
ACVALUE_END
  7
ACFD_FIELD_VALUE
 93
        6
 90
        4
  1
{20200124N}
 94
        0
300

302

304
ACVALUE_END
301
{20200124N}
 98
       11
  0
DICTIONARY
  5
238A
330
279
100
AcDbDictionary
280
     1
281
     1
  3
ACAD_ROUNDTRIP_2008_TABLESTYLE_CELLSTYLEMAP
360
238B
  0
FIELD
  5
1EAF
330
1EAE
100
AcDbField
  1
AcVar
  2
\AcVar Date \f "yyyyMMdd"
 90
        0
 97
        0
 91
       63
 92
        0
 94
        8
 95
       64
 96
        0
300
Variable not supported
 93
        1
  6
Variable
 93
        2
 90
        4
  1
Date
 94
        0
300

302

304
ACVALUE_END
  7
ACFD_FIELD_VALUE
 93
        6
 90
        8
 92
       16
310
E407010000001700100028001D000000
 94
        0
300
yyyyMMdd
302

304
ACVALUE_END
301
20200124
 98
        8
  0
CELLSTYLEMAP
  5
238B
102
{ACAD_REACTORS
330
238A
102
}
330
238A
100
AcDbCellStyleMap
 90
        3
300
CELLSTYLE
  1
TABLEFORMAT_BEGIN
 90
        5
170
     1
 91
        0
 92
    32768
 62
   257
 93
        1
300
CONTENTFORMAT
  1
CONTENTFORMAT_BEGIN
 90
        0
 91
        0
 92
        4
 93
        0
300

 40
0.0
140
1.0
 94
        5
 62
     0
340
17
144
6.0
309
CONTENTFORMAT_END
171
     1
301
MARGIN
  1
CELLMARGIN_BEGIN
 40
0.06
 40
0.06
 40
0.06
 40
0.06
 40
0.18
 40
0.18
309
CELLMARGIN_END
 94
        6
 95
        1
302
GRIDFORMAT
  1
GRIDFORMAT_BEGIN
 90
        0
 91
        1
 62
     0
 92
       -2
340
0
 93
        0
 40
0.045
309
GRIDFORMAT_END
 95
        2
302
GRIDFORMAT
  1
GRIDFORMAT_BEGIN
 90
        0
 91
        1
 62
     0
 92
       -2
340
0
 93
        0
 40
0.045
309
GRIDFORMAT_END
 95
        4
302
GRIDFORMAT
  1
GRIDFORMAT_BEGIN
 90
        0
 91
        1
 62
     0
 92
       -2
340
0
 93
        0
 40
0.045
309
GRIDFORMAT_END
 95
        8
302
GRIDFORMAT
  1
GRIDFORMAT_BEGIN
 90
        0
 91
        1
 62
     0
 92
       -2
340
0
 93
        0
 40
0.045
309
GRIDFORMAT_END
 95
       16
302
GRIDFORMAT
  1
GRIDFORMAT_BEGIN
 90
        0
 91
        1
 62
     0
 92
       -2
340
0
 93
        0
 40
0.045
309
GRIDFORMAT_END
 95
       32
302
GRIDFORMAT
  1
GRIDFORMAT_BEGIN
 90
        0
 91
        1
 62
     0
 92
       -2
340
0
 93
        0
 40
0.045
309
GRIDFORMAT_END
309
TABLEFORMAT_END
  1
CELLSTYLE_BEGIN
 90
        1
 91
        1
300
_TITLE
309
CELLSTYLE_END
300
CELLSTYLE
  1
TABLEFORMAT_BEGIN
 90
        5
170
     1
 91
        0
 92
        0
 62
   257
 93
        1
300
CONTENTFORMAT
  1
CONTENTFORMAT_BEGIN
 90
        0
 91
        0
 92
        4
 93
        0
300

 40
0.0
140
1.0
 94
        5
 62
     0
340
17
144
4.5
309
CONTENTFORMAT_END
171
     1
301
MARGIN
  1
CELLMARGIN_BEGIN
 40
0.06
 40
0.06
 40
0.06
 40
0.06
 40
0.18
 40
0.18
309
CELLMARGIN_END
 94
        6
 95
        1
302
GRIDFORMAT
  1
GRIDFORMAT_BEGIN
 90
        0
 91
        1
 62
     0
 92
       -2
340
0
 93
        0
 40
0.045
309
GRIDFORMAT_END
 95
        2
302
GRIDFORMAT
  1
GRIDFORMAT_BEGIN
 90
        0
 91
        1
 62
     0
 92
       -2
340
0
 93
        0
 40
0.045
309
GRIDFORMAT_END
 95
        4
302
GRIDFORMAT
  1
GRIDFORMAT_BEGIN
 90
        0
 91
        1
 62
     0
 92
       -2
340
0
 93
        0
 40
0.045
309
GRIDFORMAT_END
 95
        8
302
GRIDFORMAT
  1
GRIDFORMAT_BEGIN
 90
        0
 91
        1
 62
     0
 92
       -2
340
0
 93
        0
 40
0.045
309
GRIDFORMAT_END
 95
       16
302
GRIDFORMAT
  1
GRIDFORMAT_BEGIN
 90
        0
 91
        1
 62
     0
 92
       -2
340
0
 93
        0
 40
0.045
309
GRIDFORMAT_END
 95
       32
302
GRIDFORMAT
  1
GRIDFORMAT_BEGIN
 90
        0
 91
        1
 62
     0
 92
       -2
340
0
 93
        0
 40
0.045
309
GRIDFORMAT_END
309
TABLEFORMAT_END
  1
CELLSTYLE_BEGIN
 90
        2
 91
        1
300
_HEADER
309
CELLSTYLE_END
300
CELLSTYLE
  1
TABLEFORMAT_BEGIN
 90
        5
170
     1
 91
        0
 92
        0
 62
   257
 93
        1
300
CONTENTFORMAT
  1
CONTENTFORMAT_BEGIN
 90
        0
 91
        0
 92
        4
 93
        0
300

 40
0.0
140
1.0
 94
        2
 62
     0
340
17
144
4.5
309
CONTENTFORMAT_END
171
     1
301
MARGIN
  1
CELLMARGIN_BEGIN
 40
0.06
 40
0.06
 40
0.06
 40
0.06
 40
0.18
 40
0.18
309
CELLMARGIN_END
 94
        6
 95
        1
302
GRIDFORMAT
  1
GRIDFORMAT_BEGIN
 90
        0
 91
        1
 62
     0
 92
       -2
340
0
 93
        0
 40
0.045
309
GRIDFORMAT_END
 95
        2
302
GRIDFORMAT
  1
GRIDFORMAT_BEGIN
 90
        0
 91
        1
 62
     0
 92
       -2
340
0
 93
        0
 40
0.045
309
GRIDFORMAT_END
 95
        4
302
GRIDFORMAT
  1
GRIDFORMAT_BEGIN
 90
        0
 91
        1
 62
     0
 92
       -2
340
0
 93
        0
 40
0.045
309
GRIDFORMAT_END
 95
        8
302
GRIDFORMAT
  1
GRIDFORMAT_BEGIN
 90
        0
 91
        1
 62
     0
 92
       -2
340
0
 93
        0
 40
0.045
309
GRIDFORMAT_END
 95
       16
302
GRIDFORMAT
  1
GRIDFORMAT_BEGIN
 90
        0
 91
        1
 62
     0
 92
       -2
340
0
 93
        0
 40
0.045
309
GRIDFORMAT_END
 95
       32
302
GRIDFORMAT
  1
GRIDFORMAT_BEGIN
 90
        0
 91
        1
 62
     0
 92
       -2
340
0
 93
        0
 40
0.045
309
GRIDFORMAT_END
309
TABLEFORMAT_END
  1
CELLSTYLE_BEGIN
 90
        3
 91
        2
300
_DATA
309
CELLSTYLE_END
  0
ENDSEC
  0
EOF
