  0
SECTION
  2
HEADER
  9
$ACADVER
  1
AC1021
  9
$ACADMAINTVER
 70
    25
  9
$DWGCODEPAGE
  3
ANSI_932
  9
$LASTSAVEDBY
  1
Shimosaki
  9
$INSBASE
 10
0.0
 20
0.0
 30
0.0
  9
$EXTMIN
 10
689.8988725370491
 20
460.9594800841883
 30
0.0
  9
$EXTMAX
 10
1080.203169345885
 20
1029.267348823772
 30
0.0
  9
$LIMMIN
 10
0.0
 20
0.0
  9
$LIMMAX
 10
1682.0
 20
1188.0
  9
$ORTHOMODE
 70
     0
  9
$REGENMODE
 70
     1
  9
$FILLMODE
 70
     1
  9
$QTEXTMODE
 70
     0
  9
$MIRRTEXT
 70
     1
  9
$LTSCALE
 40
2.0
  9
$ATTMODE
 70
     1
  9
$TEXTSIZE
 40
0.2
  9
$TRACEWID
 40
0.05
  9
$TEXTSTYLE
  7
STANDARD
  9
$CLAYER
  8
notes
  9
$CELTYPE
  6
ByBlock
  9
$CECOLOR
 62
   256
  9
$CELTSCALE
 40
1.0
  9
$DISPSILH
 70
     0
  9
$DIMSCALE
 40
1.0
  9
$DIMASZ
 40
0.18
  9
$DIMEXO
 40
0.0625
  9
$DIMDLI
 40
0.38
  9
$DIMRND
 40
0.0
  9
$DIMDLE
 40
0.0
  9
$DIMEXE
 40
0.18
  9
$DIMTP
 40
0.0
  9
$DIMTM
 40
0.0
  9
$DIMTXT
 40
0.18
  9
$DIMCEN
 40
0.09
  9
$DIMTSZ
 40
0.0
  9
$DIMTOL
 70
     0
  9
$DIMLIM
 70
     0
  9
$DIMTIH
 70
     1
  9
$DIMTOH
 70
     1
  9
$DIMSE1
 70
     0
  9
$DIMSE2
 70
     0
  9
$DIMTAD
 70
     0
  9
$DIMZIN
 70
     0
  9
$DIMBLK
  1

  9
$DIMASO
 70
     1
  9
$DIMSHO
 70
     1
  9
$DIMPOST
  1

  9
$DIMAPOST
  1

  9
$DIMALT
 70
     0
  9
$DIMALTD
 70
     2
  9
$DIMALTF
 40
25.4
  9
$DIMLFAC
 40
1.0
  9
$DIMTOFL
 70
     0
  9
$DIMTVP
 40
0.0
  9
$DIMTIX
 70
     0
  9
$DIMSOXD
 70
     0
  9
$DIMSAH
 70
     0
  9
$DIMBLK1
  1

  9
$DIMBLK2
  1

  9
$DIMSTYLE
  2
Standard
  9
$DIMCLRD
 70
     0
  9
$DIMCLRE
 70
     0
  9
$DIMCLRT
 70
     0
  9
$DIMTFAC
 40
1.0
  9
$DIMGAP
 40
0.09
  9
$DIMJUST
 70
     0
  9
$DIMSD1
 70
     0
  9
$DIMSD2
 70
     0
  9
$DIMTOLJ
 70
     1
  9
$DIMTZIN
 70
     0
  9
$DIMALTZ
 70
     0
  9
$DIMALTTZ
 70
     0
  9
$DIMUPT
 70
     0
  9
$DIMDEC
 70
     4
  9
$DIMTDEC
 70
     4
  9
$DIMALTU
 70
     2
  9
$DIMALTTD
 70
     2
  9
$DIMTXSTY
  7
STANDARD
  9
$DIMAUNIT
 70
     0
  9
$DIMADEC
 70
     0
  9
$DIMALTRND
 40
0.0
  9
$DIMAZIN
 70
     0
  9
$DIMDSEP
 70
    46
  9
$DIMATFIT
 70
     3
  9
$DIMFRAC
 70
     0
  9
$DIMLDRBLK
  1

  9
$DIMLUNIT
 70
     2
  9
$DIMLWD
 70
    -2
  9
$DIMLWE
 70
    -2
  9
$DIMTMOVE
 70
     2
  9
$DIMFXL
 40
1.0
  9
$DIMFXLON
 70
     0
  9
$DIMJOGANG
 40
0.7853981633974483
  9
$DIMTFILL
 70
     0
  9
$DIMTFILLCLR
 70
     0
  9
$DIMARCSYM
 70
     0
  9
$DIMLTYPE
  6

  9
$DIMLTEX1
  6

  9
$DIMLTEX2
  6

  9
$LUNITS
 70
     2
  9
$LUPREC
 70
     4
  9
$SKETCHINC
 40
0.1
  9
$FILLETRAD
 40
0.5
  9
$AUNITS
 70
     0
  9
$AUPREC
 70
     0
  9
$MENU
  1
.
  9
$ELEVATION
 40
0.0
  9
$PELEVATION
 40
0.0
  9
$THICKNESS
 40
0.0
  9
$LIMCHECK
 70
     0
  9
$CHAMFERA
 40
0.0
  9
$CHAMFERB
 40
0.0
  9
$CHAMFERC
 40
0.0
  9
$CHAMFERD
 40
0.0
  9
$SKPOLY
 70
     0
  9
$TDCREATE
 40
2457206.457936666
  9
$TDUCREATE
 40
2457206.082936666
  9
$TDUPDATE
 40
2457641.743264062
  9
$TDUUPDATE
 40
2457641.368264062
  9
$TDINDWG
 40
0.0016579167
  9
$TDUSRTIMER
 40
2457641.367267303
  9
$USRTIMER
 70
     1
  9
$ANGBASE
 50
0.0
  9
$ANGDIR
 70
     0
  9
$PDMODE
 70
     0
  9
$PDSIZE
 40
0.0
  9
$PLINEWID
 40
0.0
  9
$SPLFRAME
 70
     0
  9
$SPLINETYPE
 70
     6
  9
$SPLINESEGS
 70
     8
  9
$HANDSEED
  5
164
  9
$SURFTAB1
 70
     6
  9
$SURFTAB2
 70
     6
  9
$SURFTYPE
 70
     6
  9
$SURFU
 70
     6
  9
$SURFV
 70
     6
  9
$UCSBASE
  2

  9
$UCSNAME
  2

  9
$UCSORG
 10
0.0
 20
0.0
 30
0.0
  9
$UCSXDIR
 10
1.0
 20
0.0
 30
0.0
  9
$UCSYDIR
 10
0.0
 20
1.0
 30
0.0
  9
$UCSORTHOREF
  2

  9
$UCSORTHOVIEW
 70
     0
  9
$UCSORGTOP
 10
0.0
 20
0.0
 30
0.0
  9
$UCSORGBOTTOM
 10
0.0
 20
0.0
 30
0.0
  9
$UCSORGLEFT
 10
0.0
 20
0.0
 30
0.0
  9
$UCSORGRIGHT
 10
0.0
 20
0.0
 30
0.0
  9
$UCSORGFRONT
 10
0.0
 20
0.0
 30
0.0
  9
$UCSORGBACK
 10
0.0
 20
0.0
 30
0.0
  9
$PUCSBASE
  2

  9
$PUCSNAME
  2

  9
$PUCSORG
 10
0.0
 20
0.0
 30
0.0
  9
$PUCSXDIR
 10
1.0
 20
0.0
 30
0.0
  9
$PUCSYDIR
 10
0.0
 20
1.0
 30
0.0
  9
$PUCSORTHOREF
  2

  9
$PUCSORTHOVIEW
 70
     0
  9
$PUCSORGTOP
 10
0.0
 20
0.0
 30
0.0
  9
$PUCSORGBOTTOM
 10
0.0
 20
0.0
 30
0.0
  9
$PUCSORGLEFT
 10
0.0
 20
0.0
 30
0.0
  9
$PUCSORGRIGHT
 10
0.0
 20
0.0
 30
0.0
  9
$PUCSORGFRONT
 10
0.0
 20
0.0
 30
0.0
  9
$PUCSORGBACK
 10
0.0
 20
0.0
 30
0.0
  9
$USERI1
 70
     0
  9
$USERI2
 70
     0
  9
$USERI3
 70
     0
  9
$USERI4
 70
     0
  9
$USERI5
 70
     0
  9
$USERR1
 40
0.0
  9
$USERR2
 40
0.0
  9
$USERR3
 40
0.0
  9
$USERR4
 40
0.0
  9
$USERR5
 40
0.0
  9
$WORLDVIEW
 70
     1
  9
$SHADEDGE
 70
     3
  9
$SHADEDIF
 70
    70
  9
$TILEMODE
 70
     1
  9
$MAXACTVP
 70
    64
  9
$PINSBASE
 10
0.0
 20
0.0
 30
0.0
  9
$PLIMCHECK
 70
     0
  9
$PEXTMIN
 10
1.000000000000000E+20
 20
1.000000000000000E+20
 30
1.000000000000000E+20
  9
$PEXTMAX
 10
-1.000000000000000E+20
 20
-1.000000000000000E+20
 30
-1.000000000000000E+20
  9
$PLIMMIN
 10
0.0
 20
0.0
  9
$PLIMMAX
 10
0.0
 20
0.0
  9
$UNITMODE
 70
     0
  9
$VISRETAIN
 70
     1
  9
$PLINEGEN
 70
     0
  9
$PSLTSCALE
 70
     1
  9
$TREEDEPTH
 70
  3020
  9
$CMLSTYLE
  2
Standard
  9
$CMLJUST
 70
     0
  9
$CMLSCALE
 40
1.0
  9
$PROXYGRAPHICS
 70
     1
  9
$MEASUREMENT
 70
     0
  9
$CELWEIGHT
370
    -1
  9
$ENDCAPS
280
     0
  9
$JOINSTYLE
280
     0
  9
$LWDISPLAY
290
     0
  9
$INSUNITS
 70
     0
  9
$HYPERLINKBASE
  1

  9
$STYLESHEET
  1

  9
$XEDIT
290
     1
  9
$CEPSNTYPE
380
     0
  9
$PSTYLEMODE
290
     1
  9
$FINGERPRINTGUID
  2
{B4746CAD-BFC6-4258-959D-BBFB9B5FFFA3}
  9
$VERSIONGUID
  2
{FAEB1C32-E019-11D5-929B-00C0DF256EC4}
  9
$EXTNAMES
290
     1
  9
$PSVPSCALE
 40
0.0
  9
$OLESTARTUP
290
     0
  9
$SORTENTS
280
   127
  9
$INDEXCTL
280
     0
  9
$HIDETEXT
280
     1
  9
$XCLIPFRAME
290
     0
  9
$HALOGAP
280
     0
  9
$OBSCOLOR
 70
   257
  9
$OBSLTYPE
280
     0
  9
$INTERSECTIONDISPLAY
280
     0
  9
$INTERSECTIONCOLOR
 70
   257
  9
$DIMASSOC
280
     2
  9
$PROJECTNAME
  1

  9
$CAMERADISPLAY
290
     0
  9
$LENSLENGTH
 40
50.0
  9
$CAMERAHEIGHT
 40
0.0
  9
$STEPSPERSEC
 40
2.0
  9
$STEPSIZE
 40
6.0
  9
$3DDWFPREC
 40
2.0
  9
$PSOLWIDTH
 40
0.25
  9
$PSOLHEIGHT
 40
4.0
  9
$LOFTANG1
 40
1.570796326794897
  9
$LOFTANG2
 40
1.570796326794897
  9
$LOFTMAG1
 40
0.0
  9
$LOFTMAG2
 40
0.0
  9
$LOFTPARAM
 70
     7
  9
$LOFTNORMALS
280
     1
  9
$LATITUDE
 40
37.795
  9
$LONGITUDE
 40
-122.394
  9
$NORTHDIRECTION
 40
0.0
  9
$TIMEZONE
 70
 -8000
  9
$LIGHTGLYPHDISPLAY
280
     1
  9
$TILEMODELIGHTSYNCH
280
     1
  9
$SOLIDHIST
280
     1
  9
$SHOWHIST
280
     1
  9
$DWFFRAME
280
     2
  9
$DGNFRAME
280
     2
  9
$REALWORLDSCALE
290
     1
  9
$INTERFERECOLOR
 62
   256
  9
$CSHADOW
280
     0
  9
$SHADOWPLANELOCATION
 40
0.0
  0
ENDSEC
  0
SECTION
  2
CLASSES
  0
CLASS
  1
ACDBDICTIONARYWDFLT
  2
AcDbDictionaryWithDefault
  3
ObjectDBX Classes
 90
        0
 91
        4
280
     0
281
     0
  0
CLASS
  1
SCALE
  2
AcDbScale
  3
ObjectDBX Classes
 90
     1153
 91
        4
280
     0
281
     0
  0
CLASS
  1
VISUALSTYLE
  2
AcDbVisualStyle
  3
ObjectDBX Classes
 90
     4095
 91
        4
280
     0
281
     0
  0
CLASS
  1
MATERIAL
  2
AcDbMaterial
  3
ObjectDBX Classes
 90
     1153
 91
        4
280
     0
281
     0
  0
CLASS
  1
TABLESTYLE
  2
AcDbTableStyle
  3
ObjectDBX Classes
 90
     4095
 91
        4
280
     0
281
     0
  0
CLASS
  1
SUN
  2
AcDbSun
  3
SCENEOE
 90
     1153
 91
        4
280
     0
281
     0
  0
CLASS
  1
RASTERVARIABLES
  2
AcDbRasterVariables
  3
ISM
 90
        0
 91
        4
280
     0
281
     0
  0
CLASS
  1
DICTIONARYVAR
  2
AcDbDictionaryVar
  3
ObjectDBX Classes
 90
        0
 91
        4
280
     0
281
     0
  0
CLASS
  1
CELLSTYLEMAP
  2
AcDbCellStyleMap
  3
ObjectDBX Classes
 90
     1152
 91
        4
280
     0
281
     0
  0
CLASS
  1
MLEADERSTYLE
  2
AcDbMLeaderStyle
  3
ACDB_MLEADERSTYLE_CLASS
 90
     4095
 91
        4
280
     0
281
     0
  0
ENDSEC
  0
SECTION
  2
TABLES
  0
TABLE
  2
VPORT
  5
8
330
0
100
AcDbSymbolTable
 70
     1
  0
VPORT
  5
D0
330
8
100
AcDbSymbolTableRecord
100
AcDbViewportTableRecord
  2
*Active
 70
     0
 10
0.0
 20
0.0
 11
1.0
 21
1.0
 12
1086.385957600904
 22
617.0777249505659
 13
0.0
 23
0.0
 14
0.5
 24
0.5
 15
0.5
 25
0.5
 16
0.0
 26
0.0
 36
1.0
 17
0.0
 27
0.0
 37
0.0
 40
409.4108460024163
 41
2.426497277676951
 42
50.0
 43
0.0
 44
0.0
 50
0.0
 51
0.0
 71
    16
 72
   100
 73
     1
 74
     3
 75
     0
 76
     0
 77
     0
 78
     0
281
     0
 65
     1
110
0.0
120
0.0
130
0.0
111
1.0
121
0.0
131
0.0
112
0.0
122
1.0
132
0.0
 79
     0
146
0.0
348
FC
 60
     3
 61
     5
292
     1
282
     1
141
0.0
142
0.0
 63
   250
361
117
  0
ENDTAB
  0
TABLE
  2
LTYPE
  5
5
330
0
100
AcDbSymbolTable
 70
    35
  0
LTYPE
  5
14
330
5
100
AcDbSymbolTableRecord
100
AcDbLinetypeTableRecord
  2
ByBlock
 70
     0
  3

 72
    65
 73
     0
 40
0.0
  0
LTYPE
  5
15
330
5
100
AcDbSymbolTableRecord
100
AcDbLinetypeTableRecord
  2
ByLayer
 70
     0
  3

 72
    65
 73
     0
 40
0.0
  0
LTYPE
  5
16
330
5
100
AcDbSymbolTableRecord
100
AcDbLinetypeTableRecord
  2
CONTINUOUS
 70
     0
  3
実線
 72
    65
 73
     0
 40
0.0
  0
LTYPE
  5
21
330
5
100
AcDbSymbolTableRecord
100
AcDbLinetypeTableRecord
  2
DASHED1
 70
     0
  3
--  --  --  --  --  --  --  --  
 72
    65
 73
     2
 40
2.5
 49
1.25
 74
     0
 49
-1.25
 74
     0
  0
LTYPE
  5
22
330
5
100
AcDbSymbolTableRecord
100
AcDbLinetypeTableRecord
  2
DASHED2
 70
     0
  3
----    ----    ----    ----    
 72
    65
 73
     2
 40
5.0
 49
2.5
 74
     0
 49
-2.5
 74
     0
  0
LTYPE
  5
23
330
5
100
AcDbSymbolTableRecord
100
AcDbLinetypeTableRecord
  2
DASHED3
 70
     0
  3
------  ------  ------  ------  
 72
    65
 73
     2
 40
5.0
 49
3.75
 74
     0
 49
-1.25
 74
     0
  0
LTYPE
  5
24
330
5
100
AcDbSymbolTableRecord
100
AcDbLinetypeTableRecord
  2
CENTER1
 70
     0
  3
----- - ----- - ----- - ----- - 
 72
    65
 73
     4
 40
10.0
 49
6.25
 74
     0
 49
-1.25
 74
     0
 49
1.25
 74
     0
 49
-1.25
 74
     0
  0
LTYPE
  5
25
330
5
100
AcDbSymbolTableRecord
100
AcDbLinetypeTableRecord
  2
CENTER2
 70
     0
  3
----------  --  ----------  --  
 72
    65
 73
     4
 40
20.0
 49
12.5
 74
     0
 49
-2.5
 74
     0
 49
2.5
 74
     0
 49
-2.5
 74
     0
  0
LTYPE
  5
26
330
5
100
AcDbSymbolTableRecord
100
AcDbLinetypeTableRecord
  2
PHANTOM1
 70
     0
  3
--- - - --- - - --- - - --- - - 
 72
    65
 73
     6
 40
9.5
 49
3.25
 74
     0
 49
-1.25
 74
     0
 49
1.25
 74
     0
 49
-1.25
 74
     0
 49
1.25
 74
     0
 49
-1.25
 74
     0
  0
LTYPE
  5
27
330
5
100
AcDbSymbolTableRecord
100
AcDbLinetypeTableRecord
  2
PHANTOM2
 70
     0
  3
--------  -  -  --------  -  -  
 72
    65
 73
     6
 40
20.0
 49
10.0
 74
     0
 49
-2.5
 74
     0
 49
1.25
 74
     0
 49
-2.5
 74
     0
 49
1.25
 74
     0
 49
-2.5
 74
     0
  0
LTYPE
  5
28
330
5
100
AcDbSymbolTableRecord
100
AcDbLinetypeTableRecord
  2
DOT
 70
     0
  3
-   -   -   -   -   -   -   -   
 72
    65
 73
     2
 40
2.5
 49
0.625
 74
     0
 49
-1.875
 74
     0
  0
LTYPE
  5
29
330
5
100
AcDbSymbolTableRecord
100
AcDbLinetypeTableRecord
  2
DUMMY
 70
     0
  3
ダミー
 72
    65
 73
     0
 40
0.0
  0
LTYPE
  5
2A
330
5
100
AcDbSymbolTableRecord
100
AcDbLinetypeTableRecord
  2
RAND1
 70
     0
  3
ランダム線1
 72
    65
 73
     4
 40
10.0
 49
1.0
 74
     0
 49
-2.0
 74
     0
 49
3.0
 74
     0
 49
-4.0
 74
     0
  0
LTYPE
  5
2B
330
5
100
AcDbSymbolTableRecord
100
AcDbLinetypeTableRecord
  2
RAND2
 70
     0
  3
ランダム線2
 72
    65
 73
     4
 40
14.0
 49
2.0
 74
     0
 49
-3.0
 74
     0
 49
4.0
 74
     0
 49
-5.0
 74
     0
  0
LTYPE
  5
2C
330
5
100
AcDbSymbolTableRecord
100
AcDbLinetypeTableRecord
  2
RAND3
 70
     0
  3
ランダム線3
 72
    65
 73
     4
 40
18.0
 49
3.0
 74
     0
 49
-4.0
 74
     0
 49
5.0
 74
     0
 49
-6.0
 74
     0
  0
LTYPE
  5
2D
330
5
100
AcDbSymbolTableRecord
100
AcDbLinetypeTableRecord
  2
RAND4
 70
     0
  3
ランダム線4
 72
    65
 73
     4
 40
22.0
 49
4.0
 74
     0
 49
-5.0
 74
     0
 49
6.0
 74
     0
 49
-7.0
 74
     0
  0
LTYPE
  5
2E
330
5
100
AcDbSymbolTableRecord
100
AcDbLinetypeTableRecord
  2
RAND5
 70
     0
  3
ランダム線5
 72
    65
 73
     4
 40
26.0
 49
5.0
 74
     0
 49
-6.0
 74
     0
 49
7.0
 74
     0
 49
-8.0
 74
     0
  0
LTYPE
  5
2F
330
5
100
AcDbSymbolTableRecord
100
AcDbLinetypeTableRecord
  2
LONG1
 70
     0
  3
----------  --  ----------  --  
 72
    65
 73
     4
 40
40.0
 49
32.5
 74
     0
 49
-2.5
 74
     0
 49
2.5
 74
     0
 49
-2.5
 74
     0
  0
LTYPE
  5
30
330
5
100
AcDbSymbolTableRecord
100
AcDbLinetypeTableRecord
  2
LONG2
 70
     0
  3
--------  -  -  --------  -  -  
 72
    65
 73
     6
 40
40.0
 49
30.0
 74
     0
 49
-2.5
 74
     0
 49
1.25
 74
     0
 49
-2.5
 74
     0
 49
1.25
 74
     0
 49
-2.5
 74
     0
  0
LTYPE
  5
31
330
5
100
AcDbSymbolTableRecord
100
AcDbLinetypeTableRecord
  2
LONG3
 70
     0
  3
+++++++++++++++..+++++++++++++++
 72
    65
 73
     2
 40
40.0
 49
37.5
 74
     0
 49
-2.5
 74
     0
  0
LTYPE
  5
32
330
5
100
AcDbSymbolTableRecord
100
AcDbLinetypeTableRecord
  2
LONG4
 70
     0
  3
+++++++++++++++..+++++++++++++++
 72
    65
 73
     2
 40
80.0
 49
75.0
 74
     0
 49
-5.0
 74
     0
  0
LTYPE
  5
33
330
5
100
AcDbSymbolTableRecord
100
AcDbLinetypeTableRecord
  2
LONG5
 70
     0
  3
----------  --  ----------  --  
 72
    65
 73
     4
 40
60.0
 49
37.5
 74
     0
 49
-7.5
 74
     0
 49
7.5
 74
     0
 49
-7.5
 74
     0
  0
LTYPE
  5
34
330
5
100
AcDbSymbolTableRecord
100
AcDbLinetypeTableRecord
  2
dashed
 70
     0
  3
-------   -------------   ------
 72
    65
 73
     2
 40
7.5
 49
6.0
 74
     0
 49
-1.5
 74
     0
  0
LTYPE
  5
35
330
5
100
AcDbSymbolTableRecord
100
AcDbLinetypeTableRecord
  2
dashed_spaced
 70
     0
  3
----        --------        ----
 72
    65
 73
     2
 40
12.0
 49
6.0
 74
     0
 49
-6.0
 74
     0
  0
LTYPE
  5
36
330
5
100
AcDbSymbolTableRecord
100
AcDbLinetypeTableRecord
  2
long_dashed_dotted
 70
     0
  3
------------- --- --------------
 72
    65
 73
     4
 40
15.25
 49
12.0
 74
     0
 49
-1.5
 74
     0
 49
0.25
 74
     0
 49
-1.5
 74
     0
  0
LTYPE
  5
37
330
5
100
AcDbSymbolTableRecord
100
AcDbLinetypeTableRecord
  2
long_dashed_double-dotted
 70
     0
  3
----------- --- --- ------------
 72
    65
 73
     6
 40
17.0
 49
12.0
 74
     0
 49
-1.5
 74
     0
 49
0.25
 74
     0
 49
-1.5
 74
     0
 49
0.25
 74
     0
 49
-1.5
 74
     0
  0
LTYPE
  5
38
330
5
100
AcDbSymbolTableRecord
100
AcDbLinetypeTableRecord
  2
long_dashed_triplicate-dotted
 70
     0
  3
--------- --- --- --- ----------
 72
    65
 73
     8
 40
18.75
 49
12.0
 74
     0
 49
-1.5
 74
     0
 49
0.25
 74
     0
 49
-1.5
 74
     0
 49
0.25
 74
     0
 49
-1.5
 74
     0
 49
0.25
 74
     0
 49
-1.5
 74
     0
  0
LTYPE
  5
39
330
5
100
AcDbSymbolTableRecord
100
AcDbLinetypeTableRecord
  2
dotted
 70
     0
  3
   -       -       -       -    
 72
    65
 73
     2
 40
1.75
 49
0.25
 74
     0
 49
-1.5
 74
     0
  0
LTYPE
  5
3A
330
5
100
AcDbSymbolTableRecord
100
AcDbLinetypeTableRecord
  2
chain
 70
     0
  3
-------------- -- --------------
 72
    65
 73
     4
 40
18.5
 49
12.0
 74
     0
 49
-1.5
 74
     0
 49
3.5
 74
     0
 49
-1.5
 74
     0
  0
LTYPE
  5
3B
330
5
100
AcDbSymbolTableRecord
100
AcDbLinetypeTableRecord
  2
chain_double_dash
 70
     0
  3
------------ -- -- -------------
 72
    65
 73
     6
 40
23.5
 49
12.0
 74
     0
 49
-1.5
 74
     0
 49
3.5
 74
     0
 49
-1.5
 74
     0
 49
3.5
 74
     0
 49
-1.5
 74
     0
  0
LTYPE
  5
3C
330
5
100
AcDbSymbolTableRecord
100
AcDbLinetypeTableRecord
  2
dashed_dotted
 70
     0
  3
-----------     -     ----------
 72
    65
 73
     4
 40
9.25
 49
6.0
 74
     0
 49
-1.5
 74
     0
 49
0.25
 74
     0
 49
-1.5
 74
     0
  0
LTYPE
  5
3D
330
5
100
AcDbSymbolTableRecord
100
AcDbLinetypeTableRecord
  2
double-dashed_dotted
 70
     0
  3
------   -----------   -   -----
 72
    65
 73
     6
 40
16.75
 49
6.0
 74
     0
 49
-1.5
 74
     0
 49
6.0
 74
     0
 49
-1.5
 74
     0
 49
0.25
 74
     0
 49
-1.5
 74
     0
  0
LTYPE
  5
3E
330
5
100
AcDbSymbolTableRecord
100
AcDbLinetypeTableRecord
  2
dashed_double-dotted
 70
     0
  3
---------    -    -    ---------
 72
    65
 73
     6
 40
11.0
 49
6.0
 74
     0
 49
-1.5
 74
     0
 49
0.25
 74
     0
 49
-1.5
 74
     0
 49
0.25
 74
     0
 49
-1.5
 74
     0
  0
LTYPE
  5
3F
330
5
100
AcDbSymbolTableRecord
100
AcDbLinetypeTableRecord
  2
double-dashed_double-dotted
 70
     0
  3
-----   ---------   -   -   ----
 72
    65
 73
     8
 40
18.5
 49
6.0
 74
     0
 49
-1.5
 74
     0
 49
6.0
 74
     0
 49
-1.5
 74
     0
 49
0.25
 74
     0
 49
-1.5
 74
     0
 49
0.25
 74
     0
 49
-1.5
 74
     0
  0
LTYPE
  5
40
330
5
100
AcDbSymbolTableRecord
100
AcDbLinetypeTableRecord
  2
dashed_triplicate-dotted
 70
     0
  3
-------    -    -    -    ------
 72
    65
 73
     8
 40
12.75
 49
6.0
 74
     0
 49
-1.5
 74
     0
 49
0.25
 74
     0
 49
-1.5
 74
     0
 49
0.25
 74
     0
 49
-1.5
 74
     0
 49
0.25
 74
     0
 49
-1.5
 74
     0
  0
LTYPE
  5
41
330
5
100
AcDbSymbolTableRecord
100
AcDbLinetypeTableRecord
  2
double-dashed_triplicate-dotted
 70
     0
  3
-----  ---------  -  -  -  -----
 72
    65
 73
    10
 40
20.25
 49
6.0
 74
     0
 49
-1.5
 74
     0
 49
6.0
 74
     0
 49
-1.5
 74
     0
 49
0.25
 74
     0
 49
-1.5
 74
     0
 49
0.25
 74
     0
 49
-1.5
 74
     0
 49
0.25
 74
     0
 49
-1.5
 74
     0
  0
LTYPE
  5
42
330
5
100
AcDbSymbolTableRecord
100
AcDbLinetypeTableRecord
  2
undefined
 70
     0
  3
--------------------------------
 72
    65
 73
     0
 40
0.0
  0
ENDTAB
  0
TABLE
  2
LAYER
  5
2
102
{ACAD_XDICTIONARY
360
15D
102
}
330
0
100
AcDbSymbolTable
 70
     7
  0
LAYER
  5
10
330
2
100
AcDbSymbolTableRecord
100
AcDbLayerTableRecord
  2
0
 70
     0
 62
     7
  6
CONTINUOUS
370
    -3
390
F
347
113
  0
LAYER
  5
45
330
2
100
AcDbSymbolTableRecord
100
AcDbLayerTableRecord
  2
_0-0_FRF74-1521
 70
     0
 62
     7
  6
CONTINUOUS
370
    -3
390
F
347
113
  0
LAYER
  5
46
330
2
100
AcDbSymbolTableRecord
100
AcDbLayerTableRecord
  2
_0-1_
 70
     0
 62
     7
  6
CONTINUOUS
370
    -3
390
F
347
113
  0
LAYER
  5
47
330
2
100
AcDbSymbolTableRecord
100
AcDbLayerTableRecord
  2
_0-2_
 70
     0
 62
     7
  6
CONTINUOUS
370
    -3
390
F
347
113
  0
LAYER
  5
48
330
2
100
AcDbSymbolTableRecord
100
AcDbLayerTableRecord
  2
ADD_LINE
 70
     0
 62
     7
  6
CONTINUOUS
370
    -3
390
F
347
113
  0
LAYER
  5
11A
330
2
100
AcDbSymbolTableRecord
100
AcDbLayerTableRecord
  2
template
 70
     0
 62
     7
  6
CONTINUOUS
370
    -3
390
F
347
113
  0
LAYER
  5
11C
330
2
100
AcDbSymbolTableRecord
100
AcDbLayerTableRecord
  2
notes
 70
     0
 62
     7
  6
CONTINUOUS
370
    -3
390
F
347
113
  0
ENDTAB
  0
TABLE
  2
STYLE
  5
3
330
0
100
AcDbSymbolTable
 70
     3
  0
STYLE
  5
11
330
3
100
AcDbSymbolTableRecord
100
AcDbTextStyleTableRecord
  2
STANDARD
 70
     0
 40
0.0
 41
1.0
 50
0.0
 71
     0
 42
0.2
  3
txt
  4
bigfont.shx
  0
STYLE
  5
44
330
3
100
AcDbSymbolTableRecord
100
AcDbTextStyleTableRecord
  2
TATEGAKI
 70
     4
 40
0.0
 41
1.0
 50
0.0
 71
     0
 42
1.0
  3
txt
  4
bigfont.shx
  0
STYLE
  5
11E
330
3
100
AcDbSymbolTableRecord
100
AcDbTextStyleTableRecord
  2
ＭＳ ゴシック
 70
     0
 40
0.0
 41
1.0
 50
0.0
 71
     0
 42
0.2
  3
msgothic.ttc
  4
ＭＳ ゴシック
1001
ACAD
1000
ＭＳ ゴシック
1071
        0
  0
ENDTAB
  0
TABLE
  2
VIEW
  5
6
330
0
100
AcDbSymbolTable
 70
     0
  0
ENDTAB
  0
TABLE
  2
UCS
  5
7
330
0
100
AcDbSymbolTable
 70
     0
  0
ENDTAB
  0
TABLE
  2
APPID
  5
9
330
0
100
AcDbSymbolTable
 70
     2
  0
APPID
  5
12
330
9
100
AcDbSymbolTableRecord
100
AcDbRegAppTableRecord
  2
ACAD
 70
     0
  0
APPID
  5
160
330
9
100
AcDbSymbolTableRecord
100
AcDbRegAppTableRecord
  2
ACAD_MLEADERVER
 70
     0
  0
ENDTAB
  0
TABLE
  2
DIMSTYLE
  5
A
330
0
100
AcDbSymbolTable
 70
     2
100
AcDbDimStyleTable
  0
DIMSTYLE
105
49
330
A
100
AcDbSymbolTableRecord
100
AcDbDimStyleTableRecord
  2
Standard
 70
     0
178
     0
340
11
  0
DIMSTYLE
105
11D
330
A
100
AcDbSymbolTableRecord
100
AcDbDimStyleTableRecord
  2
Arch
 70
     0
  3
<>
  4
[]
 41
22.4482421875
 42
15.875
 43
10.16
 44
31.75
 46
1.5875
 73
     0
 74
     0
 77
     1
 78
    11
140
24.4326171875
141
0.0
143
1.0
147
1.5875
171
     1
172
     1
174
     1
178
     0
179
     2
271
     1
272
     1
276
     2
284
    11
285
    11
286
    11
289
     0
340
11E
341
11F
342
123
  0
ENDTAB
  0
TABLE
  2
BLOCK_RECORD
  5
1
330
0
100
AcDbSymbolTable
 70
     2
  0
BLOCK_RECORD
  5
1D
330
1
100
AcDbSymbolTableRecord
100
AcDbBlockTableRecord
  2
*Model_Space
340
1E
 70
     0
280
     1
281
     0
  0
BLOCK_RECORD
  5
1B
330
1
100
AcDbSymbolTableRecord
100
AcDbBlockTableRecord
  2
*Paper_Space
340
1C
 70
     0
280
     1
281
     0
  0
BLOCK_RECORD
  5
11F
330
1
100
AcDbSymbolTableRecord
100
AcDbBlockTableRecord
  2
VW_FILLEDARROW
340
0
 70
     0
280
     1
281
     0
  0
BLOCK_RECORD
  5
123
330
1
100
AcDbSymbolTableRecord
100
AcDbBlockTableRecord
  2
VW_SLASH
340
0
 70
     0
280
     1
281
     0
  0
ENDTAB
  0
ENDSEC
  0
SECTION
  2
BLOCKS
  0
BLOCK
  5
F3
330
1D
100
AcDbEntity
  8
0
100
AcDbBlockBegin
  2
*Model_Space
 70
     0
 10
0.0
 20
0.0
 30
0.0
  3
*Model_Space
  1
*Model_Space
  0
ENDBLK
  5
F4
330
1D
100
AcDbEntity
  8
0
100
AcDbBlockEnd
  0
BLOCK
  5
F5
330
1B
100
AcDbEntity
 67
     1
  8
0
100
AcDbBlockBegin
  2
*Paper_Space
 70
     0
 10
0.0
 20
0.0
 30
0.0
  3
*Paper_Space
  1
*Paper_Space
  0
ENDBLK
  5
F6
330
1B
100
AcDbEntity
 67
     1
  8
0
100
AcDbBlockEnd
  0
BLOCK
  5
120
330
11F
100
AcDbEntity
  8
0
  6
ByBlock
 62
     0
370
    -2
390
F
100
AcDbBlockBegin
  2
VW_FILLEDARROW
 70
     0
 10
0.0
 20
0.0
 30
0.0
  3
VW_FILLEDARROW
  1
VW_FILLEDARROW
  0
SOLID
  5
121
330
11F
100
AcDbEntity
  8
0
 62
     0
370
    -2
390
F
100
AcDbTrace
 10
0.0
 20
0.0
 30
0.0
 11
-1.4107666015625
 21
-0.3780137715974714
 31
0.0
 12
-1.4107666015625
 22
0.3780137715974717
 32
0.0
 13
-1.4107666015625
 23
0.3780137715974717
 33
0.0
  0
ENDBLK
  5
122
330
11F
100
AcDbEntity
  8
0
390
F
100
AcDbBlockEnd
  0
BLOCK
  5
124
330
123
100
AcDbEntity
  8
0
  6
ByBlock
 62
     0
370
    -2
390
F
100
AcDbBlockBegin
  2
VW_SLASH
 70
     0
 10
0.0
 20
0.0
 30
0.0
  3
VW_SLASH
  1
VW_SLASH
  0
LINE
  5
125
330
123
100
AcDbEntity
  8
0
  6
ByBlock
 62
     0
370
    -2
390
F
100
AcDbLine
 10
0.0
 20
0.0
 30
0.0
 11
-1.0
 21
0.0
 31
0.0
  0
LINE
  5
126
330
123
100
AcDbEntity
  8
0
  6
ByBlock
 62
     0
370
    20
390
F
100
AcDbLine
 10
-0.4987813153181721
 20
-0.4987813153181719
 30
0.0
 11
0.4987813153181721
 21
0.4987813153181719
 31
0.0
  0
ENDBLK
  5
127
330
123
100
AcDbEntity
  8
0
390
F
100
AcDbBlockEnd
  0
ENDSEC
  0
SECTION
  2
ENTITIES
  0
ARC
  5
4A
330
1D
100
AcDbEntity
  8
_0-0_FRF74-1521
  6
Continuous
 62
     7
100
AcDbCircle
 10
873.0793993973682
 20
940.360863964628
 30
0.0
 40
11.0
100
AcDbArc
 50
90.0
 51
163.6312505045251
  0
LINE
  5
4B
330
1D
100
AcDbEntity
  8
_0-2_
  6
Continuous
 62
     7
100
AcDbLine
 10
1079.898872537049
 20
503.2673488237719
 30
0.0
 11
689.8988725370491
 21
503.2673488237719
 31
0.0
  0
LINE
  5
4C
330
1D
100
AcDbEntity
  8
_0-2_
  6
Continuous
 62
     7
100
AcDbLine
 10
1079.898872537146
 20
1029.267348823772
 30
0.0
 11
689.8988725371455
 21
1029.267348823772
 31
0.0
  0
LINE
  5
4D
330
1D
100
AcDbEntity
  8
_0-2_
  6
Continuous
 62
     7
100
AcDbLine
 10
689.8988725371455
 20
1029.267348823772
 30
0.0
 11
689.8988725371455
 21
469.2673488237719
 31
0.0
  0
LINE
  5
4E
330
1D
100
AcDbEntity
  8
_0-2_
  6
Continuous
 62
     7
100
AcDbLine
 10
689.8988725371455
 20
469.2673488237719
 30
0.0
 11
1079.898872537146
 21
469.2673488237719
 31
0.0
  0
LINE
  5
4F
330
1D
100
AcDbEntity
  8
_0-2_
  6
Continuous
 62
     7
100
AcDbLine
 10
1079.898872537146
 20
469.2673488237719
 30
0.0
 11
1079.898872537146
 21
1029.267348823772
 31
0.0
  0
LINE
  5
50
330
1D
100
AcDbEntity
  8
_0-2_
  6
Continuous
 62
     7
100
AcDbLine
 10
1079.898872537049
 20
520.267348823772
 30
0.0
 11
689.8988725370491
 21
520.267348823772
 31
0.0
  0
LINE
  5
51
330
1D
100
AcDbEntity
  8
_0-2_
  6
Continuous
 62
     7
100
AcDbLine
 10
1079.898872537146
 20
486.2673488237719
 30
0.0
 11
929.2988725371457
 21
486.2673488237719
 31
0.0
  0
LINE
  5
52
330
1D
100
AcDbEntity
  8
_0-2_
  6
Continuous
 62
     7
100
AcDbLine
 10
1029.698872537198
 20
486.2673488237719
 30
0.0
 11
1029.698872537198
 21
503.2673488237719
 31
0.0
  0
LINE
  5
53
330
1D
100
AcDbEntity
  8
_0-2_
  6
Continuous
 62
     7
100
AcDbLine
 10
979.4988725371975
 20
486.2673488237719
 30
0.0
 11
979.4988725371975
 21
503.2673488237719
 31
0.0
  0
LINE
  5
54
330
1D
100
AcDbEntity
  8
_0-2_
  6
Continuous
 62
     7
100
AcDbLine
 10
929.2988725371974
 20
469.2673488237719
 30
0.0
 11
929.2988725371974
 21
520.267348823772
 31
0.0
  0
TEXT
  5
55
330
1D
100
AcDbEntity
  8
_0-2_
 62
     7
100
AcDbText
 10
936.3651693458853
 20
473.9251993246432
 30
0.0
 40
6.0
  1
大洋金物株式会社 ティーフォルム事業部
  7
ＭＳ ゴシック
100
AcDbText
  0
TEXT
  5
56
330
1D
100
AcDbEntity
  8
_0-2_
 62
     7
100
AcDbText
 10
692.0309261302087
 20
496.9582998992644
 30
0.0
 40
4.4
  1
仕様
  7
ＭＳ ゴシック
100
AcDbText
  0
TEXT
  5
57
330
1D
100
AcDbEntity
  8
_0-2_
 62
     7
100
AcDbText
 10
692.1100841262264
 20
513.7277384202182
 30
0.0
 40
4.4
  1
品名
  7
ＭＳ ゴシック
100
AcDbText
  0
TEXT
  5
58
330
1D
100
AcDbEntity
  8
_0-2_
 62
     7
100
AcDbText
 10
931.5801420181732
 20
514.0235457678239
 30
0.0
 40
4.4
  1
品番
  7
ＭＳ ゴシック
100
AcDbText
  0
TEXT
  5
59
330
1D
100
AcDbEntity
  8
_0-2_
 62
     7
100
AcDbText
 10
931.4004692920827
 20
496.8559353226115
 30
0.0
 40
4.4
  1
重量
  7
ＭＳ ゴシック
100
AcDbText
  0
TEXT
  5
5A
330
1D
100
AcDbEntity
  8
_0-2_
 62
     7
100
AcDbText
 10
981.6341909095207
 20
497.28379304791
 30
0.0
 40
4.4
  1
容量
  7
ＭＳ ゴシック
100
AcDbText
  0
TEXT
  5
5B
330
1D
100
AcDbEntity
  8
_0-2_
 62
     7
100
AcDbText
 10
1031.84761863411
 20
497.198378722713
 30
0.0
 40
4.4
  1
縮尺
  7
ＭＳ ゴシック
100
AcDbText
  0
TEXT
  5
5C
330
1D
100
AcDbEntity
  8
_0-2_
 62
     7
100
AcDbText
 10
942.8954110386649
 20
507.1650878572823
 30
0.0
 40
6.0
  1
FRF74-1521
  7
ＭＳ ゴシック
100
AcDbText
  0
TEXT
  5
5D
330
1D
100
AcDbEntity
  8
_0-2_
 62
     4
100
AcDbText
 10
690.5986642606999
 20
460.9094800841883
 30
0.0
 40
5.0
  1
120911S
  7
ＭＳ ゴシック
100
AcDbText
  0
LINE
  5
5E
330
1D
100
AcDbEntity
  8
_0-1_
  6
Continuous
 62
     4
100
AcDbLine
 10
733.5793993973682
 20
951.3608639646277
 30
0.0
 11
733.5793993973682
 21
929.3608639646277
 31
0.0
  0
POINT
  5
5F
330
1D
100
AcDbEntity
  8
_0-1_
 62
     7
100
AcDbPoint
 10
733.5793993973682
 20
951.3608639646277
 30
0.0
  0
POINT
  5
60
330
1D
100
AcDbEntity
  8
_0-1_
 62
     7
100
AcDbPoint
 10
733.5793993973682
 20
929.3608639646277
 30
0.0
  0
LINE
  5
61
330
1D
100
AcDbEntity
  8
_0-1_
  6
Continuous
 62
     4
100
AcDbLine
 10
733.5793993973682
 20
951.3608639646277
 30
0.0
 11
757.5793993973682
 21
951.3608639646277
 31
0.0
  0
LINE
  5
62
330
1D
100
AcDbEntity
  8
_0-1_
  6
Continuous
 62
     4
100
AcDbLine
 10
733.5793993973682
 20
929.3608639646277
 30
0.0
 11
757.5793993973682
 21
929.3608639646277
 31
0.0
  0
TEXT
  5
63
330
1D
100
AcDbEntity
  8
_0-1_
 62
     4
100
AcDbText
 10
732.5793993973682
 20
937.8608639646277
 30
0.0
 40
5.0
  1
22
 50
90.0
  7
ＭＳ ゴシック
100
AcDbText
  0
LINE
  5
64
330
1D
100
AcDbEntity
  8
_0-1_
  6
Continuous
 62
     4
100
AcDbLine
 10
1013.013642367809
 20
943.460863964628
 30
0.0
 11
1013.013642367809
 21
937.460863964628
 31
0.0
  0
POINT
  5
65
330
1D
100
AcDbEntity
  8
_0-1_
 62
     7
100
AcDbPoint
 10
1013.013642367809
 20
943.460863964628
 30
0.0
  0
POINT
  5
66
330
1D
100
AcDbEntity
  8
_0-1_
 62
     7
100
AcDbPoint
 10
1013.013642367809
 20
937.460863964628
 30
0.0
  0
LINE
  5
67
330
1D
100
AcDbEntity
  8
_0-1_
  6
Continuous
 62
     4
100
AcDbLine
 10
1013.013642367809
 20
943.460863964628
 30
0.0
 11
989.0152862935474
 21
943.460863964628
 31
0.0
  0
LINE
  5
68
330
1D
100
AcDbEntity
  8
_0-1_
  6
Continuous
 62
     4
100
AcDbLine
 10
1013.013642367809
 20
937.460863964628
 30
0.0
 11
989.0152862935474
 21
937.460863964628
 31
0.0
  0
LINE
  5
69
330
1D
100
AcDbEntity
  8
_0-1_
  6
Continuous
 62
     4
100
AcDbLine
 10
1013.013642367809
 20
839.0074725520876
 30
0.0
 11
1013.013642367809
 21
619.573229581647
 31
0.0
  0
POINT
  5
6A
330
1D
100
AcDbEntity
  8
_0-1_
 62
     7
100
AcDbPoint
 10
1013.013642367809
 20
839.0074725520876
 30
0.0
  0
POINT
  5
6B
330
1D
100
AcDbEntity
  8
_0-1_
 62
     7
100
AcDbPoint
 10
1013.013642367809
 20
619.573229581647
 30
0.0
  0
LINE
  5
6C
330
1D
100
AcDbEntity
  8
_0-1_
  6
Continuous
 62
     4
100
AcDbLine
 10
1013.013642367809
 20
839.0074725520876
 30
0.0
 11
910.0793993973682
 21
839.0074725520876
 31
0.0
  0
LINE
  5
6D
330
1D
100
AcDbEntity
  8
_0-1_
  6
Continuous
 62
     4
100
AcDbLine
 10
1013.013642367809
 20
619.573229581647
 30
0.0
 11
796.2076045255735
 21
619.573229581647
 31
0.0
  0
TEXT
  5
6E
330
1D
100
AcDbEntity
  8
_0-1_
 62
     4
100
AcDbText
 10
1012.013642367809
 20
725.5403510668673
 30
0.0
 40
5.0
  1
219
 50
90.0
  7
ＭＳ ゴシック
100
AcDbText
  0
LINE
  5
6F
330
1D
100
AcDbEntity
  8
_0-1_
  6
Continuous
 62
     4
100
AcDbLine
 10
763.5793993973683
 20
589.5732295816468
 30
0.0
 11
983.0136423678086
 21
589.5732295816468
 31
0.0
  0
POINT
  5
70
330
1D
100
AcDbEntity
  8
_0-1_
 62
     7
100
AcDbPoint
 10
763.5793993973683
 20
589.5732295816468
 30
0.0
  0
POINT
  5
71
330
1D
100
AcDbEntity
  8
_0-1_
 62
     7
100
AcDbPoint
 10
983.0136423678086
 20
589.5732295816468
 30
0.0
  0
LINE
  5
72
330
1D
100
AcDbEntity
  8
_0-1_
  6
Continuous
 62
     4
100
AcDbLine
 10
763.5793993973683
 20
589.5732295816468
 30
0.0
 11
763.5793993973683
 21
690.5074725520874
 31
0.0
  0
LINE
  5
73
330
1D
100
AcDbEntity
  8
_0-1_
  6
Continuous
 62
     4
100
AcDbLine
 10
983.0136423678086
 20
589.5732295816468
 30
0.0
 11
983.0136423678086
 21
806.3792674238821
 31
0.0
  0
TEXT
  5
74
330
1D
100
AcDbEntity
  8
_0-1_
 62
     4
100
AcDbText
 10
869.5465208825884
 20
590.5732295816468
 30
0.0
 40
5.0
  1
219
  7
ＭＳ ゴシック
100
AcDbText
  0
LINE
  5
75
330
1D
100
AcDbEntity
  8
_0-0_FRF74-1521
  6
Continuous
 62
     7
100
AcDbLine
 10
983.0152862935474
 20
937.460863964628
 30
0.0
 11
983.0152862935474
 21
943.460863964628
 31
0.0
  0
ARC
  5
76
330
1D
100
AcDbEntity
  8
_0-0_FRF74-1521
  6
Continuous
 62
     7
100
AcDbCircle
 10
893.0793993973682
 20
940.360863964628
 30
0.0
 40
11.0
100
AcDbArc
 50
270.0000000000009
 51
343.6312505045251
  0
LINE
  5
77
330
1D
100
AcDbEntity
  8
_0-0_FRF74-1521
  6
Continuous
 62
     7
100
AcDbLine
 10
903.1113483605559
 20
937.260863964628
 30
0.0
 11
903.6335455020989
 21
937.260863964628
 31
0.0
  0
ARC
  5
78
330
1D
100
AcDbEntity
  8
_0-0_FRF74-1521
  6
Continuous
 62
     7
100
AcDbCircle
 10
873.0793993973682
 20
940.360863964628
 30
0.0
 40
11.00000000000167
100
AcDbArc
 50
196.3687494954736
 51
270.0000000000015
  0
LINE
  5
79
330
1D
100
AcDbEntity
  8
_0-0_FRF74-1521
  6
Continuous
 62
     7
100
AcDbLine
 10
862.5252532926359
 20
937.260863964628
 30
0.0
 11
863.0474504341807
 21
937.260863964628
 31
0.0
  0
ARC
  5
7A
330
1D
100
AcDbEntity
  8
_0-0_FRF74-1521
  6
Continuous
 62
     7
100
AcDbCircle
 10
893.0793993973682
 20
940.360863964628
 30
0.0
 40
11.00000000000003
100
AcDbArc
 50
16.36874949547488
 51
89.99999999999999
  0
LINE
  5
7B
330
1D
100
AcDbEntity
  8
_0-0_FRF74-1521
  6
Continuous
 62
     7
100
AcDbLine
 10
873.0793993973682
 20
951.360863964628
 30
0.0
 11
893.0793993973682
 21
951.360863964628
 31
0.0
  0
LINE
  5
7C
330
1D
100
AcDbEntity
  8
_0-0_FRF74-1521
  6
Continuous
 62
     7
100
AcDbLine
 10
863.0474504341807
 20
937.260863964628
 30
0.0
 11
903.1113483605559
 21
937.260863964628
 31
0.0
  0
LINE
  5
7D
330
1D
100
AcDbEntity
  8
_0-0_FRF74-1521
  6
Continuous
 62
     7
100
AcDbLine
 10
893.0793993973682
 20
929.360863964628
 30
0.0
 11
873.0793993973683
 21
929.360863964628
 31
0.0
  0
LINE
  5
7E
330
1D
100
AcDbEntity
  8
_0-0_FRF74-1521
  6
Continuous
 62
     7
100
AcDbLine
 10
903.6902429076647
 20
937.460863964628
 30
0.0
 11
903.6335455020989
 21
937.2608639646277
 31
0.0
  0
LINE
  5
7F
330
1D
100
AcDbEntity
  8
_0-0_FRF74-1521
  6
Continuous
 62
     7
100
AcDbLine
 10
862.5252532926377
 20
937.260863964628
 30
0.0
 11
862.4685558870717
 21
937.460863964628
 31
0.0
  0
LINE
  5
80
330
1D
100
AcDbEntity
  8
_0-0_FRF74-1521
  6
Continuous
 62
     7
100
AcDbLine
 10
794.0793993973682
 20
929.360863964628
 30
0.0
 11
763.5793993973682
 21
929.3608639646277
 31
0.0
  0
LINE
  5
81
330
1D
100
AcDbEntity
  8
_0-0_FRF74-1521
  6
Continuous
 62
     7
100
AcDbLine
 10
763.5793993973682
 20
951.3608639646277
 30
0.0
 11
763.5793993973682
 21
929.3608639646277
 31
0.0
  0
LINE
  5
82
330
1D
100
AcDbEntity
  8
_0-0_FRF74-1521
  6
Continuous
 62
     7
100
AcDbLine
 10
794.0793993973682
 20
951.360863964628
 30
0.0
 11
763.5793993973682
 21
951.3608639646277
 31
0.0
  0
LINE
  5
83
330
1D
100
AcDbEntity
  8
_0-0_FRF74-1521
  6
Continuous
 62
     7
100
AcDbLine
 10
783.0793993973682
 20
937.260863964628
 30
0.0
 11
783.0793993973682
 21
937.460863964628
 31
0.0
  0
LINE
  5
84
330
1D
100
AcDbEntity
  8
_0-0_FRF74-1521
  6
Continuous
 62
     7
100
AcDbLine
 10
794.0793993973684
 20
937.260863964628
 30
0.0
 11
783.0793993973682
 21
937.260863964628
 31
0.0
  0
ARC
  5
85
330
1D
100
AcDbEntity
  8
_0-0_FRF74-1521
  6
Continuous
 62
     7
100
AcDbCircle
 10
794.0793993973682
 20
950.8608639646279
 30
0.0
 40
0.5000000000001135
100
AcDbArc
 50
0.0
 51
90.0
  0
LINE
  5
86
330
1D
100
AcDbEntity
  8
_0-0_FRF74-1521
  6
Continuous
 62
     7
100
AcDbLine
 10
794.5793993973682
 20
950.8608639646279
 30
0.0
 11
794.5793993973682
 21
943.460863964628
 31
0.0
  0
LINE
  5
87
330
1D
100
AcDbEntity
  8
_0-0_FRF74-1521
  6
Continuous
 62
     7
100
AcDbLine
 10
794.5793993973682
 20
937.260863964628
 30
0.0
 11
794.5793993973682
 21
929.860863964628
 31
0.0
  0
ARC
  5
88
330
1D
100
AcDbEntity
  8
_0-0_FRF74-1521
  6
Continuous
 62
     7
100
AcDbCircle
 10
794.0793993973682
 20
929.860863964628
 30
0.0
 40
0.5
100
AcDbArc
 50
270.0
 51
0.0
  0
LINE
  5
89
330
1D
100
AcDbEntity
  8
_0-0_FRF74-1521
  6
Continuous
 62
     7
100
AcDbLine
 10
794.0793993973684
 20
937.260863964628
 30
0.0
 11
794.5793993973682
 21
937.260863964628
 31
0.0
  0
LINE
  5
8A
330
1D
100
AcDbEntity
  8
_0-0_FRF74-1521
  6
Continuous
 62
     7
100
AcDbLine
 10
788.2076045255734
 20
943.460863964628
 30
0.0
 11
788.2076045255734
 21
937.460863964628
 31
0.0
  0
LINE
  5
8B
330
1D
100
AcDbEntity
  8
_0-0_FRF74-1521
  6
Continuous
 62
     7
100
AcDbLine
 10
788.2076045255734
 20
937.460863964628
 30
0.0
 11
783.0793993973682
 21
937.460863964628
 31
0.0
  0
LINE
  5
8C
330
1D
100
AcDbEntity
  8
_0-0_FRF74-1521
  6
Continuous
 62
     7
100
AcDbLine
 10
783.0793993973682
 20
937.460863964628
 30
0.0
 11
783.0793993973682
 21
943.460863964628
 31
0.0
  0
LINE
  5
8D
330
1D
100
AcDbEntity
  8
_0-0_FRF74-1521
  6
Continuous
 62
     7
100
AcDbLine
 10
783.0793993973682
 20
943.460863964628
 30
0.0
 11
788.2076045255734
 21
943.460863964628
 31
0.0
  0
LINE
  5
8E
330
1D
100
AcDbEntity
  8
_0-0_FRF74-1521
  6
Continuous
 62
     7
100
AcDbLine
 10
983.0136423678086
 20
937.460863964628
 30
0.0
 11
983.0136423678086
 21
943.460863964628
 31
0.0
  0
LINE
  5
8F
330
1D
100
AcDbEntity
  8
_0-0_FRF74-1521
  6
Continuous
 62
     7
100
AcDbLine
 10
788.2076045255734
 20
937.460863964628
 30
0.0
 11
983.0136423678086
 21
937.460863964628
 31
0.0
  0
LINE
  5
90
330
1D
100
AcDbEntity
  8
_0-0_FRF74-1521
  6
Continuous
 62
     7
100
AcDbLine
 10
788.2076045255734
 20
943.460863964628
 30
0.0
 11
983.0136423678086
 21
943.460863964628
 31
0.0
  0
LINE
  5
91
330
1D
100
AcDbEntity
  8
_0-0_FRF74-1521
  6
Continuous
 62
     7
100
AcDbLine
 10
983.0152862935474
 20
937.460863964628
 30
0.0
 11
983.0136423678086
 21
937.460863964628
 31
0.0
  0
LINE
  5
92
330
1D
100
AcDbEntity
  8
_0-0_FRF74-1521
  6
Continuous
 62
     7
100
AcDbLine
 10
983.0136423678086
 20
943.460863964628
 30
0.0
 11
983.0152862935474
 21
943.460863964628
 31
0.0
  0
LINE
  5
93
330
1D
100
AcDbEntity
  8
_0-0_FRF74-1521
  6
Continuous
 62
     7
100
AcDbLine
 10
904.0793993973682
 20
819.5074725520875
 30
0.0
 11
904.0793993973682
 21
839.0074725520876
 31
0.0
  0
LINE
  5
94
330
1D
100
AcDbEntity
  8
_0-0_FRF74-1521
  6
Continuous
 62
     7
100
AcDbLine
 10
862.0793993973682
 20
839.0074725520876
 30
0.0
 11
862.0793993973682
 21
819.5074725520876
 31
0.0
  0
LINE
  5
95
330
1D
100
AcDbEntity
  8
_0-0_FRF74-1521
  6
Continuous
 62
     7
100
AcDbLine
 10
783.0793993973682
 20
740.5074725520876
 30
0.0
 11
763.5793993973682
 21
740.5074725520876
 31
0.0
  0
LINE
  5
96
330
1D
100
AcDbEntity
  8
_0-0_FRF74-1521
  6
Continuous
 62
     7
100
AcDbLine
 10
763.5793993973682
 20
698.5074725520875
 30
0.0
 11
783.0793993973682
 21
698.5074725520875
 31
0.0
  0
LINE
  5
97
330
1D
100
AcDbEntity
  8
_0-0_FRF74-1521
  6
Continuous
 62
     7
100
AcDbLine
 10
904.0793993973682
 20
839.0074725520876
 30
0.0
 11
893.0793993973682
 21
839.0074725520876
 31
0.0
  0
LINE
  5
98
330
1D
100
AcDbEntity
  8
_0-0_FRF74-1521
  6
Continuous
 62
     7
100
AcDbLine
 10
873.0793993973683
 20
839.0074725520876
 30
0.0
 11
862.0793993973683
 21
839.0074725520876
 31
0.0
  0
LINE
  5
99
330
1D
100
AcDbEntity
  8
_0-0_FRF74-1521
  6
Continuous
 62
     7
100
AcDbLine
 10
893.0793993973682
 20
839.0074725520876
 30
0.0
 11
873.0793993973683
 21
839.0074725520876
 31
0.0
  0
LINE
  5
9A
330
1D
100
AcDbEntity
  8
_0-0_FRF74-1521
  6
Continuous
 62
     7
100
AcDbLine
 10
893.0793993973682
 20
808.0074725520876
 30
0.0
 11
873.0793993973682
 21
808.0074725520877
 31
0.0
  0
LINE
  5
9B
330
1D
100
AcDbEntity
  8
_0-0_FRF74-1521
  6
Continuous
 62
     7
100
AcDbLine
 10
794.0793993973682
 20
740.0616186568182
 30
0.0
 11
783.0793993973682
 21
740.0616186568182
 31
0.0
  0
LINE
  5
9C
330
1D
100
AcDbEntity
  8
_0-0_FRF74-1521
  6
Continuous
 62
     7
100
AcDbLine
 10
794.0793993973682
 20
729.5074725520875
 30
0.0
 11
794.0793993973682
 21
740.0616186568182
 31
0.0
  0
LINE
  5
9D
330
1D
100
AcDbEntity
  8
_0-0_FRF74-1521
  6
Continuous
 62
     7
100
AcDbLine
 10
794.0793993973682
 20
729.5074725520875
 30
0.0
 11
763.5793993973682
 21
729.5074725520875
 31
0.0
  0
LINE
  5
9E
330
1D
100
AcDbEntity
  8
_0-0_FRF74-1521
  6
Continuous
 62
     7
100
AcDbLine
 10
763.5793993973682
 20
740.5074725520876
 30
0.0
 11
763.5793993973682
 21
729.5074725520875
 31
0.0
  0
LINE
  5
9F
330
1D
100
AcDbEntity
  8
_0-0_FRF74-1521
  6
Continuous
 62
     7
100
AcDbLine
 10
794.5793993973682
 20
739.5394215152752
 30
0.0
 11
794.5793993973682
 21
729.5074725520875
 31
0.0
  0
LINE
  5
A0
330
1D
100
AcDbEntity
  8
_0-0_FRF74-1521
  6
Continuous
 62
     7
100
AcDbLine
 10
794.0793993973682
 20
729.5074725520875
 30
0.0
 11
794.5793993973682
 21
729.5074725520875
 31
0.0
  0
LINE
  5
A1
330
1D
100
AcDbEntity
  8
_0-0_FRF74-1521
  6
Continuous
 62
     7
100
AcDbLine
 10
794.0793993973682
 20
709.5074725520875
 30
0.0
 11
794.0793993973682
 21
729.5074725520875
 31
0.0
  0
LINE
  5
A2
330
1D
100
AcDbEntity
  8
_0-0_FRF74-1521
  6
Continuous
 62
     7
100
AcDbLine
 10
794.5793993973682
 20
729.5074725520875
 30
0.0
 11
794.5793993973682
 21
709.5074725520875
 31
0.0
  0
LINE
  5
A3
330
1D
100
AcDbEntity
  8
_0-0_FRF74-1521
  6
Continuous
 62
     7
100
AcDbLine
 10
794.0793993973682
 20
709.5074725520875
 30
0.0
 11
794.5793993973682
 21
709.5074725520875
 31
0.0
  0
LINE
  5
A4
330
1D
100
AcDbEntity
  8
_0-0_FRF74-1521
  6
Continuous
 62
     7
100
AcDbLine
 10
794.0793993973682
 20
709.5074725520875
 30
0.0
 11
763.5793993973682
 21
709.5074725520876
 31
0.0
  0
LINE
  5
A5
330
1D
100
AcDbEntity
  8
_0-0_FRF74-1521
  6
Continuous
 62
     7
100
AcDbLine
 10
763.5793993973682
 20
729.5074725520875
 30
0.0
 11
763.5793993973682
 21
709.5074725520876
 31
0.0
  0
LINE
  5
A6
330
1D
100
AcDbEntity
  8
_0-0_FRF74-1521
  6
Continuous
 62
     7
100
AcDbLine
 10
794.0793993973682
 20
698.953326447357
 30
0.0
 11
794.0793993973682
 21
709.5074725520875
 31
0.0
  0
LINE
  5
A7
330
1D
100
AcDbEntity
  8
_0-0_FRF74-1521
  6
Continuous
 62
     7
100
AcDbLine
 10
783.0793993973682
 20
698.953326447357
 30
0.0
 11
794.0793993973682
 21
698.953326447357
 31
0.0
  0
LINE
  5
A8
330
1D
100
AcDbEntity
  8
_0-0_FRF74-1521
  6
Continuous
 62
     7
100
AcDbLine
 10
763.5793993973682
 20
709.5074725520876
 30
0.0
 11
763.5793993973682
 21
698.5074725520876
 31
0.0
  0
LINE
  5
A9
330
1D
100
AcDbEntity
  8
_0-0_FRF74-1521
  6
Continuous
 62
     7
100
AcDbLine
 10
794.5793993973682
 20
709.5074725520875
 30
0.0
 11
794.5793993973682
 21
699.4755235889
 31
0.0
  0
ARC
  5
AA
330
1D
100
AcDbEntity
  8
_0-0_FRF74-1521
  6
Continuous
 62
     7
100
AcDbCircle
 10
793.0793993973682
 20
809.5074725520875
 30
0.0
 40
10.0
100
AcDbArc
 50
90.0
 51
180.0
  0
LINE
  5
AB
330
1D
100
AcDbEntity
  8
_0-0_FRF74-1521
  6
Continuous
 62
     7
100
AcDbLine
 10
978.0152862935474
 20
819.5074725520875
 30
0.0
 11
903.6335455020989
 21
819.5074725520875
 31
0.0
  0
LINE
  5
AC
330
1D
100
AcDbEntity
  8
_0-0_FRF74-1521
  6
Continuous
 62
     7
100
AcDbLine
 10
862.5252532926377
 20
819.5074725520875
 30
0.0
 11
793.0793993973682
 21
819.5074725520875
 31
0.0
  0
ARC
  5
AD
330
1D
100
AcDbEntity
  8
_0-0_FRF74-1521
  6
Continuous
 62
     7
100
AcDbCircle
 10
978.0152862935475
 20
814.5074725520875
 30
0.0
 40
5.000000000000028
100
AcDbArc
 50
358.5307164186481
 51
90.0
  0
ARC
  5
AE
330
1D
100
AcDbEntity
  8
_0-0_FRF74-1521
  6
Continuous
 62
     7
100
AcDbCircle
 10
783.0793993973682
 20
819.5074725520875
 30
0.0
 40
200.0
100
AcDbArc
 50
271.4692835813546
 51
358.530716418647
  0
ARC
  5
AF
330
1D
100
AcDbEntity
  8
_0-0_FRF74-1521
  6
Continuous
 62
     7
100
AcDbCircle
 10
788.0793993973682
 20
624.5715856559083
 30
0.0
 40
5.000000000000028
100
AcDbArc
 50
180.0
 51
271.4692835813545
  0
LINE
  5
B0
330
1D
100
AcDbEntity
  8
_0-0_FRF74-1521
  6
Continuous
 62
     7
100
AcDbLine
 10
783.0793993973682
 20
809.5074725520875
 30
0.0
 11
783.0793993973682
 21
740.0616186568182
 31
0.0
  0
LINE
  5
B1
330
1D
100
AcDbEntity
  8
_0-0_FRF74-1521
  6
Continuous
 62
     7
100
AcDbLine
 10
783.0793993973682
 20
698.953326447357
 30
0.0
 11
783.0793993973682
 21
624.5715856559083
 31
0.0
  0
LINE
  5
B2
330
1D
100
AcDbEntity
  8
_0-0_FRF74-1521
  6
Continuous
 62
     7
100
AcDbLine
 10
902.6335455020989
 20
808.0074725520876
 30
0.0
 11
893.0793993973682
 21
808.0074725520876
 31
0.0
  0
LINE
  5
B3
330
1D
100
AcDbEntity
  8
_0-0_FRF74-1521
  6
Continuous
 62
     7
100
AcDbLine
 10
903.6335455020989
 20
809.0074725520876
 30
0.0
 11
903.6335455020989
 21
819.5074725520876
 31
0.0
  0
ARC
  5
B4
330
1D
100
AcDbEntity
  8
_0-0_FRF74-1521
  6
Continuous
 62
     7
100
AcDbCircle
 10
902.6335455020989
 20
809.0074725520876
 30
0.0
 40
1.0
100
AcDbArc
 50
270.0
 51
0.0
  0
LINE
  5
B5
330
1D
100
AcDbEntity
  8
_0-0_FRF74-1521
  6
Continuous
 62
     7
100
AcDbLine
 10
863.5252532926377
 20
808.0074725520876
 30
0.0
 11
873.0793993973682
 21
808.0074725520877
 31
0.0
  0
LINE
  5
B6
330
1D
100
AcDbEntity
  8
_0-0_FRF74-1521
  6
Continuous
 62
     7
100
AcDbLine
 10
862.5252532926377
 20
809.0074725520876
 30
0.0
 11
862.5252532926377
 21
819.5074725520875
 31
0.0
  0
ARC
  5
B7
330
1D
100
AcDbEntity
  8
_0-0_FRF74-1521
  6
Continuous
 62
     7
100
AcDbCircle
 10
863.5252532926377
 20
809.0074725520876
 30
0.0
 40
1.0
100
AcDbArc
 50
180.0
 51
270.0000000000007
  0
TEXT
  5
B8
330
1D
100
AcDbEntity
  8
_0-2_
 62
     7
100
AcDbText
 10
704.5264596850931
 20
506.9914966267897
 30
0.0
 40
6.0
  1
シェルフ　-LANGBERGER,Lugano-
  7
ＭＳ ゴシック
100
AcDbText
  0
TEXT
  5
B9
330
1D
100
AcDbEntity
  8
_0-0_FRF74-1521
 62
     7
100
AcDbText
 10
704.5264596850931
 20
491.2654663908363
 30
0.0
 40
6.0
  1
シェルフ：フロストガラス
  7
ＭＳ ゴシック
100
AcDbText
  0
TEXT
  5
BA
330
1D
100
AcDbEntity
  8
_0-0_FRF74-1521
 62
     7
100
AcDbText
 10
704.5264596850931
 20
481.2654663908363
 30
0.0
 40
6.0
  1
ブラケット：クローム
  7
ＭＳ ゴシック
100
AcDbText
  0
LINE
  5
BB
330
1D
100
AcDbEntity
  8
_0-1_
  6
Continuous
 62
     4
100
AcDbLine
 10
862.0793993973683
 20
869.0074725520876
 30
0.0
 11
862.0793993973683
 21
845.0074725520876
 31
0.0
  0
LINE
  5
BC
330
1D
100
AcDbEntity
  8
_0-1_
  6
Continuous
 62
     4
100
AcDbLine
 10
904.0793993973682
 20
869.0074725520876
 30
0.0
 11
904.0793993973682
 21
845.0074725520876
 31
0.0
  0
LINE
  5
BD
330
1D
100
AcDbEntity
  8
_0-1_
  6
Continuous
 62
     4
100
AcDbLine
 10
763.5793993973682
 20
887.3318136862431
 30
0.0
 11
883.0793993973683
 21
887.3318136862431
 31
0.0
  0
POINT
  5
BE
330
1D
100
AcDbEntity
  8
_0-1_
 62
     7
100
AcDbPoint
 10
763.5793993973682
 20
887.3318136862431
 30
0.0
  0
LINE
  5
BF
330
1D
100
AcDbEntity
  8
_0-1_
  6
Continuous
 62
     4
100
AcDbLine
 10
883.0793993973683
 20
887.3318136862431
 30
0.0
 11
883.0793993973683
 21
845.0074725520876
 31
0.0
  0
LINE
  5
C0
330
1D
100
AcDbEntity
  8
_0-1_
  6
Continuous
 62
     4
100
AcDbLine
 10
763.5793993973682
 20
887.3318136862431
 30
0.0
 11
763.5793993973682
 21
746.5074725520876
 31
0.0
  0
LINE
  5
C1
330
1D
100
AcDbEntity
  8
_0-1_
  6
Continuous
 62
     4
100
AcDbLine
 10
733.5793993973682
 20
839.0074725520876
 30
0.0
 11
856.0793993973683
 21
839.0074725520876
 31
0.0
  0
TEXT
  5
C2
330
1D
100
AcDbEntity
  8
_0-1_
 62
     4
100
AcDbText
 10
730.8569451106875
 20
556.1964889919725
 30
0.0
 40
5.0
  1
(※1)ブラケット取付位置は調整可能です。
  7
ＭＳ ゴシック
100
AcDbText
  0
LINE
  5
C3
330
1D
100
AcDbEntity
  8
_0-1_
  6
Continuous
 62
     4
100
AcDbLine
 10
733.5793993973682
 20
839.0074725520876
 30
0.0
 11
733.5793993973682
 21
719.5074725520876
 31
0.0
  0
POINT
  5
C4
330
1D
100
AcDbEntity
  8
_0-1_
 62
     7
100
AcDbPoint
 10
733.5793993973682
 20
839.0074725520876
 30
0.0
  0
POINT
  5
C5
330
1D
100
AcDbEntity
  8
_0-1_
 62
     7
100
AcDbPoint
 10
733.5793993973682
 20
719.5074725520876
 30
0.0
  0
LINE
  5
C6
330
1D
100
AcDbEntity
  8
_0-1_
  6
Continuous
 62
     4
100
AcDbLine
 10
733.5793993973682
 20
719.5074725520876
 30
0.0
 11
757.5793993973682
 21
719.5074725520876
 31
0.0
  0
TEXT
  5
C7
330
1D
100
AcDbEntity
  8
_0-1_
 62
     4
100
AcDbText
 10
732.5793993973682
 20
775.5074725520876
 30
0.0
 40
5.0
  1
120(※1)
 50
90.0
  7
ＭＳ ゴシック
100
AcDbText
  0
TEXT
  5
C8
330
1D
100
AcDbEntity
  8
_0-1_
 62
     4
100
AcDbText
 10
819.5793993973682
 20
888.3318136862431
 30
0.0
 40
5.0
  1
120(※1)
  7
ＭＳ ゴシック
100
AcDbText
  0
LINE
  5
C9
330
1D
100
AcDbEntity
  8
_0-1_
  6
Continuous
 62
     4
100
AcDbLine
 10
862.0793993973683
 20
869.0074725520876
 30
0.0
 11
904.0793993973682
 21
869.0074725520876
 31
0.0
  0
POINT
  5
CA
330
1D
100
AcDbEntity
  8
_0-1_
 62
     7
100
AcDbPoint
 10
862.0793993973683
 20
869.0074725520876
 30
0.0
  0
POINT
  5
CB
330
1D
100
AcDbEntity
  8
_0-1_
 62
     7
100
AcDbPoint
 10
904.0793993973682
 20
869.0074725520876
 30
0.0
  0
POINT
  5
CC
330
1D
100
AcDbEntity
  8
_0-1_
 62
     7
100
AcDbPoint
 10
883.0793993973683
 20
887.3318136862431
 30
0.0
  0
TEXT
  5
CD
330
1D
100
AcDbEntity
  8
_0-1_
 62
     4
100
AcDbText
 10
886.2109781943202
 20
869.8341826402298
 30
0.0
 40
5.0
  1
42
  7
ＭＳ ゴシック
100
AcDbText
  0
TEXT
  5
CE
330
1D
100
AcDbEntity
  8
_0-1_
 62
     4
100
AcDbText
 10
1011.737534630288
 20
945.6034913885361
 30
0.0
 40
5.0
  1
6
 50
90.0
  7
ＭＳ ゴシック
100
AcDbText
  0
LINE
  5
CF
330
1D
100
AcDbEntity
  8
_0-1_
  6
Continuous
 62
     7
100
AcDbLine
 10
1013.013642367809
 20
943.460863964628
 30
0.0
 11
1013.013642367809
 21
948.5145580160574
 31
0.0
  0
ENDSEC
  0
SECTION
  2
OBJECTS
  0
DICTIONARY
  5
C
330
0
100
AcDbDictionary
281
     1
  3
ACAD_DETAILVIEWSTYLE
350
154
  3
ACAD_GROUP
350
D
  3
ACAD_IMAGE_VARS
350
118
  3
ACAD_LAYOUT
350
1A
  3
ACAD_MATERIAL
350
110
  3
ACAD_MLEADERSTYLE
350
12D
  3
ACAD_MLINESTYLE
350
17
  3
ACAD_PLOTSETTINGS
350
19
  3
ACAD_PLOTSTYLENAME
350
E
  3
ACAD_SCALELIST
350
D1
  3
ACAD_SECTIONVIEWSTYLE
350
155
  3
ACAD_TABLESTYLE
350
114
  3
ACAD_VISUALSTYLE
350
F7
  3
ACDB_RECOMPOSE_DATA
350
163
  3
AcDbVariableDictionary
350
14C
  3
APPDATA
350
116
  0
SUN
  5
117
330
D0
100
AcDbSun
 90
        1
290
     0
 63
     7
421
 16777215
 40
1.0
291
     1
 91
  2455826
 92
 54000000
292
     0
 70
     2
 71
   256
280
     1
  0
DICTIONARY
  5
15D
330
2
100
AcDbDictionary
280
     1
281
     1
  3
ACAD_LAYERSTATES
360
15E
  0
DICTIONARY
  5
154
102
{ACAD_REACTORS
330
C
102
}
330
C
100
AcDbDictionary
281
     1
  0
DICTIONARY
  5
D
102
{ACAD_REACTORS
330
C
102
}
330
C
100
AcDbDictionary
281
     1
  0
RASTERVARIABLES
  5
118
102
{ACAD_REACTORS
330
C
102
}
330
C
100
AcDbRasterVariables
 90
        0
 70
     1
 71
     1
 72
     0
  0
DICTIONARY
  5
1A
102
{ACAD_REACTORS
330
C
102
}
330
C
100
AcDbDictionary
281
     1
  3
Model
350
1E
  3
シート 1
350
1C
  0
DICTIONARY
  5
110
102
{ACAD_REACTORS
330
C
102
}
330
C
100
AcDbDictionary
281
     1
  3
ByBlock
350
112
  3
ByLayer
350
111
  3
Global
350
113
  0
DICTIONARY
  5
12D
102
{ACAD_REACTORS
330
C
102
}
330
C
100
AcDbDictionary
281
     1
  3
Standard
350
156
  0
DICTIONARY
  5
17
102
{ACAD_REACTORS
330
C
102
}
330
C
100
AcDbDictionary
281
     1
  3
Standard
350
18
  0
DICTIONARY
  5
19
102
{ACAD_REACTORS
330
C
102
}
330
C
100
AcDbDictionary
281
     1
  0
ACDBDICTIONARYWDFLT
  5
E
102
{ACAD_REACTORS
330
C
102
}
330
C
100
AcDbDictionary
281
     1
  3
Normal
350
F
100
AcDbDictionaryWithDefault
340
F
  0
DICTIONARY
  5
D1
102
{ACAD_REACTORS
330
C
102
}
330
C
100
AcDbDictionary
281
     1
  3
A0
350
D2
  3
A1
350
D3
  3
A2
350
D4
  3
A3
350
D5
  3
A4
350
D6
  3
A5
350
D7
  3
A6
350
D8
  3
A7
350
D9
  3
A8
350
DA
  3
A9
350
DB
  3
B0
350
DC
  3
B1
350
DD
  3
B2
350
DE
  3
B3
350
DF
  3
B4
350
E0
  3
B5
350
E1
  3
B6
350
E2
  3
B7
350
E3
  3
B8
350
E4
  3
B9
350
E5
  3
C0
350
E6
  3
C1
350
E7
  3
C2
350
E8
  3
C3
350
E9
  3
C4
350
EA
  3
C5
350
EB
  3
C6
350
EC
  3
C7
350
ED
  3
C8
350
EE
  3
C9
350
EF
  3
D0
350
F0
  3
D1
350
F1
  3
D2
350
F2
  0
DICTIONARY
  5
155
102
{ACAD_REACTORS
330
C
102
}
330
C
100
AcDbDictionary
281
     1
  0
DICTIONARY
  5
114
102
{ACAD_REACTORS
330
C
102
}
330
C
100
AcDbDictionary
281
     1
  3
Standard
350
115
  0
DICTIONARY
  5
F7
102
{ACAD_REACTORS
330
C
102
}
330
C
100
AcDbDictionary
281
     1
  3
2dWireframe
350
FC
  3
Basic
350
FF
  3
Brighten
350
103
  3
ColorChange
350
107
  3
Conceptual
350
101
  3
Dim
350
102
  3
EdgeColorOff
350
10A
  3
Facepattern
350
106
  3
Flat
350
F8
  3
FlatWithEdges
350
F9
  3
Gouraud
350
FA
  3
GouraudWithEdges
350
FB
  3
Hidden
350
FE
  3
JitterOff
350
108
  3
Linepattern
350
105
  3
OverhangOff
350
109
  3
Realistic
350
100
  3
Shaded
350
10F
  3
Shaded with edges
350
10E
  3
Shades of Gray
350
10B
  3
Sketchy
350
10C
  3
Thicken
350
104
  3
Wireframe
350
FD
  3
X-Ray
350
10D
  0
XRECORD
  5
163
102
{ACAD_REACTORS
330
C
102
}
330
C
100
AcDbXrecord
280
     1
 90
        1
330
115
  0
DICTIONARY
  5
14C
102
{ACAD_REACTORS
330
C
102
}
330
C
100
AcDbDictionary
281
     1
  3
CANNOSCALE
350
14D
  3
CMLEADERSTYLE
350
15B
  3
CTABLESTYLE
350
152
  3
LIGHTINGUNITS
350
14E
  3
MSLTSCALE
350
153
  3
XCLIPFRAME
350
15C
  0
DICTIONARY
  5
116
102
{ACAD_REACTORS
330
C
102
}
330
C
100
AcDbDictionary
281
     1
  0
DICTIONARY
  5
15E
102
{ACAD_REACTORS
330
15D
102
}
330
15D
100
AcDbDictionary
281
     1
  0
LAYOUT
  5
1E
102
{ACAD_REACTORS
330
1A
102
}
330
1A
100
AcDbPlotSettings
  1

  2
none_device
  4
Letter_(8.50_x_11.00_Inches)
  6

 40
6.35
 41
6.35
 42
6.35
 43
6.35
 44
215.9
 45
279.4
 46
0.0
 47
0.0
 48
0.0
 49
0.0
140
0.0
141
0.0
142
1.0
143
1.0
 70
  1712
 72
     0
 73
     0
 74
     0
  7

 75
     0
 76
     0
 77
     2
 78
   300
147
1.0
148
0.0
149
0.0
100
AcDbLayout
  1
Model
 70
     1
 71
     0
 10
0.0
 20
0.0
 11
12.0
 21
9.0
 12
0.0
 22
0.0
 32
0.0
 14
689.8988725370491
 24
460.9594800841883
 34
0.0
 15
1080.203169345885
 25
1029.267348823772
 35
0.0
146
0.0
 13
0.0
 23
0.0
 33
0.0
 16
1.0
 26
0.0
 36
0.0
 17
0.0
 27
1.0
 37
0.0
 76
     0
330
1D
331
D0
  0
LAYOUT
  5
1C
102
{ACAD_REACTORS
330
1A
102
}
330
1A
100
AcDbPlotSettings
  1

  2
none_device
  4

  6

 40
0.0
 41
0.0
 42
0.0
 43
0.0
 44
0.0
 45
0.0
 46
0.0
 47
0.0
 48
0.0
 49
0.0
140
0.0
141
0.0
142
1.0
143
1.0
 70
   688
 72
     0
 73
     0
 74
     5
  7

 75
    16
 76
     0
 77
     2
 78
   300
147
1.0
148
0.0
149
0.0
100
AcDbLayout
  1
シート 1
 70
     1
 71
     1
 10
0.0
 20
0.0
 11
0.0
 21
0.0
 12
0.0
 22
0.0
 32
0.0
 14
1.000000000000000E+20
 24
1.000000000000000E+20
 34
1.000000000000000E+20
 15
-1.000000000000000E+20
 25
-1.000000000000000E+20
 35
-1.000000000000000E+20
146
0.0
 13
0.0
 23
0.0
 33
0.0
 16
1.0
 26
0.0
 36
0.0
 17
0.0
 27
1.0
 37
0.0
 76
     0
330
1B
  0
MATERIAL
  5
112
102
{ACAD_REACTORS
330
110
102
}
330
110
100
AcDbMaterial
  1
ByBlock
 72
     1
 94
      127
  0
MATERIAL
  5
111
102
{ACAD_REACTORS
330
110
102
}
330
110
100
AcDbMaterial
  1
ByLayer
 72
     1
 94
      127
  0
MATERIAL
  5
113
102
{ACAD_REACTORS
330
110
102
}
330
110
100
AcDbMaterial
  1
Global
 72
     1
 94
      127
  0
MLEADERSTYLE
  5
156
102
{ACAD_REACTORS
330
12D
102
}
330
12D
100
AcDbMLeaderStyle
170
     2
171
     1
172
     0
 90
        2
 40
0.0
 41
0.0
173
     1
 91
-1056964608
340
14
 92
       -2
290
     1
 42
0.09
291
     1
 43
0.36
  3
Standard
341
0
 44
0.18
300

342
11
174
     1
178
     6
175
     1
176
     0
 93
-1056964608
 45
0.18
292
     0
297
     0
 46
0.18
343
0
 94
-1056964608
 47
1.0
 49
1.0
140
1.0
293
     1
141
0.0
294
     1
177
     0
142
1.0
295
     0
296
     0
143
0.125
1001
ACAD_MLEADERVER
1070
     2
  0
MLINESTYLE
  5
18
102
{ACAD_REACTORS
330
17
102
}
330
17
100
AcDbMlineStyle
  2
Standard
 70
     0
  3

 62
   256
 51
90.0
 52
90.0
 71
     2
 49
0.5
 62
   256
  6
BYLAYER
 49
-0.5
 62
   256
  6
BYLAYER
  0
ACDBPLACEHOLDER
  5
F
102
{ACAD_REACTORS
330
E
102
}
330
E
  0
SCALE
  5
D2
102
{ACAD_REACTORS
330
D1
102
}
330
D1
100
AcDbScale
 70
     0
300
1:1
140
1.0
141
1.0
290
     1
  0
SCALE
  5
D3
102
{ACAD_REACTORS
330
D1
102
}
330
D1
100
AcDbScale
 70
     0
300
1:2
140
1.0
141
2.0
290
     0
  0
SCALE
  5
D4
102
{ACAD_REACTORS
330
D1
102
}
330
D1
100
AcDbScale
 70
     0
300
1:4
140
1.0
141
4.0
290
     0
  0
SCALE
  5
D5
102
{ACAD_REACTORS
330
D1
102
}
330
D1
100
AcDbScale
 70
     0
300
1:5
140
1.0
141
5.0
290
     0
  0
SCALE
  5
D6
102
{ACAD_REACTORS
330
D1
102
}
330
D1
100
AcDbScale
 70
     0
300
1:8
140
1.0
141
8.0
290
     0
  0
SCALE
  5
D7
102
{ACAD_REACTORS
330
D1
102
}
330
D1
100
AcDbScale
 70
     0
300
1:10
140
1.0
141
10.0
290
     0
  0
SCALE
  5
D8
102
{ACAD_REACTORS
330
D1
102
}
330
D1
100
AcDbScale
 70
     0
300
1:16
140
1.0
141
16.0
290
     0
  0
SCALE
  5
D9
102
{ACAD_REACTORS
330
D1
102
}
330
D1
100
AcDbScale
 70
     0
300
1:20
140
1.0
141
20.0
290
     0
  0
SCALE
  5
DA
102
{ACAD_REACTORS
330
D1
102
}
330
D1
100
AcDbScale
 70
     0
300
1:30
140
1.0
141
30.0
290
     0
  0
SCALE
  5
DB
102
{ACAD_REACTORS
330
D1
102
}
330
D1
100
AcDbScale
 70
     0
300
1:40
140
1.0
141
40.0
290
     0
  0
SCALE
  5
DC
102
{ACAD_REACTORS
330
D1
102
}
330
D1
100
AcDbScale
 70
     0
300
1:50
140
1.0
141
50.0
290
     0
  0
SCALE
  5
DD
102
{ACAD_REACTORS
330
D1
102
}
330
D1
100
AcDbScale
 70
     0
300
1:100
140
1.0
141
100.0
290
     0
  0
SCALE
  5
DE
102
{ACAD_REACTORS
330
D1
102
}
330
D1
100
AcDbScale
 70
     0
300
2:1
140
2.0
141
1.0
290
     0
  0
SCALE
  5
DF
102
{ACAD_REACTORS
330
D1
102
}
330
D1
100
AcDbScale
 70
     0
300
4:1
140
4.0
141
1.0
290
     0
  0
SCALE
  5
E0
102
{ACAD_REACTORS
330
D1
102
}
330
D1
100
AcDbScale
 70
     0
300
8:1
140
8.0
141
1.0
290
     0
  0
SCALE
  5
E1
102
{ACAD_REACTORS
330
D1
102
}
330
D1
100
AcDbScale
 70
     0
300
10:1
140
10.0
141
1.0
290
     0
  0
SCALE
  5
E2
102
{ACAD_REACTORS
330
D1
102
}
330
D1
100
AcDbScale
 70
     0
300
100:1
140
100.0
141
1.0
290
     0
  0
SCALE
  5
E3
102
{ACAD_REACTORS
330
D1
102
}
330
D1
100
AcDbScale
 70
     0
300
1/128" = 1'-0"
140
0.0078125
141
12.0
290
     0
  0
SCALE
  5
E4
102
{ACAD_REACTORS
330
D1
102
}
330
D1
100
AcDbScale
 70
     0
300
1/64" = 1'-0"
140
0.015625
141
12.0
290
     0
  0
SCALE
  5
E5
102
{ACAD_REACTORS
330
D1
102
}
330
D1
100
AcDbScale
 70
     0
300
1/32" = 1'-0"
140
0.03125
141
12.0
290
     0
  0
SCALE
  5
E6
102
{ACAD_REACTORS
330
D1
102
}
330
D1
100
AcDbScale
 70
     0
300
1/16" = 1'-0"
140
0.0625
141
12.0
290
     0
  0
SCALE
  5
E7
102
{ACAD_REACTORS
330
D1
102
}
330
D1
100
AcDbScale
 70
     0
300
3/32" = 1'-0"
140
0.09375
141
12.0
290
     0
  0
SCALE
  5
E8
102
{ACAD_REACTORS
330
D1
102
}
330
D1
100
AcDbScale
 70
     0
300
1/8" = 1'-0"
140
0.125
141
12.0
290
     0
  0
SCALE
  5
E9
102
{ACAD_REACTORS
330
D1
102
}
330
D1
100
AcDbScale
 70
     0
300
3/16" = 1'-0"
140
0.1875
141
12.0
290
     0
  0
SCALE
  5
EA
102
{ACAD_REACTORS
330
D1
102
}
330
D1
100
AcDbScale
 70
     0
300
1/4" = 1'-0"
140
0.25
141
12.0
290
     0
  0
SCALE
  5
EB
102
{ACAD_REACTORS
330
D1
102
}
330
D1
100
AcDbScale
 70
     0
300
3/8" = 1'-0"
140
0.375
141
12.0
290
     0
  0
SCALE
  5
EC
102
{ACAD_REACTORS
330
D1
102
}
330
D1
100
AcDbScale
 70
     0
300
1/2" = 1'-0"
140
0.5
141
12.0
290
     0
  0
SCALE
  5
ED
102
{ACAD_REACTORS
330
D1
102
}
330
D1
100
AcDbScale
 70
     0
300
3/4" = 1'-0"
140
0.75
141
12.0
290
     0
  0
SCALE
  5
EE
102
{ACAD_REACTORS
330
D1
102
}
330
D1
100
AcDbScale
 70
     0
300
1" = 1'-0"
140
1.0
141
12.0
290
     0
  0
SCALE
  5
EF
102
{ACAD_REACTORS
330
D1
102
}
330
D1
100
AcDbScale
 70
     0
300
1-1/2" = 1'-0"
140
1.5
141
12.0
290
     0
  0
SCALE
  5
F0
102
{ACAD_REACTORS
330
D1
102
}
330
D1
100
AcDbScale
 70
     0
300
3" = 1'-0"
140
3.0
141
12.0
290
     0
  0
SCALE
  5
F1
102
{ACAD_REACTORS
330
D1
102
}
330
D1
100
AcDbScale
 70
     0
300
6" = 1'-0"
140
6.0
141
12.0
290
     0
  0
SCALE
  5
F2
102
{ACAD_REACTORS
330
D1
102
}
330
D1
100
AcDbScale
 70
     0
300
1'-0" = 1'-0"
140
12.0
141
12.0
290
     0
  0
TABLESTYLE
  5
115
102
{ACAD_REACTORS
330
114
102
}
102
{ACAD_XDICTIONARY
360
161
102
}
330
114
100
AcDbTableStyle
  3
Standard
 70
     0
 71
     0
 40
0.06
 41
0.06
280
     0
281
     0
  7
STANDARD
140
0.18
170
     2
 62
     0
 63
   257
283
     0
 90
        4
 91
        0
  1

274
    -2
284
     1
 64
     0
275
    -2
285
     1
 65
     0
276
    -2
286
     1
 66
     0
277
    -2
287
     1
 67
     0
278
    -2
288
     1
 68
     0
279
    -2
289
     1
 69
     0
  7
STANDARD
140
0.25
170
     5
 62
     0
 63
   257
283
     0
 90
        4
 91
        0
  1

274
    -2
284
     1
 64
     0
275
    -2
285
     1
 65
     0
276
    -2
286
     1
 66
     0
277
    -2
287
     1
 67
     0
278
    -2
288
     1
 68
     0
279
    -2
289
     1
 69
     0
  7
STANDARD
140
0.18
170
     5
 62
     0
 63
   257
283
     0
 90
        4
 91
        0
  1

274
    -2
284
     1
 64
     0
275
    -2
285
     1
 65
     0
276
    -2
286
     1
 66
     0
277
    -2
287
     1
 67
     0
278
    -2
288
     1
 68
     0
279
    -2
289
     1
 69
     0
  0
VISUALSTYLE
  5
FC
102
{ACAD_REACTORS
330
F7
102
}
330
F7
100
AcDbVisualStyle
  2
2dWireframe
 70
     4
 71
     0
 72
     2
 73
     0
 90
        0
 40
0.6
 41
30.0
 62
     5
 63
     7
421
 16777215
 74
     1
 91
        4
 64
     7
 65
   257
 75
     1
175
     1
 42
1.0
 92
        0
 66
   257
 43
1.0
 76
     1
 77
     6
 78
     2
 67
     7
 79
     5
170
     0
171
     0
290
     0
174
     0
 93
        1
 44
0.0
173
     0
291
     0
 45
0.0
  0
VISUALSTYLE
  5
FF
102
{ACAD_REACTORS
330
F7
102
}
330
F7
100
AcDbVisualStyle
  2
Basic
 70
     7
 71
     1
 72
     0
 73
     1
 90
        0
 40
0.6
 41
30.0
 62
     5
 63
     7
421
 16777215
 74
     0
 91
        4
 64
     7
 65
   257
 75
     1
175
     1
 42
1.0
 92
        8
 66
     7
 43
1.0
 76
     1
 77
     6
 78
     2
 67
     7
 79
     5
170
     0
171
     0
290
     0
174
     0
 93
        1
 44
0.0
173
     0
291
     1
 45
0.0
  0
VISUALSTYLE
  5
103
102
{ACAD_REACTORS
330
F7
102
}
330
F7
100
AcDbVisualStyle
  2
Brighten
 70
    12
 71
     2
 72
     2
 73
     0
 90
        0
 40
0.6
 41
30.0
 62
     5
 63
     7
421
 16777215
 74
     1
 91
        4
 64
     7
 65
   257
 75
     1
175
     1
 42
1.0
 92
        8
 66
     7
 43
1.0
 76
     1
 77
     6
 78
     2
 67
     7
 79
     5
170
     0
171
     0
290
     0
174
     0
 93
        1
 44
50.0
173
     0
291
     1
 45
0.0
  0
VISUALSTYLE
  5
107
102
{ACAD_REACTORS
330
F7
102
}
330
F7
100
AcDbVisualStyle
  2
ColorChange
 70
    16
 71
     2
 72
     2
 73
     3
 90
        0
 40
0.6
 41
30.0
 62
     5
 63
     8
421
  8421504
 74
     1
 91
        4
 64
     7
 65
   257
 75
     1
175
     1
 42
1.0
 92
        8
 66
     8
424
  8421504
 43
1.0
 76
     1
 77
     6
 78
     2
 67
     7
 79
     5
170
     0
171
     0
290
     0
174
     0
 93
        1
 44
0.0
173
     0
291
     1
 45
0.0
  0
VISUALSTYLE
  5
101
102
{ACAD_REACTORS
330
F7
102
}
330
F7
100
AcDbVisualStyle
  2
Conceptual
 70
     9
 71
     3
 72
     2
 73
     0
 90
        0
 40
0.6
 41
30.0
 62
     5
 63
     7
421
 16777215
 74
     2
 91
        2
 64
     7
 65
   257
 75
     1
175
     1
 42
179.0
 92
        8
 66
     7
 43
1.0
 76
     1
 77
     6
 78
     2
 67
     7
 79
     3
170
     0
171
     0
290
     0
174
     0
 93
        1
 44
0.0
173
     0
291
     0
 45
0.0
  0
VISUALSTYLE
  5
102
102
{ACAD_REACTORS
330
F7
102
}
330
F7
100
AcDbVisualStyle
  2
Dim
 70
    11
 71
     2
 72
     2
 73
     0
 90
        0
 40
0.6
 41
30.0
 62
     5
 63
     7
421
 16777215
 74
     1
 91
        4
 64
     7
 65
   257
 75
     1
175
     1
 42
1.0
 92
        8
 66
     7
 43
1.0
 76
     1
 77
     6
 78
     2
 67
     7
 79
     5
170
     0
171
     0
290
     0
174
     0
 93
        1
 44
-50.0
173
     0
291
     1
 45
0.0
  0
VISUALSTYLE
  5
10A
102
{ACAD_REACTORS
330
F7
102
}
330
F7
100
AcDbVisualStyle
  2
EdgeColorOff
 70
    22
 71
     2
 72
     2
 73
     0
 90
        0
 40
0.6
 41
30.0
 62
     5
 63
     7
421
 16777215
 74
     1
 91
        4
 64
     7
 65
   257
 75
     1
175
     1
 42
1.0
 92
        8
 66
     7
 43
1.0
 76
     1
 77
     6
 78
     2
 67
     7
 79
     5
170
     0
171
     0
290
     0
174
     0
 93
        1
 44
0.0
173
     0
291
     1
 45
0.0
  0
VISUALSTYLE
  5
106
102
{ACAD_REACTORS
330
F7
102
}
330
F7
100
AcDbVisualStyle
  2
Facepattern
 70
    15
 71
     2
 72
     2
 73
     0
 90
        0
 40
0.6
 41
30.0
 62
     5
 63
     7
421
 16777215
 74
     1
 91
        4
 64
     7
 65
   257
 75
     1
175
     1
 42
1.0
 92
        8
 66
     7
 43
1.0
 76
     1
 77
     6
 78
     2
 67
     7
 79
     5
170
     0
171
     0
290
     0
174
     0
 93
        1
 44
0.0
173
     0
291
     1
 45
0.0
  0
VISUALSTYLE
  5
F8
102
{ACAD_REACTORS
330
F7
102
}
330
F7
100
AcDbVisualStyle
  2
Flat
 70
     0
 71
     2
 72
     1
 73
     1
 90
        2
 40
0.6
 41
30.0
 62
     5
 63
     7
421
 16777215
 74
     0
 91
        0
 64
     7
 65
   257
 75
     1
175
     1
 42
1.0
 92
        8
 66
     7
 43
1.0
 76
     1
 77
     6
 78
     2
 67
     7
 79
     5
170
     0
171
     0
290
     0
174
     0
 93
       13
 44
0.0
173
     0
291
     1
 45
0.0
  0
VISUALSTYLE
  5
F9
102
{ACAD_REACTORS
330
F7
102
}
330
F7
100
AcDbVisualStyle
  2
FlatWithEdges
 70
     1
 71
     2
 72
     1
 73
     1
 90
        2
 40
0.6
 41
30.0
 62
     5
 63
     7
421
 16777215
 74
     1
 91
        0
 64
     7
 65
   257
 75
     1
175
     1
 42
1.0
 92
        0
 66
   257
 43
1.0
 76
     1
 77
     6
 78
     2
 67
     7
 79
     5
170
     0
171
     0
290
     0
174
     0
 93
       13
 44
0.0
173
     0
291
     1
 45
0.0
  0
VISUALSTYLE
  5
FA
102
{ACAD_REACTORS
330
F7
102
}
330
F7
100
AcDbVisualStyle
  2
Gouraud
 70
     2
 71
     2
 72
     2
 73
     1
 90
        2
 40
0.6
 41
30.0
 62
     5
 63
     7
421
 16777215
 74
     0
 91
        0
 64
     7
 65
   257
 75
     1
175
     1
 42
1.0
 92
        0
 66
     7
 43
1.0
 76
     1
 77
     6
 78
     2
 67
     7
 79
     5
170
     0
171
     0
290
     0
174
     0
 93
       13
 44
0.0
173
     0
291
     1
 45
0.0
  0
VISUALSTYLE
  5
FB
102
{ACAD_REACTORS
330
F7
102
}
330
F7
100
AcDbVisualStyle
  2
GouraudWithEdges
 70
     3
 71
     2
 72
     2
 73
     1
 90
        2
 40
0.6
 41
30.0
 62
     5
 63
     7
421
 16777215
 74
     1
 91
        0
 64
     7
 65
   257
 75
     1
175
     1
 42
1.0
 92
        0
 66
   257
 43
1.0
 76
     1
 77
     6
 78
     2
 67
     7
 79
     5
170
     0
171
     0
290
     0
174
     0
 93
       13
 44
0.0
173
     0
291
     1
 45
0.0
  0
VISUALSTYLE
  5
FE
102
{ACAD_REACTORS
330
F7
102
}
330
F7
100
AcDbVisualStyle
  2
Hidden
 70
     6
 71
     1
 72
     2
 73
     2
 90
        0
 40
0.6
 41
30.0
 62
     5
 63
     7
421
 16777215
 74
     2
 91
        2
 64
     7
 65
   257
 75
     2
175
     1
 42
40.0
 92
        0
 66
   257
 43
1.0
 76
     1
 77
     6
 78
     2
 67
     7
 79
     3
170
     0
171
     0
290
     0
174
     0
 93
        1
 44
0.0
173
     0
291
     0
 45
0.0
  0
VISUALSTYLE
  5
108
102
{ACAD_REACTORS
330
F7
102
}
330
F7
100
AcDbVisualStyle
  2
JitterOff
 70
    20
 71
     2
 72
     2
 73
     0
 90
        0
 40
0.6
 41
30.0
 62
     5
 63
     7
421
 16777215
 74
     1
 91
        4
 64
     7
 65
   257
 75
     1
175
     1
 42
1.0
 92
       10
 66
     7
 43
1.0
 76
     1
 77
     6
 78
     2
 67
     7
 79
     5
170
     0
171
     0
290
     0
174
     0
 93
        1
 44
0.0
173
     0
291
     1
 45
0.0
  0
VISUALSTYLE
  5
105
102
{ACAD_REACTORS
330
F7
102
}
330
F7
100
AcDbVisualStyle
  2
Linepattern
 70
    14
 71
     2
 72
     2
 73
     0
 90
        0
 40
0.6
 41
30.0
 62
     5
 63
     7
421
 16777215
 74
     1
 91
        4
 64
     7
 65
   257
 75
     7
175
     7
 42
1.0
 92
        8
 66
     7
 43
1.0
 76
     1
 77
     6
 78
     2
 67
     7
 79
     5
170
     0
171
     0
290
     0
174
     0
 93
        1
 44
0.0
173
     0
291
     1
 45
0.0
  0
VISUALSTYLE
  5
109
102
{ACAD_REACTORS
330
F7
102
}
330
F7
100
AcDbVisualStyle
  2
OverhangOff
 70
    21
 71
     2
 72
     2
 73
     0
 90
        0
 40
0.6
 41
30.0
 62
     5
 63
     7
421
 16777215
 74
     1
 91
        4
 64
     7
 65
   257
 75
     1
175
     1
 42
1.0
 92
        9
 66
     7
 43
1.0
 76
     1
 77
     6
 78
     2
 67
     7
 79
     5
170
     0
171
     0
290
     0
174
     0
 93
        1
 44
0.0
173
     0
291
     1
 45
0.0
  0
VISUALSTYLE
  5
100
102
{ACAD_REACTORS
330
F7
102
}
330
F7
100
AcDbVisualStyle
  2
Realistic
 70
     8
 71
     2
 72
     3
 73
     0
 90
        2
 40
0.6
 41
30.0
 62
     5
 63
     7
421
 16777215
 74
     0
 91
        0
 64
     7
 65
   257
 75
     1
175
     1
 42
1.0
 92
        8
 66
   257
 43
1.0
 76
     1
 77
     6
 78
     2
 67
     7
 79
     3
170
     0
171
     0
290
     0
174
     0
 93
       13
 44
0.0
173
     0
291
     0
 45
0.0
  0
VISUALSTYLE
  5
10F
102
{ACAD_REACTORS
330
F7
102
}
330
F7
100
AcDbVisualStyle
  2
Shaded
 70
    27
 71
     2
 72
     2
 73
     1
 90
        2
 40
0.6
 41
30.0
 62
     5
 63
     7
421
 16777215
 74
     0
 91
        4
 64
     7
 65
   257
 75
     1
175
     1
 42
1.0
 92
        8
 66
   257
 43
1.0
 76
     1
 77
     6
 78
     2
 67
     8
425
  7895160
 79
     3
170
     0
171
     0
290
     0
174
     0
 93
        5
 44
0.0
173
     0
291
     0
 45
0.0
  0
VISUALSTYLE
  5
10E
102
{ACAD_REACTORS
330
F7
102
}
330
F7
100
AcDbVisualStyle
  2
Shaded with edges
 70
    26
 71
     2
 72
     2
 73
     1
 90
        2
 40
0.6
 41
30.0
 62
     5
 63
     7
421
 16777215
 74
     1
 91
       10
 64
     7
 65
   257
 75
     2
175
     1
 42
1.0
 92
        8
 66
   257
 43
1.0
 76
     1
 77
     6
 78
     2
 67
     7
 79
     3
170
     0
171
     0
290
     0
174
     0
 93
        5
 44
0.0
173
     0
291
     0
 45
0.0
  0
VISUALSTYLE
  5
10B
102
{ACAD_REACTORS
330
F7
102
}
330
F7
100
AcDbVisualStyle
  2
Shades of Gray
 70
    23
 71
     2
 72
     2
 73
     3
 90
        0
 40
0.6
 41
30.0
 62
     5
 63
     7
421
 16777215
 74
     2
 91
        2
 64
     7
 65
     7
 75
     1
175
     1
 42
40.0
 92
        8
 66
     7
 43
1.0
 76
     1
 77
     6
 78
     2
 67
     7
 79
     3
170
     0
171
     0
290
     0
174
     0
 93
        1
 44
0.0
173
     0
291
     0
 45
0.0
  0
VISUALSTYLE
  5
10C
102
{ACAD_REACTORS
330
F7
102
}
330
F7
100
AcDbVisualStyle
  2
Sketchy
 70
    24
 71
     1
 72
     2
 73
     2
 90
        0
 40
0.6
 41
30.0
 62
     5
 63
     7
421
 16777215
 74
     2
 91
        2
 64
     7
 65
     7
 75
     1
175
     1
 42
40.0
 92
       11
 66
     7
 43
1.0
 76
     1
 77
     6
 78
     2
 67
     7
 79
     6
170
     0
171
     0
290
     0
174
     0
 93
        1
 44
0.0
173
     0
291
     0
 45
0.0
  0
VISUALSTYLE
  5
104
102
{ACAD_REACTORS
330
F7
102
}
330
F7
100
AcDbVisualStyle
  2
Thicken
 70
    13
 71
     2
 72
     2
 73
     0
 90
        0
 40
0.6
 41
30.0
 62
     5
 63
     7
421
 16777215
 74
     1
 91
        4
 64
     7
 65
   257
 75
     1
175
     1
 42
1.0
 92
       12
 66
     7
 43
1.0
 76
     1
 77
     6
 78
     2
 67
     7
 79
     5
170
     0
171
     0
290
     0
174
     0
 93
        1
 44
0.0
173
     0
291
     1
 45
0.0
  0
VISUALSTYLE
  5
FD
102
{ACAD_REACTORS
330
F7
102
}
330
F7
100
AcDbVisualStyle
  2
Wireframe
 70
     5
 71
     0
 72
     2
 73
     0
 90
        0
 40
0.6
 41
30.0
 62
     5
 63
     7
421
 16777215
 74
     1
 91
        4
 64
     7
 65
   257
 75
     1
175
     1
 42
1.0
 92
        0
 66
   257
 43
1.0
 76
     1
 77
     6
 78
     2
 67
     7
 79
     3
170
     0
171
     0
290
     0
174
     0
 93
        1
 44
0.0
173
     0
291
     0
 45
0.0
  0
VISUALSTYLE
  5
10D
102
{ACAD_REACTORS
330
F7
102
}
330
F7
100
AcDbVisualStyle
  2
X-Ray
 70
    25
 71
     2
 72
     2
 73
     1
 90
        1
 40
0.5
 41
30.0
 62
     5
 63
     7
421
 16777215
 74
     1
 91
        0
 64
     7
 65
   257
 75
     1
175
     1
 42
1.0
 92
        8
 66
     7
 43
1.0
 76
     1
 77
     6
 78
     2
 67
     7
 79
     3
170
     0
171
     0
290
     0
174
     0
 93
       13
 44
0.0
173
     0
291
     0
 45
0.0
  0
DICTIONARYVAR
  5
14D
102
{ACAD_REACTORS
330
14C
102
}
330
14C
100
DictionaryVariables
280
     0
  1
1:1
  0
DICTIONARYVAR
  5
15B
102
{ACAD_REACTORS
330
14C
102
}
330
14C
100
DictionaryVariables
280
     0
  1
Standard
  0
DICTIONARYVAR
  5
152
102
{ACAD_REACTORS
330
14C
102
}
330
14C
100
DictionaryVariables
280
     0
  1
Standard
  0
DICTIONARYVAR
  5
14E
102
{ACAD_REACTORS
330
14C
102
}
330
14C
100
DictionaryVariables
280
     0
  1
0
  0
DICTIONARYVAR
  5
153
102
{ACAD_REACTORS
330
14C
102
}
330
14C
100
DictionaryVariables
280
     0
  1
0
  0
DICTIONARYVAR
  5
15C
102
{ACAD_REACTORS
330
14C
102
}
330
14C
100
DictionaryVariables
280
     0
  1
0
  0
DICTIONARY
  5
161
330
115
100
AcDbDictionary
280
     1
281
     1
  3
ACAD_ROUNDTRIP_2008_TABLESTYLE_CELLSTYLEMAP
360
162
  0
CELLSTYLEMAP
  5
162
102
{ACAD_REACTORS
330
161
102
}
330
161
100
AcDbCellStyleMap
 90
        3
300
CELLSTYLE
  1
TABLEFORMAT_BEGIN
 90
        5
170
     1
 91
        0
 92
        0
 62
   257
 93
        1
300
CONTENTFORMAT
  1
CONTENTFORMAT_BEGIN
 90
        0
 91
        0
 92
        4
 93
        0
300

 40
0.0
140
1.0
 94
        5
 62
     0
340
11
144
0.25
309
CONTENTFORMAT_END
171
     1
301
MARGIN
  1
CELLMARGIN_BEGIN
 40
0.06
 40
0.06
 40
0.06
 40
0.06
 40
0.06
 40
0.06
309
CELLMARGIN_END
 94
        6
 95
        1
302
GRIDFORMAT
  1
GRIDFORMAT_BEGIN
 90
        0
 91
        1
 62
     0
 92
       -2
340
14
 93
        0
 40
0.045
309
GRIDFORMAT_END
 95
        2
302
GRIDFORMAT
  1
GRIDFORMAT_BEGIN
 90
        0
 91
        1
 62
     0
 92
       -2
340
14
 93
        0
 40
0.045
309
GRIDFORMAT_END
 95
        4
302
GRIDFORMAT
  1
GRIDFORMAT_BEGIN
 90
        0
 91
        1
 62
     0
 92
       -2
340
14
 93
        0
 40
0.045
309
GRIDFORMAT_END
 95
        8
302
GRIDFORMAT
  1
GRIDFORMAT_BEGIN
 90
        0
 91
        1
 62
     0
 92
       -2
340
14
 93
        0
 40
0.045
309
GRIDFORMAT_END
 95
       16
302
GRIDFORMAT
  1
GRIDFORMAT_BEGIN
 90
        0
 91
        1
 62
     0
 92
       -2
340
14
 93
        0
 40
0.045
309
GRIDFORMAT_END
 95
       32
302
GRIDFORMAT
  1
GRIDFORMAT_BEGIN
 90
        0
 91
        1
 62
     0
 92
       -2
340
14
 93
        0
 40
0.045
309
GRIDFORMAT_END
309
TABLEFORMAT_END
  1
CELLSTYLE_BEGIN
 90
        1
 91
        1
300
_TITLE
309
CELLSTYLE_END
300
CELLSTYLE
  1
TABLEFORMAT_BEGIN
 90
        5
170
     1
 91
        0
 92
        0
 62
   257
 93
        1
300
CONTENTFORMAT
  1
CONTENTFORMAT_BEGIN
 90
        0
 91
        0
 92
        4
 93
        0
300

 40
0.0
140
1.0
 94
        5
 62
     0
340
11
144
0.18
309
CONTENTFORMAT_END
171
     1
301
MARGIN
  1
CELLMARGIN_BEGIN
 40
0.06
 40
0.06
 40
0.06
 40
0.06
 40
0.06
 40
0.06
309
CELLMARGIN_END
 94
        6
 95
        1
302
GRIDFORMAT
  1
GRIDFORMAT_BEGIN
 90
        0
 91
        1
 62
     0
 92
       -2
340
14
 93
        0
 40
0.045
309
GRIDFORMAT_END
 95
        2
302
GRIDFORMAT
  1
GRIDFORMAT_BEGIN
 90
        0
 91
        1
 62
     0
 92
       -2
340
14
 93
        0
 40
0.045
309
GRIDFORMAT_END
 95
        4
302
GRIDFORMAT
  1
GRIDFORMAT_BEGIN
 90
        0
 91
        1
 62
     0
 92
       -2
340
14
 93
        0
 40
0.045
309
GRIDFORMAT_END
 95
        8
302
GRIDFORMAT
  1
GRIDFORMAT_BEGIN
 90
        0
 91
        1
 62
     0
 92
       -2
340
14
 93
        0
 40
0.045
309
GRIDFORMAT_END
 95
       16
302
GRIDFORMAT
  1
GRIDFORMAT_BEGIN
 90
        0
 91
        1
 62
     0
 92
       -2
340
14
 93
        0
 40
0.045
309
GRIDFORMAT_END
 95
       32
302
GRIDFORMAT
  1
GRIDFORMAT_BEGIN
 90
        0
 91
        1
 62
     0
 92
       -2
340
14
 93
        0
 40
0.045
309
GRIDFORMAT_END
309
TABLEFORMAT_END
  1
CELLSTYLE_BEGIN
 90
        2
 91
        1
300
_HEADER
309
CELLSTYLE_END
300
CELLSTYLE
  1
TABLEFORMAT_BEGIN
 90
        5
170
     1
 91
        0
 92
        0
 62
   257
 93
        1
300
CONTENTFORMAT
  1
CONTENTFORMAT_BEGIN
 90
        0
 91
        0
 92
        4
 93
        0
300

 40
0.0
140
1.0
 94
        2
 62
     0
340
11
144
0.18
309
CONTENTFORMAT_END
171
     1
301
MARGIN
  1
CELLMARGIN_BEGIN
 40
0.06
 40
0.06
 40
0.06
 40
0.06
 40
0.06
 40
0.06
309
CELLMARGIN_END
 94
        6
 95
        1
302
GRIDFORMAT
  1
GRIDFORMAT_BEGIN
 90
        0
 91
        1
 62
     0
 92
       -2
340
14
 93
        0
 40
0.045
309
GRIDFORMAT_END
 95
        2
302
GRIDFORMAT
  1
GRIDFORMAT_BEGIN
 90
        0
 91
        1
 62
     0
 92
       -2
340
14
 93
        0
 40
0.045
309
GRIDFORMAT_END
 95
        4
302
GRIDFORMAT
  1
GRIDFORMAT_BEGIN
 90
        0
 91
        1
 62
     0
 92
       -2
340
14
 93
        0
 40
0.045
309
GRIDFORMAT_END
 95
        8
302
GRIDFORMAT
  1
GRIDFORMAT_BEGIN
 90
        0
 91
        1
 62
     0
 92
       -2
340
14
 93
        0
 40
0.045
309
GRIDFORMAT_END
 95
       16
302
GRIDFORMAT
  1
GRIDFORMAT_BEGIN
 90
        0
 91
        1
 62
     0
 92
       -2
340
14
 93
        0
 40
0.045
309
GRIDFORMAT_END
 95
       32
302
GRIDFORMAT
  1
GRIDFORMAT_BEGIN
 90
        0
 91
        1
 62
     0
 92
       -2
340
14
 93
        0
 40
0.045
309
GRIDFORMAT_END
309
TABLEFORMAT_END
  1
CELLSTYLE_BEGIN
 90
        3
 91
        2
300
_DATA
309
CELLSTYLE_END
  0
ENDSEC
  0
EOF
