  0
SECTION
  2
HEADER
  9
$ACADVER
  1
AC1021
  9
$ACADMAINTVER
 70
    25
  9
$DWGCODEPAGE
  3
ANSI_932
  9
$LASTSAVEDBY
  1
Shimosaki
  9
$INSBASE
 10
0.0
 20
0.0
 30
0.0
  9
$EXTMIN
 10
19.99999999965712
 20
27.29576779829506
 30
0.0
  9
$EXTMAX
 10
994.999999999898
 20
1443.973030389223
 30
0.0
  9
$LIMMIN
 10
0.0
 20
0.0
  9
$LIMMAX
 10
1014.999999999657
 20
1463.973030389223
  9
$ORTHOMODE
 70
     0
  9
$REGENMODE
 70
     1
  9
$FILLMODE
 70
     1
  9
$QTEXTMODE
 70
     0
  9
$MIRRTEXT
 70
     1
  9
$LTSCALE
 40
50.8
  9
$ATTMODE
 70
     1
  9
$TEXTSIZE
 40
2.5
  9
$TRACEWID
 40
1.0
  9
$TEXTSTYLE
  7
ＭＳ ゴシック
  9
$CLAYER
  8
MODEL
  9
$CELTYPE
  6
Continuous
  9
$CECOLOR
 62
   256
  9
$CELTSCALE
 40
1.0
  9
$DISPSILH
 70
     0
  9
$DIMSCALE
 40
1.0
  9
$DIMASZ
 40
6.0
  9
$DIMEXO
 40
25.0
  9
$DIMDLI
 40
0.9999999999999999
  9
$DIMRND
 40
0.0
  9
$DIMDLE
 40
0.0
  9
$DIMEXE
 40
0.0
  9
$DIMTP
 40
0.0
  9
$DIMTM
 40
0.0
  9
$DIMTXT
 40
12.0
  9
$DIMCEN
 40
0.0
  9
$DIMTSZ
 40
0.0
  9
$DIMTOL
 70
     0
  9
$DIMLIM
 70
     0
  9
$DIMTIH
 70
     0
  9
$DIMTOH
 70
     0
  9
$DIMSE1
 70
     0
  9
$DIMSE2
 70
     0
  9
$DIMTAD
 70
     1
  9
$DIMZIN
 70
    11
  9
$DIMBLK
  1
DOT
  9
$DIMASO
 70
     1
  9
$DIMSHO
 70
     1
  9
$DIMPOST
  1
<>
  9
$DIMAPOST
  1
[]
  9
$DIMALT
 70
     0
  9
$DIMALTD
 70
     1
  9
$DIMALTF
 40
1.0
  9
$DIMLFAC
 40
1.0
  9
$DIMTOFL
 70
     0
  9
$DIMTVP
 40
0.0
  9
$DIMTIX
 70
     1
  9
$DIMSOXD
 70
     0
  9
$DIMSAH
 70
     0
  9
$DIMBLK1
  1

  9
$DIMBLK2
  1

  9
$DIMSTYLE
  2
tfrom線あり
  9
$DIMCLRD
 70
     0
  9
$DIMCLRE
 70
     0
  9
$DIMCLRT
 70
     0
  9
$DIMTFAC
 40
1.0
  9
$DIMGAP
 40
10.0
  9
$DIMJUST
 70
     0
  9
$DIMSD1
 70
     0
  9
$DIMSD2
 70
     0
  9
$DIMTOLJ
 70
     1
  9
$DIMTZIN
 70
    11
  9
$DIMALTZ
 70
    11
  9
$DIMALTTZ
 70
    11
  9
$DIMUPT
 70
     0
  9
$DIMDEC
 70
     0
  9
$DIMTDEC
 70
     1
  9
$DIMALTU
 70
     2
  9
$DIMALTTD
 70
     2
  9
$DIMTXSTY
  7
ＭＳ ゴシック
  9
$DIMAUNIT
 70
     0
  9
$DIMADEC
 70
     2
  9
$DIMALTRND
 40
0.0
  9
$DIMAZIN
 70
     0
  9
$DIMDSEP
 70
    46
  9
$DIMATFIT
 70
     0
  9
$DIMFRAC
 70
     2
  9
$DIMLDRBLK
  1
DOT
  9
$DIMLUNIT
 70
     2
  9
$DIMLWD
 70
    -2
  9
$DIMLWE
 70
    -2
  9
$DIMTMOVE
 70
     0
  9
$DIMFXL
 40
1.0
  9
$DIMFXLON
 70
     0
  9
$DIMJOGANG
 40
0.7853981633974483
  9
$DIMTFILL
 70
     0
  9
$DIMTFILLCLR
 70
     0
  9
$DIMARCSYM
 70
     0
  9
$DIMLTYPE
  6

  9
$DIMLTEX1
  6

  9
$DIMLTEX2
  6

  9
$LUNITS
 70
     2
  9
$LUPREC
 70
     0
  9
$SKETCHINC
 40
0.1
  9
$FILLETRAD
 40
0.0
  9
$AUNITS
 70
     0
  9
$AUPREC
 70
     0
  9
$MENU
  1
acad
  9
$ELEVATION
 40
0.0
  9
$PELEVATION
 40
0.0
  9
$THICKNESS
 40
0.0
  9
$LIMCHECK
 70
     0
  9
$CHAMFERA
 40
0.0
  9
$CHAMFERB
 40
0.0
  9
$CHAMFERC
 40
0.0
  9
$CHAMFERD
 40
0.0
  9
$SKPOLY
 70
     0
  9
$TDCREATE
 40
2447893.375
  9
$TDUCREATE
 40
0.0
  9
$TDUPDATE
 40
2457998.468124224
  9
$TDUUPDATE
 40
2457998.093124224
  9
$TDINDWG
 40
0.0735535301
  9
$TDUSRTIMER
 40
2457998.092831053
  9
$USRTIMER
 70
     1
  9
$ANGBASE
 50
0.0
  9
$ANGDIR
 70
     0
  9
$PDMODE
 70
     1
  9
$PDSIZE
 40
-2.0
  9
$PLINEWID
 40
0.0
  9
$SPLFRAME
 70
     0
  9
$SPLINETYPE
 70
     6
  9
$SPLINESEGS
 70
     8
  9
$HANDSEED
  5
3023
  9
$SURFTAB1
 70
     6
  9
$SURFTAB2
 70
     6
  9
$SURFTYPE
 70
     6
  9
$SURFU
 70
     6
  9
$SURFV
 70
     6
  9
$UCSBASE
  2

  9
$UCSNAME
  2

  9
$UCSORG
 10
0.0
 20
0.0
 30
0.0
  9
$UCSXDIR
 10
1.0
 20
0.0
 30
0.0
  9
$UCSYDIR
 10
0.0
 20
1.0
 30
0.0
  9
$UCSORTHOREF
  2

  9
$UCSORTHOVIEW
 70
     0
  9
$UCSORGTOP
 10
0.0
 20
0.0
 30
0.0
  9
$UCSORGBOTTOM
 10
0.0
 20
0.0
 30
0.0
  9
$UCSORGLEFT
 10
0.0
 20
0.0
 30
0.0
  9
$UCSORGRIGHT
 10
0.0
 20
0.0
 30
0.0
  9
$UCSORGFRONT
 10
0.0
 20
0.0
 30
0.0
  9
$UCSORGBACK
 10
0.0
 20
0.0
 30
0.0
  9
$PUCSBASE
  2

  9
$PUCSNAME
  2

  9
$PUCSORG
 10
0.0
 20
0.0
 30
0.0
  9
$PUCSXDIR
 10
1.0
 20
0.0
 30
0.0
  9
$PUCSYDIR
 10
0.0
 20
1.0
 30
0.0
  9
$PUCSORTHOREF
  2

  9
$PUCSORTHOVIEW
 70
     0
  9
$PUCSORGTOP
 10
0.0
 20
0.0
 30
0.0
  9
$PUCSORGBOTTOM
 10
0.0
 20
0.0
 30
0.0
  9
$PUCSORGLEFT
 10
0.0
 20
0.0
 30
0.0
  9
$PUCSORGRIGHT
 10
0.0
 20
0.0
 30
0.0
  9
$PUCSORGFRONT
 10
0.0
 20
0.0
 30
0.0
  9
$PUCSORGBACK
 10
0.0
 20
0.0
 30
0.0
  9
$USERI1
 70
     0
  9
$USERI2
 70
     0
  9
$USERI3
 70
     0
  9
$USERI4
 70
     0
  9
$USERI5
 70
     0
  9
$USERR1
 40
0.0
  9
$USERR2
 40
0.0
  9
$USERR3
 40
0.0
  9
$USERR4
 40
0.0
  9
$USERR5
 40
0.0
  9
$WORLDVIEW
 70
     1
  9
$SHADEDGE
 70
     3
  9
$SHADEDIF
 70
    70
  9
$TILEMODE
 70
     1
  9
$MAXACTVP
 70
    64
  9
$PINSBASE
 10
0.0
 20
0.0
 30
0.0
  9
$PLIMCHECK
 70
     0
  9
$PEXTMIN
 10
0.0
 20
0.0
 30
0.0
  9
$PEXTMAX
 10
0.0
 20
0.0
 30
0.0
  9
$PLIMMIN
 10
-7.5
 20
-20.0
  9
$PLIMMAX
 10
412.5
 20
277.0
  9
$UNITMODE
 70
     0
  9
$VISRETAIN
 70
     0
  9
$PLINEGEN
 70
     1
  9
$PSLTSCALE
 70
     0
  9
$TREEDEPTH
 70
  3020
  9
$CMLSTYLE
  2
Standard
  9
$CMLJUST
 70
     0
  9
$CMLSCALE
 40
1.0
  9
$PROXYGRAPHICS
 70
     0
  9
$MEASUREMENT
 70
     1
  9
$CELWEIGHT
370
     0
  9
$ENDCAPS
280
     0
  9
$JOINSTYLE
280
     0
  9
$LWDISPLAY
290
     1
  9
$INSUNITS
 70
     4
  9
$HYPERLINKBASE
  1

  9
$STYLESHEET
  1

  9
$XEDIT
290
     1
  9
$CEPSNTYPE
380
     0
  9
$PSTYLEMODE
290
     1
  9
$FINGERPRINTGUID
  2

  9
$VERSIONGUID
  2

  9
$EXTNAMES
290
     1
  9
$PSVPSCALE
 40
0.0
  9
$OLESTARTUP
290
     0
  9
$SORTENTS
280
   127
  9
$INDEXCTL
280
     0
  9
$HIDETEXT
280
     1
  9
$XCLIPFRAME
290
     0
  9
$HALOGAP
280
     0
  9
$OBSCOLOR
 70
   257
  9
$OBSLTYPE
280
     0
  9
$INTERSECTIONDISPLAY
280
     0
  9
$INTERSECTIONCOLOR
 70
   257
  9
$DIMASSOC
280
     2
  9
$PROJECTNAME
  1

  9
$CAMERADISPLAY
290
     0
  9
$LENSLENGTH
 40
50.0
  9
$CAMERAHEIGHT
 40
0.0
  9
$STEPSPERSEC
 40
2.0
  9
$STEPSIZE
 40
6.0
  9
$3DDWFPREC
 40
2.0
  9
$PSOLWIDTH
 40
0.25
  9
$PSOLHEIGHT
 40
4.0
  9
$LOFTANG1
 40
1.570796326794897
  9
$LOFTANG2
 40
1.570796326794897
  9
$LOFTMAG1
 40
0.0
  9
$LOFTMAG2
 40
0.0
  9
$LOFTPARAM
 70
     7
  9
$LOFTNORMALS
280
     1
  9
$LATITUDE
 40
37.795
  9
$LONGITUDE
 40
-122.394
  9
$NORTHDIRECTION
 40
0.0
  9
$TIMEZONE
 70
 -8000
  9
$LIGHTGLYPHDISPLAY
280
     1
  9
$TILEMODELIGHTSYNCH
280
     1
  9
$SOLIDHIST
280
     1
  9
$SHOWHIST
280
     1
  9
$DWFFRAME
280
     2
  9
$DGNFRAME
280
     2
  9
$REALWORLDSCALE
290
     1
  9
$INTERFERECOLOR
 62
   256
  9
$CSHADOW
280
     0
  9
$SHADOWPLANELOCATION
 40
0.0
  0
ENDSEC
  0
SECTION
  2
CLASSES
  0
CLASS
  1
LWPOLYLINE
  2
AcDbPolyline
  3
ObjectDBX Classes
 90
        0
 91
        1
280
     0
281
     1
  0
CLASS
  1
IMAGE
  2
AcDbRasterImage
  3
ISM
 90
      127
 91
        5
280
     0
281
     1
  0
CLASS
  1
OLE2FRAME
  2
AcDbOle2Frame
  3
ObjectDBX Classes
 90
        0
 91
        1
280
     0
281
     1
  0
CLASS
  1
HATCH
  2
AcDbHatch
  3
ObjectDBX Classes
 90
        0
 91
        1
280
     0
281
     1
  0
CLASS
  1
DICTIONARYVAR
  2
AcDbDictionaryVar
  3
ObjectDBX Classes
 90
        0
 91
        4
280
     0
281
     0
  0
CLASS
  1
RASTERVARIABLES
  2
AcDbRasterVariables
  3
ISM
 90
        0
 91
        4
280
     0
281
     0
  0
CLASS
  1
IMAGEDEF
  2
AcDbRasterImageDef
  3
ISM
 90
        0
 91
        4
280
     0
281
     0
  0
CLASS
  1
IMAGEDEF_REACTOR
  2
AcDbRasterImageDefReactor
  3
ISM
 90
        1
 91
        4
280
     0
281
     0
  0
CLASS
  1
IDBUFFER
  2
AcDbIdBuffer
  3
ObjectDBX Classes
 90
        0
 91
        4
280
     0
281
     0
  0
CLASS
  1
SPATIAL_FILTER
  2
AcDbSpatialFilter
  3
ObjectDBX Classes
 90
        0
 91
        4
280
     0
281
     0
  0
CLASS
  1
XRECORD
  2
AcDbXrecord
  3
ObjectDBX Classes
 90
        0
 91
        1
280
     0
281
     0
  0
CLASS
  1
SORTENTSTABLE
  2
AcDbSortentsTable
  3
ObjectDBX Classes
 90
        0
 91
        4
280
     0
281
     0
  0
CLASS
  1
LAYER_INDEX
  2
AcDbLayerIndex
  3
ObjectDBX Classes
 90
        0
 91
        4
280
     0
281
     0
  0
CLASS
  1
SPATIAL_INDEX
  2
AcDbSpatialIndex
  3
AutoCAD 2000
 90
        0
 91
        4
280
     0
281
     0
  0
CLASS
  1
OBJECT_PTR
  2
CAseDLPNTableRecord
  3
ASE-LPNTableRecord
 90
        1
 91
        4
280
     0
281
     0
  0
CLASS
  1
LAYOUT
  2
AcDbLayout
  3
ObjectDBX Classes
 90
        0
 91
        1
280
     0
281
     0
  0
CLASS
  1
PLOTSETTINGS
  2
AcDbPlotSettings
  3
ObjectDBX Classes
 90
        0
 91
        4
280
     0
281
     0
  0
CLASS
  1
ACDBDICTIONARYWDFLT
  2
AcDbDictionaryWithDefault
  3
ObjectDBX Classes
 90
        0
 91
        4
280
     0
281
     0
  0
CLASS
  1
ACDBPLACEHOLDER
  2
AcDbPlaceHolder
  3
ObjectDBX Classes
 90
        0
 91
        1
280
     0
281
     0
  0
CLASS
  1
SCALE
  2
AcDbScale
  3
ObjectDBX Classes
 90
     1153
 91
        4
280
     0
281
     0
  0
CLASS
  1
MATERIAL
  2
AcDbMaterial
  3
ObjectDBX Classes
 90
     1153
 91
        4
280
     0
281
     0
  0
CLASS
  1
VISUALSTYLE
  2
AcDbVisualStyle
  3
ObjectDBX Classes
 90
     4095
 91
        4
280
     0
281
     0
  0
CLASS
  1
TABLESTYLE
  2
AcDbTableStyle
  3
ObjectDBX Classes
 90
     4095
 91
        4
280
     0
281
     0
  0
CLASS
  1
DIMASSOC
  2
AcDbDimAssoc
  3
"AcDbDimAssoc|Product Desc:     AcDim ARX App For Dimension|Company:          Autodesk, Inc.|WEB Address:      www.autodesk.com"
 90
        0
 91
        4
280
     0
281
     0
  0
CLASS
  1
CELLSTYLEMAP
  2
AcDbCellStyleMap
  3
ObjectDBX Classes
 90
     1152
 91
        4
280
     0
281
     0
  0
CLASS
  1
SUN
  2
AcDbSun
  3
SCENEOE
 90
     1153
 91
        4
280
     0
281
     0
  0
CLASS
  1
MLEADERSTYLE
  2
AcDbMLeaderStyle
  3
ACDB_MLEADERSTYLE_CLASS
 90
     4095
 91
        4
280
     0
281
     0
  0
ENDSEC
  0
SECTION
  2
TABLES
  0
TABLE
  2
VPORT
  5
7
330
0
100
AcDbSymbolTable
 70
     1
  0
VPORT
  5
15
330
7
100
AcDbSymbolTableRecord
100
AcDbViewportTableRecord
  2
*ACTIVE
 70
     0
 10
0.0
 20
0.0
 11
1.0
 21
1.0
 12
950.8618461160762
 22
78.34804025633039
 13
0.0
 23
0.0
 14
1.0
 24
1.0
 15
0.0
 25
0.0
 16
0.0
 26
0.0
 36
1.0
 17
0.0
 27
0.0
 37
0.0
 40
421.0303242561266
 41
2.396092362344583
 42
50.0
 43
0.0
 44
0.0
 50
0.0
 51
0.0
 71
    16
 72
  2000
 73
     1
 74
     1
 75
     0
 76
     0
 77
     0
 78
     0
281
     0
 65
     0
110
0.0
120
0.0
130
0.0
111
1.0
121
0.0
131
0.0
112
0.0
122
1.0
132
0.0
 79
     0
146
0.0
348
26C
 60
     3
 61
     5
292
     1
282
     1
141
0.0
142
0.0
 63
   256
361
215B
  0
ENDTAB
  0
TABLE
  2
LTYPE
  5
4
330
0
100
AcDbSymbolTable
 70
     1
  0
LTYPE
  5
11
330
4
100
AcDbSymbolTableRecord
100
AcDbLinetypeTableRecord
  2
ByBlock
 70
     0
  3

 72
    65
 73
     0
 40
0.0
  0
LTYPE
  5
12
330
4
100
AcDbSymbolTableRecord
100
AcDbLinetypeTableRecord
  2
ByLayer
 70
     0
  3

 72
    65
 73
     0
 40
0.0
  0
LTYPE
  5
13
330
4
100
AcDbSymbolTableRecord
100
AcDbLinetypeTableRecord
  2
Continuous
 70
     0
  3
Solid line
 72
    65
 73
     0
 40
0.0
  0
ENDTAB
  0
TABLE
  2
LAYER
  5
2
102
{ACAD_XDICTIONARY
360
2E1
102
}
330
0
100
AcDbSymbolTable
 70
     5
  0
LAYER
  5
14
330
2
100
AcDbSymbolTableRecord
100
AcDbLayerTableRecord
  2
0
 70
     0
 62
     7
  6
Continuous
370
    -3
390
1D
347
266
  0
LAYER
  5
4B
330
2
100
AcDbSymbolTableRecord
100
AcDbLayerTableRecord
  2
template
 70
     0
 62
     7
  6
Continuous
370
    -3
390
1D
347
266
  0
LAYER
  5
4D
330
2
100
AcDbSymbolTableRecord
100
AcDbLayerTableRecord
  2
MODEL
 70
     0
 62
     7
  6
Continuous
370
    -3
390
1D
347
266
  0
LAYER
  5
667
330
2
100
AcDbSymbolTableRecord
100
AcDbLayerTableRecord
  2
レイヤー 1
 70
     0
 62
     7
  6
Continuous
370
    -3
390
1D
347
266
  0
LAYER
  5
88F
330
2
100
AcDbSymbolTableRecord
100
AcDbLayerTableRecord
  2
1_10
 70
     0
 62
     7
  6
Continuous
370
    -3
390
1D
347
266
  0
ENDTAB
  0
TABLE
  2
STYLE
  5
3
330
0
100
AcDbSymbolTable
 70
     2
  0
STYLE
  5
17
330
3
100
AcDbSymbolTableRecord
100
AcDbTextStyleTableRecord
  2
Standard
 70
     0
 40
0.0
 41
1.0
 50
0.0
 71
     0
 42
2.5
  3
txt
  4
BIGFONT.SHX
  0
STYLE
  5
39
330
3
100
AcDbSymbolTableRecord
100
AcDbTextStyleTableRecord
  2
ＭＳ ゴシック
 70
     0
 40
0.0
 41
1.0
 50
0.0
 71
     0
 42
2.5
  3
msgothic.ttc
  4
ＭＳ ゴシック
1001
ACAD
1000
ＭＳ ゴシック
1071
        0
  0
ENDTAB
  0
TABLE
  2
VIEW
  5
5
330
0
100
AcDbSymbolTable
 70
     0
  0
ENDTAB
  0
TABLE
  2
UCS
  5
6
330
0
100
AcDbSymbolTable
 70
     0
  0
ENDTAB
  0
TABLE
  2
APPID
  5
8
330
0
100
AcDbSymbolTable
 70
     3
  0
APPID
  5
16
330
8
100
AcDbSymbolTableRecord
100
AcDbRegAppTableRecord
  2
ACAD
 70
     0
  0
APPID
  5
7AC
330
8
100
AcDbSymbolTableRecord
100
AcDbRegAppTableRecord
  2
AcAecLayerStandard
 70
     0
  0
APPID
  5
3018
330
8
100
AcDbSymbolTableRecord
100
AcDbRegAppTableRecord
  2
ACAD_MLEADERVER
 70
     0
  0
ENDTAB
  0
TABLE
  2
DIMSTYLE
  5
9
330
0
100
AcDbSymbolTable
 70
     2
100
AcDbDimStyleTable
  0
DIMSTYLE
105
18
330
9
100
AcDbSymbolTableRecord
100
AcDbDimStyleTableRecord
  2
Standard
 70
     0
178
     0
340
17
  0
DIMSTYLE
105
57
330
9
100
AcDbSymbolTableRecord
100
AcDbDimStyleTableRecord
  2
tfrom線あり
 70
     0
  3
<>
  4
[]
 41
6.0
 42
25.0
 43
0.9999999999999999
 44
0.0
 73
     0
 74
     0
 77
     1
 78
    11
140
12.0
141
0.0
143
1.0
147
10.0
171
     1
174
     1
178
     0
179
     2
271
     0
272
     1
276
     2
284
    11
285
    11
286
    11
289
     0
340
39
341
4E
342
4E
  0
ENDTAB
  0
TABLE
  2
BLOCK_RECORD
  5
1
330
0
100
AcDbSymbolTable
 70
     6
  0
BLOCK_RECORD
  5
A
330
1
100
AcDbSymbolTableRecord
100
AcDbBlockTableRecord
  2
*MODEL_SPACE
340
20
 70
     0
280
     1
281
     0
  0
BLOCK_RECORD
  5
B
330
1
100
AcDbSymbolTableRecord
100
AcDbBlockTableRecord
  2
*PAPER_SPACE
340
21
 70
     0
280
     1
281
     0
  0
BLOCK_RECORD
  5
4E
330
1
100
AcDbSymbolTableRecord
100
AcDbBlockTableRecord
  2
_DOT
340
0
 70
     0
280
     1
281
     0
  0
BLOCK_RECORD
  5
68A
330
1
100
AcDbSymbolTableRecord
100
AcDbBlockTableRecord
  2
名称未設定-1
340
0
102
{BLKREFS
331
6B5
102
}
 70
     1
280
     1
281
     0
  0
BLOCK_RECORD
  5
68D
330
1
100
AcDbSymbolTableRecord
100
AcDbBlockTableRecord
  2
block 2
340
0
102
{BLKREFS
331
68C
102
}
 70
     0
280
     1
281
     0
  0
BLOCK_RECORD
  5
690
330
1
100
AcDbSymbolTableRecord
100
AcDbBlockTableRecord
  2
block 3
340
0
102
{BLKREFS
331
68F
102
}
 70
     0
280
     1
281
     0
  0
BLOCK_RECORD
  5
693
330
1
100
AcDbSymbolTableRecord
100
AcDbBlockTableRecord
  2
block 4
340
0
102
{BLKREFS
331
692
102
}
 70
     0
280
     1
281
     0
  0
BLOCK_RECORD
  5
6A2
330
1
100
AcDbSymbolTableRecord
100
AcDbBlockTableRecord
  2
block 5
340
0
102
{BLKREFS
331
6A1
102
}
 70
     0
280
     1
281
     0
  0
ENDTAB
  0
ENDSEC
  0
SECTION
  2
BLOCKS
  0
BLOCK
  5
D
330
A
100
AcDbEntity
  8
0
390
1D
100
AcDbBlockBegin
  2
*MODEL_SPACE
 70
     0
 10
0.0
 20
0.0
 30
0.0
  3
*MODEL_SPACE
  1
*MODEL_SPACE
  0
ENDBLK
  5
E
330
A
100
AcDbEntity
  8
0
390
1D
100
AcDbBlockEnd
  0
BLOCK
  5
F
330
B
100
AcDbEntity
 67
     1
  8
0
390
1D
100
AcDbBlockBegin
  2
*PAPER_SPACE
 70
     0
 10
0.0
 20
0.0
 30
0.0
  3
*PAPER_SPACE
  1
*PAPER_SPACE
  0
ENDBLK
  5
10
330
B
100
AcDbEntity
 67
     1
  8
0
390
1D
100
AcDbBlockEnd
  0
BLOCK
  5
5B7
330
4E
100
AcDbEntity
  8
0
390
1D
100
AcDbBlockBegin
  2
_DOT
 70
     0
 10
0.0
 20
0.0
 30
0.0
  3
_DOT
  1
_DOT
  0
POLYLINE
  5
5B9
330
4E
100
AcDbEntity
  8
0
  6
ByBlock
 62
     0
370
    -2
390
1D
100
AcDb2dPolyline
 66
     1
 10
0.0
 20
0.0
 30
0.0
 70
     1
 40
0.5
 41
0.5
  0
VERTEX
  5
5BA
330
5B9
100
AcDbEntity
  8
0
  6
ByBlock
 62
     0
370
    -2
390
1D
100
AcDbVertex
100
AcDb2dVertex
 10
-0.25
 20
0.0
 30
0.0
 42
1.0
  0
VERTEX
  5
5BB
330
5B9
100
AcDbEntity
  8
0
  6
ByBlock
 62
     0
370
    -2
390
1D
100
AcDbVertex
100
AcDb2dVertex
 10
0.25
 20
0.0
 30
0.0
 42
1.0
  0
SEQEND
  5
5BC
330
5B9
100
AcDbEntity
  8
0
390
1D
  0
LINE
  5
5BD
330
4E
100
AcDbEntity
  8
0
  6
ByBlock
 62
     0
370
    -2
390
1D
100
AcDbLine
 10
-0.5
 20
0.0
 30
0.0
 11
-1.0
 21
0.0
 31
0.0
  0
ENDBLK
  5
5BE
330
4E
100
AcDbEntity
  8
0
390
1D
100
AcDbBlockEnd
  0
BLOCK
  5
68B
330
68A
100
AcDbEntity
  8
0
100
AcDbBlockBegin
  2
名称未設定-1
 70
     0
 10
0.0
 20
0.0
 30
0.0
  3
名称未設定-1
  1
名称未設定-1
  0
INSERT
  5
68C
330
68A
100
AcDbEntity
  8
レイヤー 1
100
AcDbBlockReference
  2
block 2
 10
0.0
 20
0.0
 30
0.0
  0
ENDBLK
  5
6B1
330
68A
100
AcDbEntity
  8
0
100
AcDbBlockEnd
  0
BLOCK
  5
68E
330
68D
100
AcDbEntity
  8
0
100
AcDbBlockBegin
  2
block 2
 70
     0
 10
0.0
 20
0.0
 30
0.0
  3
block 2
  1
block 2
  0
INSERT
  5
68F
330
68D
100
AcDbEntity
  8
レイヤー 1
100
AcDbBlockReference
  2
block 3
 10
0.0
 20
0.0
 30
0.0
  0
ENDBLK
  5
6B0
330
68D
100
AcDbEntity
  8
0
100
AcDbBlockEnd
  0
BLOCK
  5
691
330
690
100
AcDbEntity
  8
0
100
AcDbBlockBegin
  2
block 3
 70
     0
 10
0.0
 20
0.0
 30
0.0
  3
block 3
  1
block 3
  0
INSERT
  5
692
330
690
100
AcDbEntity
  8
レイヤー 1
100
AcDbBlockReference
  2
block 4
 10
0.0
 20
0.0
 30
0.0
  0
ENDBLK
  5
6AF
330
690
100
AcDbEntity
  8
0
100
AcDbBlockEnd
  0
BLOCK
  5
694
330
693
100
AcDbEntity
  8
0
100
AcDbBlockBegin
  2
block 4
 70
     0
 10
0.0
 20
0.0
 30
0.0
  3
block 4
  1
block 4
  0
POLYLINE
  5
695
330
693
100
AcDbEntity
  8
レイヤー 1
370
     0
100
AcDb2dPolyline
 66
     1
 10
0.0
 20
0.0
 30
0.0
  0
VERTEX
  5
696
330
695
100
AcDbEntity
  8
レイヤー 1
370
     0
100
AcDbVertex
100
AcDb2dVertex
 10
83.79545727667795
 20
167.6444858234922
 30
0.0
  0
VERTEX
  5
697
330
695
100
AcDbEntity
  8
レイヤー 1
370
     0
100
AcDbVertex
100
AcDb2dVertex
 10
83.79545727667795
 20
159.7968976406313
 30
0.0
  0
VERTEX
  5
698
330
695
100
AcDbEntity
  8
レイヤー 1
370
     0
100
AcDbVertex
100
AcDb2dVertex
 10
71.3631329975216
 20
159.7968976406313
 30
0.0
  0
VERTEX
  5
699
330
695
100
AcDbEntity
  8
レイヤー 1
370
     0
100
AcDbVertex
100
AcDb2dVertex
 10
71.3631329975216
 20
127.8027915271048
 30
0.0
  0
VERTEX
  5
69A
330
695
100
AcDbEntity
  8
レイヤー 1
370
     0
100
AcDbVertex
100
AcDb2dVertex
 10
60.43011526263018
 20
127.8027915271048
 30
0.0
  0
VERTEX
  5
69B
330
695
100
AcDbEntity
  8
レイヤー 1
370
     0
100
AcDbVertex
100
AcDb2dVertex
 10
60.43011526263018
 20
159.7968976406313
 30
0.0
  0
VERTEX
  5
69C
330
695
100
AcDbEntity
  8
レイヤー 1
370
     0
100
AcDbVertex
100
AcDb2dVertex
 10
48.21793273020759
 20
159.7968976406313
 30
0.0
  0
VERTEX
  5
69D
330
695
100
AcDbEntity
  8
レイヤー 1
370
     0
100
AcDbVertex
100
AcDb2dVertex
 10
48.21793273020759
 20
167.6444858234922
 30
0.0
  0
VERTEX
  5
69E
330
695
100
AcDbEntity
  8
レイヤー 1
370
     0
100
AcDbVertex
100
AcDb2dVertex
 10
83.79545727667795
 20
167.6444858234922
 30
0.0
  0
SEQEND
  5
69F
330
695
100
AcDbEntity
  8
レイヤー 1
370
     0
  0
HATCH
  5
6A0
330
693
100
AcDbEntity
  8
レイヤー 1
 62
   250
420
  2234388
100
AcDbHatch
 10
0.0
 20
0.0
 30
0.0
210
0.0
220
0.0
230
1.0
  2
SOLID
 70
     1
 71
     0
 91
        1
 92
        1
 93
        8
 72
     1
 10
83.79545727667795
 20
167.6444858234922
 11
83.79545727667795
 21
159.7968976406313
 72
     1
 10
83.79545727667795
 20
159.7968976406313
 11
71.3631329975216
 21
159.7968976406313
 72
     1
 10
71.3631329975216
 20
159.7968976406313
 11
71.3631329975216
 21
127.8027915271048
 72
     1
 10
71.3631329975216
 20
127.8027915271048
 11
60.43011526263018
 21
127.8027915271048
 72
     1
 10
60.43011526263018
 20
127.8027915271048
 11
60.43011526263018
 21
159.7968976406313
 72
     1
 10
60.43011526263018
 20
159.7968976406313
 11
48.21793273020759
 21
159.7968976406313
 72
     1
 10
48.21793273020759
 20
159.7968976406313
 11
48.21793273020759
 21
167.6444858234922
 72
     1
 10
48.21793273020759
 20
167.6444858234922
 11
83.79545727667795
 21
167.6444858234922
 97
        0
 75
     2
 76
     1
 98
        0
  0
INSERT
  5
6A1
330
693
100
AcDbEntity
  8
レイヤー 1
100
AcDbBlockReference
  2
block 5
 10
0.0
 20
0.0
 30
0.0
  0
ENDBLK
  5
6AE
330
693
100
AcDbEntity
  8
0
100
AcDbBlockEnd
  0
BLOCK
  5
6A3
330
6A2
100
AcDbEntity
  8
0
100
AcDbBlockBegin
  2
block 5
 70
     0
 10
0.0
 20
0.0
 30
0.0
  3
block 5
  1
block 5
  0
SPLINE
  5
6A4
330
6A2
100
AcDbEntity
  8
レイヤー 1
370
     0
100
AcDbSpline
210
0.0
220
0.0
230
1.0
 70
    11
 71
     3
 72
    56
 73
    52
 74
     0
 42
0.000000001
 43
0.0000000001
 40
0.0
 40
0.0
 40
0.0
 40
0.0
 40
1.0
 40
1.0
 40
1.0
 40
2.0
 40
2.0
 40
2.0
 40
3.0
 40
3.0
 40
3.0
 40
4.0
 40
4.0
 40
4.0
 40
5.0
 40
5.0
 40
5.0
 40
6.0
 40
6.0
 40
6.0
 40
7.0
 40
7.0
 40
7.0
 40
8.0
 40
8.0
 40
8.0
 40
9.0
 40
9.0
 40
9.0
 40
10.0
 40
10.0
 40
10.0
 40
11.0
 40
11.0
 40
11.0
 40
12.0
 40
12.0
 40
12.0
 40
13.0
 40
13.0
 40
13.0
 40
14.0
 40
14.0
 40
14.0
 40
15.0
 40
15.0
 40
15.0
 40
16.0
 40
16.0
 40
16.0
 40
17.0
 40
17.0
 40
17.0
 40
17.0
 10
100.4504378777679
 20
166.69157178364
 30
0.0
 10
101.9848844191641
 20
167.1313385124438
 30
0.0
 10
103.9637485713373
 20
166.7649523658846
 30
0.0
 10
103.9637485713373
 20
166.7649523658846
 30
0.0
 10
103.9637485713373
 20
166.7649523658846
 30
0.0
 10
103.0132460999156
 20
163.911205638077
 30
0.0
 10
103.0132460999156
 20
163.911205638077
 30
0.0
 10
103.0132460999156
 20
163.911205638077
 30
0.0
 10
101.0674548862189
 20
164.3601018759394
 30
0.0
 10
99.57090442016032
 20
163.1805004036133
 30
0.0
 10
98.40508333886608
 20
162.258247733807
 30
0.0
 10
97.65301849830304
 20
159.804132345923
 30
0.0
 10
97.3598406791005
 20
158.8699940888517
 30
0.0
 10
97.3598406791005
 20
158.8699940888517
 30
0.0
 10
96.07137411762282
 20
154.9119212747295
 30
0.0
 10
96.07137411762282
 20
154.9119212747295
 30
0.0
 10
96.07137411762282
 20
154.9119212747295
 30
0.0
 10
100.3012651448482
 20
154.9119212747295
 30
0.0
 10
100.3012651448482
 20
154.9119212747295
 30
0.0
 10
100.3012651448482
 20
154.9119212747295
 30
0.0
 10
99.64152892419852
 20
152.4199098115079
 30
0.0
 10
99.64152892419852
 20
152.4199098115079
 30
0.0
 10
99.64152892419852
 20
152.4199098115079
 30
0.0
 10
95.38097652692731
 20
152.4199098115079
 30
0.0
 10
95.38097652692731
 20
152.4199098115079
 30
0.0
 10
95.38097652692731
 20
152.4199098115079
 30
0.0
 10
87.75353009080013
 20
127.8027915271048
 30
0.0
 10
87.75353009080013
 20
127.8027915271048
 30
0.0
 10
87.75353009080013
 20
127.8027915271048
 30
0.0
 10
85.36538832498108
 20
127.8027915271048
 30
0.0
 10
85.36538832498108
 20
127.8027915271048
 30
0.0
 10
85.36538832498108
 20
127.8027915271048
 30
0.0
 10
93.00006946639998
 20
152.4199098115079
 30
0.0
 10
93.00006946639998
 20
152.4199098115079
 30
0.0
 10
93.00006946639998
 20
152.4199098115079
 30
0.0
 10
89.85297266450198
 20
152.4199098115079
 30
0.0
 10
89.85297266450198
 20
152.4199098115079
 30
0.0
 10
89.85297266450198
 20
152.4199098115079
 30
0.0
 10
90.51270888515164
 20
154.9119212747295
 30
0.0
 10
90.51270888515164
 20
154.9119212747295
 30
0.0
 10
90.51270888515164
 20
154.9119212747295
 30
0.0
 10
93.6904670570955
 20
154.9119212747295
 30
0.0
 10
93.6904670570955
 20
154.9119212747295
 30
0.0
 10
93.6904670570955
 20
154.9119212747295
 30
0.0
 10
94.81598049462158
 20
158.3616699146644
 30
0.0
 10
94.81598049462158
 20
158.3616699146644
 30
0.0
 10
95.7237637538445
 20
161.2605474231013
 30
0.0
 10
96.4968436907311
 20
162.8139420021662
 30
0.0
 10
97.15657991138076
 20
163.9844139654337
 30
0.0
 10
97.81183750494507
 20
165.1523021053827
 30
0.0
 10
99.1047826935081
 20
166.3084769129547
 30
0.0
 10
100.4504378777679
 20
166.69157178364
 30
0.0
  0
HATCH
  5
6A5
330
6A2
100
AcDbEntity
  8
レイヤー 1
 62
   250
420
  2234388
100
AcDbHatch
 10
0.0
 20
0.0
 30
0.0
210
0.0
220
0.0
230
1.0
  2
SOLID
 70
     1
 71
     0
 91
        1
 92
        1
 93
        1
 72
     4
 94
        3
 73
     0
 74
     1
 95
       56
 96
       52
 40
0.0
 40
0.0
 40
0.0
 40
0.0
 40
1.0
 40
1.0
 40
1.0
 40
2.0
 40
2.0
 40
2.0
 40
3.0
 40
3.0
 40
3.0
 40
4.0
 40
4.0
 40
4.0
 40
5.0
 40
5.0
 40
5.0
 40
6.0
 40
6.0
 40
6.0
 40
7.0
 40
7.0
 40
7.0
 40
8.0
 40
8.0
 40
8.0
 40
9.0
 40
9.0
 40
9.0
 40
10.0
 40
10.0
 40
10.0
 40
11.0
 40
11.0
 40
11.0
 40
12.0
 40
12.0
 40
12.0
 40
13.0
 40
13.0
 40
13.0
 40
14.0
 40
14.0
 40
14.0
 40
15.0
 40
15.0
 40
15.0
 40
16.0
 40
16.0
 40
16.0
 40
17.0
 40
17.0
 40
17.0
 40
17.0
 10
100.4504378777679
 20
166.69157178364
 10
101.9848844191641
 20
167.1313385124438
 10
103.9637485713373
 20
166.7649523658846
 10
103.9637485713373
 20
166.7649523658846
 10
103.9637485713373
 20
166.7649523658846
 10
103.0132460999156
 20
163.911205638077
 10
103.0132460999156
 20
163.911205638077
 10
103.0132460999156
 20
163.911205638077
 10
101.0674548862189
 20
164.3601018759394
 10
99.57090442016032
 20
163.1805004036133
 10
98.40508333886608
 20
162.258247733807
 10
97.65301849830304
 20
159.804132345923
 10
97.3598406791005
 20
158.8699940888517
 10
97.3598406791005
 20
158.8699940888517
 10
96.07137411762282
 20
154.9119212747295
 10
96.07137411762282
 20
154.9119212747295
 10
96.07137411762282
 20
154.9119212747295
 10
100.3012651448482
 20
154.9119212747295
 10
100.3012651448482
 20
154.9119212747295
 10
100.3012651448482
 20
154.9119212747295
 10
99.64152892419852
 20
152.4199098115079
 10
99.64152892419852
 20
152.4199098115079
 10
99.64152892419852
 20
152.4199098115079
 10
95.38097652692731
 20
152.4199098115079
 10
95.38097652692731
 20
152.4199098115079
 10
95.38097652692731
 20
152.4199098115079
 10
87.75353009080013
 20
127.8027915271048
 10
87.75353009080013
 20
127.8027915271048
 10
87.75353009080013
 20
127.8027915271048
 10
85.36538832498108
 20
127.8027915271048
 10
85.36538832498108
 20
127.8027915271048
 10
85.36538832498108
 20
127.8027915271048
 10
93.00006946639998
 20
152.4199098115079
 10
93.00006946639998
 20
152.4199098115079
 10
93.00006946639998
 20
152.4199098115079
 10
89.85297266450198
 20
152.4199098115079
 10
89.85297266450198
 20
152.4199098115079
 10
89.85297266450198
 20
152.4199098115079
 10
90.51270888515164
 20
154.9119212747295
 10
90.51270888515164
 20
154.9119212747295
 10
90.51270888515164
 20
154.9119212747295
 10
93.6904670570955
 20
154.9119212747295
 10
93.6904670570955
 20
154.9119212747295
 10
93.6904670570955
 20
154.9119212747295
 10
94.81598049462158
 20
158.3616699146644
 10
94.81598049462158
 20
158.3616699146644
 10
95.7237637538445
 20
161.2605474231013
 10
96.4968436907311
 20
162.8139420021662
 10
97.15657991138076
 20
163.9844139654337
 10
97.81183750494507
 20
165.1523021053827
 10
99.1047826935081
 20
166.3084769129547
 10
100.4504378777679
 20
166.69157178364
 97
        0
 75
     2
 76
     1
 98
        0
  0
SPLINE
  5
6A6
330
6A2
100
AcDbEntity
  8
レイヤー 1
370
     0
100
AcDbSpline
210
0.0
220
0.0
230
1.0
 70
    11
 71
     3
 72
    38
 73
    34
 74
     0
 42
0.000000001
 43
0.0000000001
 40
0.0
 40
0.0
 40
0.0
 40
0.0
 40
1.0
 40
1.0
 40
1.0
 40
2.0
 40
2.0
 40
2.0
 40
3.0
 40
3.0
 40
3.0
 40
4.0
 40
4.0
 40
4.0
 40
5.0
 40
5.0
 40
5.0
 40
6.0
 40
6.0
 40
6.0
 40
7.0
 40
7.0
 40
7.0
 40
8.0
 40
8.0
 40
8.0
 40
9.0
 40
9.0
 40
9.0
 40
10.0
 40
10.0
 40
10.0
 40
11.0
 40
11.0
 40
11.0
 40
11.0
 10
126.377554584636
 20
154.8151140277308
 30
0.0
 10
126.377554584636
 20
154.8151140277308
 30
0.0
 10
128.8311532078563
 20
154.8151140277308
 30
0.0
 10
128.8311532078563
 20
154.8151140277308
 30
0.0
 10
128.8311532078563
 20
154.8151140277308
 30
0.0
 10
127.7345785914971
 20
151.3062819612468
 30
0.0
 10
127.7345785914971
 20
151.3062819612468
 30
0.0
 10
128.571392836906
 20
152.2922689395754
 30
0.0
 10
129.8860421413442
 20
153.604506675583
 30
0.0
 10
131.0163787157314
 20
154.2664822097754
 30
0.0
 10
132.7044766171327
 20
155.2500576196734
 30
0.0
 10
133.6642808525008
 20
155.3847609420097
 30
0.0
 10
134.7284715499351
 20
155.3565111403944
 30
0.0
 10
134.7284715499351
 20
155.3565111403944
 30
0.0
 10
133.6877075172549
 20
152.0345756272799
 30
0.0
 10
133.6877075172549
 20
152.0345756272799
 30
0.0
 10
133.011434827367
 20
152.3184516825359
 30
0.0
 10
130.930940291334
 20
151.7768823149844
 30
0.0
 10
129.739280976855
 20
150.9162968950455
 30
0.0
 10
128.66613302525
 20
150.1454562717016
 30
0.0
 10
127.9192358313239
 20
149.4857200510519
 30
0.0
 10
127.0393578639405
 20
147.8282835196966
 30
0.0
 10
126.164647543194
 20
146.1699857139017
 30
0.0
 10
125.4742499524985
 20
143.5262176944419
 30
0.0
 10
124.2822461282437
 20
139.6959580071401
 30
0.0
 10
124.2822461282437
 20
139.6959580071401
 30
0.0
 10
120.5753209406769
 20
127.8027915271048
 30
0.0
 10
120.5753209406769
 20
127.8027915271048
 30
0.0
 10
120.5753209406769
 20
127.8027915271048
 30
0.0
 10
118.1964809388044
 20
127.8027915271048
 30
0.0
 10
118.1964809388044
 20
127.8027915271048
 30
0.0
 10
118.1964809388044
 20
127.8027915271048
 30
0.0
 10
126.377554584636
 20
154.8151140277308
 30
0.0
 10
126.377554584636
 20
154.8151140277308
 30
0.0
  0
HATCH
  5
6A7
330
6A2
100
AcDbEntity
  8
レイヤー 1
 62
   250
420
  2234388
100
AcDbHatch
 10
0.0
 20
0.0
 30
0.0
210
0.0
220
0.0
230
1.0
  2
SOLID
 70
     1
 71
     0
 91
        1
 92
        1
 93
        1
 72
     4
 94
        3
 73
     0
 74
     1
 95
       38
 96
       34
 40
0.0
 40
0.0
 40
0.0
 40
0.0
 40
1.0
 40
1.0
 40
1.0
 40
2.0
 40
2.0
 40
2.0
 40
3.0
 40
3.0
 40
3.0
 40
4.0
 40
4.0
 40
4.0
 40
5.0
 40
5.0
 40
5.0
 40
6.0
 40
6.0
 40
6.0
 40
7.0
 40
7.0
 40
7.0
 40
8.0
 40
8.0
 40
8.0
 40
9.0
 40
9.0
 40
9.0
 40
10.0
 40
10.0
 40
10.0
 40
11.0
 40
11.0
 40
11.0
 40
11.0
 10
126.377554584636
 20
154.8151140277308
 10
126.377554584636
 20
154.8151140277308
 10
128.8311532078563
 20
154.8151140277308
 10
128.8311532078563
 20
154.8151140277308
 10
128.8311532078563
 20
154.8151140277308
 10
127.7345785914971
 20
151.3062819612468
 10
127.7345785914971
 20
151.3062819612468
 10
128.571392836906
 20
152.2922689395754
 10
129.8860421413442
 20
153.604506675583
 10
131.0163787157314
 20
154.2664822097754
 10
132.7044766171327
 20
155.2500576196734
 10
133.6642808525008
 20
155.3847609420097
 10
134.7284715499351
 20
155.3565111403944
 10
134.7284715499351
 20
155.3565111403944
 10
133.6877075172549
 20
152.0345756272799
 10
133.6877075172549
 20
152.0345756272799
 10
133.011434827367
 20
152.3184516825359
 10
130.930940291334
 20
151.7768823149844
 10
129.739280976855
 20
150.9162968950455
 10
128.66613302525
 20
150.1454562717016
 10
127.9192358313239
 20
149.4857200510519
 10
127.0393578639405
 20
147.8282835196966
 10
126.164647543194
 20
146.1699857139017
 10
125.4742499524985
 20
143.5262176944419
 10
124.2822461282437
 20
139.6959580071401
 10
124.2822461282437
 20
139.6959580071401
 10
120.5753209406769
 20
127.8027915271048
 10
120.5753209406769
 20
127.8027915271048
 10
120.5753209406769
 20
127.8027915271048
 10
118.1964809388044
 20
127.8027915271048
 10
118.1964809388044
 20
127.8027915271048
 10
118.1964809388044
 20
127.8027915271048
 10
126.377554584636
 20
154.8151140277308
 10
126.377554584636
 20
154.8151140277308
 97
        0
 75
     2
 76
     1
 98
        0
  0
SPLINE
  5
6A8
330
6A2
100
AcDbEntity
  8
レイヤー 1
370
     0
100
AcDbSpline
210
0.0
220
0.0
230
1.0
 70
    11
 71
     3
 72
   104
 73
   100
 74
     0
 42
0.000000001
 43
0.0000000001
 40
0.0
 40
0.0
 40
0.0
 40
0.0
 40
1.0
 40
1.0
 40
1.0
 40
2.0
 40
2.0
 40
2.0
 40
3.0
 40
3.0
 40
3.0
 40
4.0
 40
4.0
 40
4.0
 40
5.0
 40
5.0
 40
5.0
 40
6.0
 40
6.0
 40
6.0
 40
7.0
 40
7.0
 40
7.0
 40
8.0
 40
8.0
 40
8.0
 40
9.0
 40
9.0
 40
9.0
 40
10.0
 40
10.0
 40
10.0
 40
11.0
 40
11.0
 40
11.0
 40
12.0
 40
12.0
 40
12.0
 40
13.0
 40
13.0
 40
13.0
 40
14.0
 40
14.0
 40
14.0
 40
15.0
 40
15.0
 40
15.0
 40
16.0
 40
16.0
 40
16.0
 40
17.0
 40
17.0
 40
17.0
 40
18.0
 40
18.0
 40
18.0
 40
19.0
 40
19.0
 40
19.0
 40
20.0
 40
20.0
 40
20.0
 40
21.0
 40
21.0
 40
21.0
 40
22.0
 40
22.0
 40
22.0
 40
23.0
 40
23.0
 40
23.0
 40
24.0
 40
24.0
 40
24.0
 40
25.0
 40
25.0
 40
25.0
 40
26.0
 40
26.0
 40
26.0
 40
27.0
 40
27.0
 40
27.0
 40
28.0
 40
28.0
 40
28.0
 40
29.0
 40
29.0
 40
29.0
 40
30.0
 40
30.0
 40
30.0
 40
31.0
 40
31.0
 40
31.0
 40
32.0
 40
32.0
 40
32.0
 40
33.0
 40
33.0
 40
33.0
 40
33.0
 10
139.8926730891197
 20
154.8294111834263
 30
0.0
 10
139.8926730891197
 20
154.8294111834263
 30
0.0
 10
142.0344903652445
 20
154.8294111834263
 30
0.0
 10
142.0344903652445
 20
154.8294111834263
 30
0.0
 10
142.0344903652445
 20
154.8294111834263
 30
0.0
 10
140.9516961399171
 20
151.3157559800812
 30
0.0
 10
140.9516961399171
 20
151.3157559800812
 30
0.0
 10
141.8928968473923
 20
152.7887075264977
 30
0.0
 10
142.7341897198865
 20
153.4484437471474
 30
0.0
 10
143.8552245303272
 20
154.2926649527359
 30
0.0
 10
144.9803934580775
 20
155.1296514530327
 30
0.0
 10
146.3139908001845
 20
155.3044901642492
 30
0.0
 10
147.241066606852
 20
155.3044901642492
 30
0.0
 10
148.3855280820469
 20
155.3044901642492
 30
0.0
 10
149.4969166187653
 20
155.0752189084569
 30
0.0
 10
150.0784491203092
 20
153.8172414621372
 30
0.0
 10
150.5228667310863
 20
152.833838307127
 30
0.0
 10
150.5414702589793
 20
152.7201500811143
 30
0.0
 10
150.4140016419347
 20
150.7765981809602
 30
0.0
 10
151.5818897818837
 20
152.7699317437168
 30
0.0
 10
152.4424752018226
 20
153.6256940267945
 30
0.0
 10
153.9038856707499
 20
154.4507949398263
 30
0.0
 10
155.4455669174378
 20
155.3044901642492
 30
0.0
 10
156.339225275853
 20
155.3659851592288
 30
0.0
 10
157.3748216618963
 20
155.2147453676543
 30
0.0
 10
158.911679771723
 20
154.9877134254046
 30
0.0
 10
159.8859534176746
 20
154.4390816074493
 30
0.0
 10
160.3965169054045
 20
152.7816450760939
 30
0.0
 10
160.9070803931344
 20
151.1219692311958
 30
0.0
 10
160.6328506116007
 20
150.2303779314354
 30
0.0
 10
159.9992971339115
 20
147.597634224801
 30
0.0
 10
159.7105979417943
 20
146.4014962832367
 30
0.0
 10
159.2947746424084
 20
144.9400858143094
 30
0.0
 10
158.7463150793409
 20
143.2092687007094
 30
0.0
 10
158.7463150793409
 20
143.2092687007094
 30
0.0
 10
153.9038856707499
 20
127.8027915271048
 30
0.0
 10
153.9038856707499
 20
127.8027915271048
 30
0.0
 10
153.9038856707499
 20
127.8027915271048
 30
0.0
 10
151.3882752878863
 20
127.8027915271048
 30
0.0
 10
151.3882752878863
 20
127.8027915271048
 30
0.0
 10
151.3882752878863
 20
127.8027915271048
 30
0.0
 10
155.6250565106276
 20
141.2751908193897
 30
0.0
 10
155.6250565106276
 20
141.2751908193897
 30
0.0
 10
156.5094131050963
 20
144.0936252951782
 30
0.0
 10
157.109893644309
 20
146.1506931664571
 30
0.0
 10
157.4220195011804
 20
147.4415712963654
 30
0.0
 10
157.8095929989511
 20
149.0530157726519
 30
0.0
 10
157.9656559273867
 20
149.5826995529385
 30
0.0
 10
157.7816877071116
 20
150.7529992613181
 30
0.0
 10
157.6111553680925
 20
151.8430281919372
 30
0.0
 10
157.0582171779396
 20
152.5547853887321
 30
0.0
 10
156.1170164704645
 20
152.5547853887321
 30
0.0
 10
155.1096698860365
 20
152.5547853887321
 30
0.0
 10
154.2962823053817
 20
152.4412694176073
 30
0.0
 10
153.156643967048
 20
151.2945686288697
 30
0.0
 10
152.0170056287143
 20
150.1476955852443
 30
0.0
 10
151.076149431015
 20
148.7930831468137
 30
0.0
 10
150.3337308641742
 20
147.2290087646991
 30
0.0
 10
149.5957909244188
 20
145.6683794803425
 30
0.0
 10
148.8530278478023
 20
143.6822806228776
 30
0.0
 10
148.0964843801539
 20
141.2751908193897
 30
0.0
 10
148.0964843801539
 20
141.2751908193897
 30
0.0
 10
143.8552245303272
 20
127.8027915271048
 30
0.0
 10
143.8552245303272
 20
127.8027915271048
 30
0.0
 10
143.8552245303272
 20
127.8027915271048
 30
0.0
 10
141.486030802177
 20
127.8027915271048
 30
0.0
 10
141.486030802177
 20
127.8027915271048
 30
0.0
 10
141.486030802177
 20
127.8027915271048
 30
0.0
 10
146.3329388378533
 20
143.2092687007094
 30
0.0
 10
146.3329388378533
 20
143.2092687007094
 30
0.0
 10
146.8483254624444
 20
144.8408669988801
 30
0.0
 10
147.2314203331297
 20
146.1837661049335
 30
0.0
 10
147.4867020769946
 20
147.224185627838
 30
0.0
 10
147.9169947869641
 20
149.0197705792876
 30
0.0
 10
148.0306830129768
 20
150.2400242051577
 30
0.0
 10
147.709255392159
 20
151.3157559800812
 30
0.0
 10
147.3874832615654
 20
152.3916600098926
 30
0.0
 10
146.8245542879144
 20
152.6683013598569
 30
0.0
 10
145.8840425999909
 20
152.6683013598569
 30
0.0
 10
145.0989048209514
 20
152.6683013598569
 30
0.0
 10
144.3282364524954
 20
152.3275811915945
 30
0.0
 10
143.4531816219731
 20
151.6538923250251
 30
0.0
 10
142.34627171234
 20
150.8074318058939
 30
0.0
 10
141.901854101563
 20
150.1097995099067
 30
0.0
 10
141.3578731655808
 20
149.289521733736
 30
0.0
 10
140.6299240093235
 20
148.192602607601
 30
0.0
 10
140.2850697237515
 20
147.455696197173
 30
0.0
 10
139.6652966370942
 20
145.8385673095858
 30
0.0
 10
139.0506911970739
 20
144.2214384219986
 30
0.0
 10
138.463991048893
 20
142.3252566160164
 30
0.0
 10
138.0571250036777
 20
141.0154304484394
 30
0.0
 10
138.0571250036777
 20
141.0154304484394
 30
0.0
 10
133.9009590684727
 20
127.8027915271048
 30
0.0
 10
133.9009590684727
 20
127.8027915271048
 30
0.0
 10
133.9009590684727
 20
127.8027915271048
 30
0.0
 10
131.4180771143097
 20
127.8027915271048
 30
0.0
 10
131.4180771143097
 20
127.8027915271048
 30
0.0
 10
131.4180771143097
 20
127.8027915271048
 30
0.0
 10
139.8926730891197
 20
154.8294111834263
 30
0.0
 10
139.8926730891197
 20
154.8294111834263
 30
0.0
  0
HATCH
  5
6A9
330
6A2
100
AcDbEntity
  8
レイヤー 1
 62
   250
420
  2234388
100
AcDbHatch
 10
0.0
 20
0.0
 30
0.0
210
0.0
220
0.0
230
1.0
  2
SOLID
 70
     1
 71
     0
 91
        1
 92
        1
 93
        1
 72
     4
 94
        3
 73
     0
 74
     1
 95
      104
 96
      100
 40
0.0
 40
0.0
 40
0.0
 40
0.0
 40
1.0
 40
1.0
 40
1.0
 40
2.0
 40
2.0
 40
2.0
 40
3.0
 40
3.0
 40
3.0
 40
4.0
 40
4.0
 40
4.0
 40
5.0
 40
5.0
 40
5.0
 40
6.0
 40
6.0
 40
6.0
 40
7.0
 40
7.0
 40
7.0
 40
8.0
 40
8.0
 40
8.0
 40
9.0
 40
9.0
 40
9.0
 40
10.0
 40
10.0
 40
10.0
 40
11.0
 40
11.0
 40
11.0
 40
12.0
 40
12.0
 40
12.0
 40
13.0
 40
13.0
 40
13.0
 40
14.0
 40
14.0
 40
14.0
 40
15.0
 40
15.0
 40
15.0
 40
16.0
 40
16.0
 40
16.0
 40
17.0
 40
17.0
 40
17.0
 40
18.0
 40
18.0
 40
18.0
 40
19.0
 40
19.0
 40
19.0
 40
20.0
 40
20.0
 40
20.0
 40
21.0
 40
21.0
 40
21.0
 40
22.0
 40
22.0
 40
22.0
 40
23.0
 40
23.0
 40
23.0
 40
24.0
 40
24.0
 40
24.0
 40
25.0
 40
25.0
 40
25.0
 40
26.0
 40
26.0
 40
26.0
 40
27.0
 40
27.0
 40
27.0
 40
28.0
 40
28.0
 40
28.0
 40
29.0
 40
29.0
 40
29.0
 40
30.0
 40
30.0
 40
30.0
 40
31.0
 40
31.0
 40
31.0
 40
32.0
 40
32.0
 40
32.0
 40
33.0
 40
33.0
 40
33.0
 40
33.0
 10
139.8926730891197
 20
154.8294111834263
 10
139.8926730891197
 20
154.8294111834263
 10
142.0344903652445
 20
154.8294111834263
 10
142.0344903652445
 20
154.8294111834263
 10
142.0344903652445
 20
154.8294111834263
 10
140.9516961399171
 20
151.3157559800812
 10
140.9516961399171
 20
151.3157559800812
 10
141.8928968473923
 20
152.7887075264977
 10
142.7341897198865
 20
153.4484437471474
 10
143.8552245303272
 20
154.2926649527359
 10
144.9803934580775
 20
155.1296514530327
 10
146.3139908001845
 20
155.3044901642492
 10
147.241066606852
 20
155.3044901642492
 10
148.3855280820469
 20
155.3044901642492
 10
149.4969166187653
 20
155.0752189084569
 10
150.0784491203092
 20
153.8172414621372
 10
150.5228667310863
 20
152.833838307127
 10
150.5414702589793
 20
152.7201500811143
 10
150.4140016419347
 20
150.7765981809602
 10
151.5818897818837
 20
152.7699317437168
 10
152.4424752018226
 20
153.6256940267945
 10
153.9038856707499
 20
154.4507949398263
 10
155.4455669174378
 20
155.3044901642492
 10
156.339225275853
 20
155.3659851592288
 10
157.3748216618963
 20
155.2147453676543
 10
158.911679771723
 20
154.9877134254046
 10
159.8859534176746
 20
154.4390816074493
 10
160.3965169054045
 20
152.7816450760939
 10
160.9070803931344
 20
151.1219692311958
 10
160.6328506116007
 20
150.2303779314354
 10
159.9992971339115
 20
147.597634224801
 10
159.7105979417943
 20
146.4014962832367
 10
159.2947746424084
 20
144.9400858143094
 10
158.7463150793409
 20
143.2092687007094
 10
158.7463150793409
 20
143.2092687007094
 10
153.9038856707499
 20
127.8027915271048
 10
153.9038856707499
 20
127.8027915271048
 10
153.9038856707499
 20
127.8027915271048
 10
151.3882752878863
 20
127.8027915271048
 10
151.3882752878863
 20
127.8027915271048
 10
151.3882752878863
 20
127.8027915271048
 10
155.6250565106276
 20
141.2751908193897
 10
155.6250565106276
 20
141.2751908193897
 10
156.5094131050963
 20
144.0936252951782
 10
157.109893644309
 20
146.1506931664571
 10
157.4220195011804
 20
147.4415712963654
 10
157.8095929989511
 20
149.0530157726519
 10
157.9656559273867
 20
149.5826995529385
 10
157.7816877071116
 20
150.7529992613181
 10
157.6111553680925
 20
151.8430281919372
 10
157.0582171779396
 20
152.5547853887321
 10
156.1170164704645
 20
152.5547853887321
 10
155.1096698860365
 20
152.5547853887321
 10
154.2962823053817
 20
152.4412694176073
 10
153.156643967048
 20
151.2945686288697
 10
152.0170056287143
 20
150.1476955852443
 10
151.076149431015
 20
148.7930831468137
 10
150.3337308641742
 20
147.2290087646991
 10
149.5957909244188
 20
145.6683794803425
 10
148.8530278478023
 20
143.6822806228776
 10
148.0964843801539
 20
141.2751908193897
 10
148.0964843801539
 20
141.2751908193897
 10
143.8552245303272
 20
127.8027915271048
 10
143.8552245303272
 20
127.8027915271048
 10
143.8552245303272
 20
127.8027915271048
 10
141.486030802177
 20
127.8027915271048
 10
141.486030802177
 20
127.8027915271048
 10
141.486030802177
 20
127.8027915271048
 10
146.3329388378533
 20
143.2092687007094
 10
146.3329388378533
 20
143.2092687007094
 10
146.8483254624444
 20
144.8408669988801
 10
147.2314203331297
 20
146.1837661049335
 10
147.4867020769946
 20
147.224185627838
 10
147.9169947869641
 20
149.0197705792876
 10
148.0306830129768
 20
150.2400242051577
 10
147.709255392159
 20
151.3157559800812
 10
147.3874832615654
 20
152.3916600098926
 10
146.8245542879144
 20
152.6683013598569
 10
145.8840425999909
 20
152.6683013598569
 10
145.0989048209514
 20
152.6683013598569
 10
144.3282364524954
 20
152.3275811915945
 10
143.4531816219731
 20
151.6538923250251
 10
142.34627171234
 20
150.8074318058939
 10
141.901854101563
 20
150.1097995099067
 10
141.3578731655808
 20
149.289521733736
 10
140.6299240093235
 20
148.192602607601
 10
140.2850697237515
 20
147.455696197173
 10
139.6652966370942
 20
145.8385673095858
 10
139.0506911970739
 20
144.2214384219986
 10
138.463991048893
 20
142.3252566160164
 10
138.0571250036777
 20
141.0154304484394
 10
138.0571250036777
 20
141.0154304484394
 10
133.9009590684727
 20
127.8027915271048
 10
133.9009590684727
 20
127.8027915271048
 10
133.9009590684727
 20
127.8027915271048
 10
131.4180771143097
 20
127.8027915271048
 10
131.4180771143097
 20
127.8027915271048
 10
131.4180771143097
 20
127.8027915271048
 10
139.8926730891197
 20
154.8294111834263
 10
139.8926730891197
 20
154.8294111834263
 97
        0
 75
     2
 76
     1
 98
        0
  0
SPLINE
  5
6AA
330
6A2
100
AcDbEntity
  8
レイヤー 1
370
     0
100
AcDbSpline
210
0.0
220
0.0
230
1.0
 70
    11
 71
     3
 72
    29
 73
    25
 74
     0
 42
0.000000001
 43
0.0000000001
 40
0.0
 40
0.0
 40
0.0
 40
0.0
 40
1.0
 40
1.0
 40
1.0
 40
2.0
 40
2.0
 40
2.0
 40
3.0
 40
3.0
 40
3.0
 40
4.0
 40
4.0
 40
4.0
 40
5.0
 40
5.0
 40
5.0
 40
6.0
 40
6.0
 40
6.0
 40
7.0
 40
7.0
 40
7.0
 40
8.0
 40
8.0
 40
8.0
 40
8.0
 10
101.6420971922469
 20
132.8388354296931
 30
0.0
 10
101.630039350094
 20
134.7164137077823
 30
0.0
 10
102.2236296937908
 20
138.0598810818841
 30
0.0
 10
103.7487744712405
 20
142.5378191476827
 30
0.0
 10
105.819967243327
 20
148.5896501242061
 30
0.0
 10
107.0602024361932
 20
150.8074318058939
 30
0.0
 10
108.1522984254671
 20
151.8833358357054
 30
0.0
 10
109.741177511439
 20
153.4532668840085
 30
0.0
 10
111.8740375333931
 20
153.5290590346837
 30
0.0
 10
112.5075910110823
 20
153.4532668840085
 30
0.0
 10
113.4012493694975
 20
153.3490526768302
 30
0.0
 10
114.6683563248758
 20
152.7580461564518
 30
0.0
 10
114.7493161221879
 20
150.7838328862519
 30
0.0
 10
114.8106388622796
 20
149.0909118479895
 30
0.0
 10
114.3186789024427
 20
145.9191825971221
 30
0.0
 10
112.6164561002338
 20
140.9489400617108
 30
0.0
 10
110.6444821435766
 20
135.1746117095912
 30
0.0
 10
109.4669477299053
 20
132.8960240524753
 30
0.0
 10
108.5212683953448
 20
131.9072809959403
 30
0.0
 10
106.7346406980658
 20
130.0538184021569
 30
0.0
 10
104.8222669326213
 20
130.2336525051225
 30
0.0
 10
104.5408024457958
 20
130.2336525051225
 30
0.0
 10
104.1721769856939
 20
130.2336525051225
 30
0.0
 10
101.6465758193322
 20
130.6305277668397
 30
0.0
 10
101.6420971922469
 20
132.8388354296931
 30
0.0
  0
SPLINE
  5
6AB
330
6A2
100
AcDbEntity
  8
レイヤー 1
370
     0
100
AcDbSpline
210
0.0
220
0.0
230
1.0
 70
    11
 71
     3
 72
    32
 73
    28
 74
     0
 42
0.000000001
 43
0.0000000001
 40
0.0
 40
0.0
 40
0.0
 40
0.0
 40
1.0
 40
1.0
 40
1.0
 40
2.0
 40
2.0
 40
2.0
 40
3.0
 40
3.0
 40
3.0
 40
4.0
 40
4.0
 40
4.0
 40
5.0
 40
5.0
 40
5.0
 40
6.0
 40
6.0
 40
6.0
 40
7.0
 40
7.0
 40
7.0
 40
8.0
 40
8.0
 40
8.0
 40
9.0
 40
9.0
 40
9.0
 40
9.0
 10
106.2595617172429
 20
153.4105476718098
 30
0.0
 10
104.8222669326213
 20
151.5474388043041
 30
0.0
 10
103.7177685914188
 20
149.8758773721411
 30
0.0
 10
101.9232171692965
 20
144.6141795664062
 30
0.0
 10
100.2754269116635
 20
139.7999999594306
 30
0.0
 10
99.22777268346732
 20
136.3052927937542
 30
0.0
 10
99.06964269637689
 20
132.039572749846
 30
0.0
 10
98.94665270641765
 20
128.8673267343149
 30
0.0
 10
100.8807305877373
 20
127.8027915271048
 30
0.0
 10
103.7129454545577
 20
127.8027915271048
 30
0.0
 10
104.9352661390825
 20
127.8027915271048
 30
0.0
 10
108.0151835347002
 20
127.8827177950895
 30
0.0
 10
110.2045431598849
 20
130.5926316915021
 30
0.0
 10
111.7417457794874
 20
132.4984597712065
 30
0.0
 10
113.155269389579
 20
134.475256864725
 30
0.0
 10
115.0562743324223
 20
140.9489400617108
 30
0.0
 10
116.6361961642235
 20
146.3680788349845
 30
0.0
 10
117.7282921534974
 20
149.8639917848761
 30
0.0
 10
117.6480213757369
 20
151.8595646611754
 30
0.0
 10
117.6480213757369
 20
151.8595646611754
 30
0.0
 10
117.6480213757369
 20
151.8595646611754
 30
0.0
 10
117.6480213757369
 20
151.8595646611754
 30
0.0
 10
117.13229024137
 20
155.18150017429
 30
0.0
 10
114.7162431837115
 20
155.886194920681
 30
0.0
 10
113.3351034925446
 20
155.886194920681
 30
0.0
 10
111.9829026225447
 20
155.886194920681
 30
0.0
 10
108.3414342923792
 20
156.1251124501957
 30
0.0
 10
106.2595617172429
 20
153.4105476718098
 30
0.0
  0
HATCH
  5
6AC
330
6A2
100
AcDbEntity
  8
レイヤー 1
 62
   250
420
  2234388
100
AcDbHatch
 10
0.0
 20
0.0
 30
0.0
210
0.0
220
0.0
230
1.0
  2
SOLID
 70
     1
 71
     0
 91
        2
 92
        1
 93
        1
 72
     4
 94
        3
 73
     0
 74
     1
 95
       29
 96
       25
 40
0.0
 40
0.0
 40
0.0
 40
0.0
 40
1.0
 40
1.0
 40
1.0
 40
2.0
 40
2.0
 40
2.0
 40
3.0
 40
3.0
 40
3.0
 40
4.0
 40
4.0
 40
4.0
 40
5.0
 40
5.0
 40
5.0
 40
6.0
 40
6.0
 40
6.0
 40
7.0
 40
7.0
 40
7.0
 40
8.0
 40
8.0
 40
8.0
 40
8.0
 10
101.6420971922469
 20
132.8388354296931
 10
101.630039350094
 20
134.7164137077823
 10
102.2236296937908
 20
138.0598810818841
 10
103.7487744712405
 20
142.5378191476827
 10
105.819967243327
 20
148.5896501242061
 10
107.0602024361932
 20
150.8074318058939
 10
108.1522984254671
 20
151.8833358357054
 10
109.741177511439
 20
153.4532668840085
 10
111.8740375333931
 20
153.5290590346837
 10
112.5075910110823
 20
153.4532668840085
 10
113.4012493694975
 20
153.3490526768302
 10
114.6683563248758
 20
152.7580461564518
 10
114.7493161221879
 20
150.7838328862519
 10
114.8106388622796
 20
149.0909118479895
 10
114.3186789024427
 20
145.9191825971221
 10
112.6164561002338
 20
140.9489400617108
 10
110.6444821435766
 20
135.1746117095912
 10
109.4669477299053
 20
132.8960240524753
 10
108.5212683953448
 20
131.9072809959403
 10
106.7346406980658
 20
130.0538184021569
 10
104.8222669326213
 20
130.2336525051225
 10
104.5408024457958
 20
130.2336525051225
 10
104.1721769856939
 20
130.2336525051225
 10
101.6465758193322
 20
130.6305277668397
 10
101.6420971922469
 20
132.8388354296931
 97
        0
 92
        1
 93
        1
 72
     4
 94
        3
 73
     0
 74
     1
 95
       32
 96
       28
 40
0.0
 40
0.0
 40
0.0
 40
0.0
 40
1.0
 40
1.0
 40
1.0
 40
2.0
 40
2.0
 40
2.0
 40
3.0
 40
3.0
 40
3.0
 40
4.0
 40
4.0
 40
4.0
 40
5.0
 40
5.0
 40
5.0
 40
6.0
 40
6.0
 40
6.0
 40
7.0
 40
7.0
 40
7.0
 40
8.0
 40
8.0
 40
8.0
 40
9.0
 40
9.0
 40
9.0
 40
9.0
 10
106.2595617172429
 20
153.4105476718098
 10
104.8222669326213
 20
151.5474388043041
 10
103.7177685914188
 20
149.8758773721411
 10
101.9232171692965
 20
144.6141795664062
 10
100.2754269116635
 20
139.7999999594306
 10
99.22777268346732
 20
136.3052927937542
 10
99.06964269637689
 20
132.039572749846
 10
98.94665270641765
 20
128.8673267343149
 10
100.8807305877373
 20
127.8027915271048
 10
103.7129454545577
 20
127.8027915271048
 10
104.9352661390825
 20
127.8027915271048
 10
108.0151835347002
 20
127.8827177950895
 10
110.2045431598849
 20
130.5926316915021
 10
111.7417457794874
 20
132.4984597712065
 10
113.155269389579
 20
134.475256864725
 10
115.0562743324223
 20
140.9489400617108
 10
116.6361961642235
 20
146.3680788349845
 10
117.7282921534974
 20
149.8639917848761
 10
117.6480213757369
 20
151.8595646611754
 10
117.6480213757369
 20
151.8595646611754
 10
117.6480213757369
 20
151.8595646611754
 10
117.6480213757369
 20
151.8595646611754
 10
117.13229024137
 20
155.18150017429
 10
114.7162431837115
 20
155.886194920681
 10
113.3351034925446
 20
155.886194920681
 10
111.9829026225447
 20
155.886194920681
 10
108.3414342923792
 20
156.1251124501957
 10
106.2595617172429
 20
153.4105476718098
 97
        0
 75
     2
 76
     1
 98
        0
  0
ENDBLK
  5
6AD
330
6A2
100
AcDbEntity
  8
0
100
AcDbBlockEnd
  0
ENDSEC
  0
SECTION
  2
ENTITIES
  0
MTEXT
  5
177
330
A
100
AcDbEntity
  8
template
 62
     7
390
1D
100
AcDbMText
 10
23.49999999989813
 20
167.2655694517236
 30
0.0
 40
8.144205729166664
 41
0.0
 46
0.0
 71
     1
 72
     1
  1
品名
  7
ＭＳ ゴシック
 73
     1
 44
0.7828267384257843
  0
MTEXT
  5
178
330
A
100
AcDbEntity
  8
template
 62
     7
390
1D
100
AcDbMText
 10
23.49999999989813
 20
124.7655694517235
 30
0.0
 40
8.144205729166664
 41
0.0
 46
0.0
 71
     1
 72
     1
  1
仕様
  7
ＭＳ ゴシック
 73
     1
 44
0.7828267384257843
  0
LINE
  5
179
330
A
100
AcDbEntity
  8
template
  6
Continuous
 62
     7
370
     5
390
1D
100
AcDbLine
 10
994.999999999657
 20
128.9730303892237
 30
0.0
 11
19.99999999965712
 21
128.9730303892237
 31
0.0
  0
LWPOLYLINE
  5
17A
330
A
100
AcDbEntity
  8
template
  6
Continuous
 62
     7
370
     5
390
1D
100
AcDbPolyline
 90
        5
 70
   128
 43
0.0
 10
994.999999999657
 20
1443.973030389223
 10
19.99999999965712
 20
1443.973030389223
 10
19.99999999965712
 20
43.97303038922358
 10
994.999999999657
 20
43.97303038922358
 10
994.999999999657
 20
1443.973030389223
  0
LINE
  5
17B
330
A
100
AcDbEntity
  8
template
  6
Continuous
 62
     7
370
     5
390
1D
100
AcDbLine
 10
994.999999999657
 20
171.4730303892235
 30
0.0
 11
19.99999999965712
 21
171.4730303892235
 31
0.0
  0
LINE
  5
17C
330
A
100
AcDbEntity
  8
template
  6
Continuous
 62
     7
370
     5
390
1D
100
AcDbLine
 10
994.999999999898
 20
86.4730303892236
 30
0.0
 11
618.499999999898
 21
86.4730303892236
 31
0.0
  0
MTEXT
  5
17D
330
A
100
AcDbEntity
  8
template
 62
     7
390
1D
100
AcDbMText
 10
20.0
 20
38.04611936079503
 30
0.0
 40
10.85894097222222
 41
0.0
 46
10.85894097222222
 71
     1
 72
     1
  1
{170901SM}
  7
ＭＳ ゴシック
 73
     1
 44
0.7828267384257843
1001
ACAD
1000
ACAD_MTEXT_DEFINED_HEIGHT_BEGIN
1070
    46
1040
10.85894097222222
1000
ACAD_MTEXT_DEFINED_HEIGHT_END
  0
MTEXT
  5
17E
330
A
100
AcDbEntity
  8
template
 62
     7
390
1D
100
AcDbMText
 10
633.4357031260284
 20
71.51783315256954
 30
0.0
 40
12.21630859375
 41
0.0
 46
0.0
 71
     1
 72
     1
  1
大洋金物株式会社 ティーフォルム事業部
  7
ＭＳ ゴシック
 73
     1
 44
0.7828267384257843
  0
MTEXT
  5
180
330
A
100
AcDbEntity
  8
template
 62
     7
390
1D
100
AcDbMText
 10
899.500000000028
 20
110.4743389829735
 30
0.0
 40
12.21630859375
 41
0.0
 46
31.87751004016064
 71
     1
 72
     1
  1
{1:5}
  7
ＭＳ ゴシック
 73
     1
 44
0.7828267384257843
1001
ACAD
1000
ACAD_MTEXT_DEFINED_HEIGHT_BEGIN
1070
    46
1040
31.87751004016064
1000
ACAD_MTEXT_DEFINED_HEIGHT_END
  0
MTEXT
  5
181
330
A
100
AcDbEntity
  8
template
 62
     7
390
1D
100
AcDbMText
 10
873.000000000028
 20
124.7655694517235
 30
0.0
 40
8.144205729166664
 41
0.0
 46
0.0
 71
     1
 72
     1
  1
縮尺
  7
ＭＳ ゴシック
 73
     1
 44
0.7828267384257843
  0
LINE
  5
182
330
A
100
AcDbEntity
  8
template
  6
Continuous
 62
     7
370
     5
390
1D
100
AcDbLine
 10
869.500000000028
 20
86.4730303892236
 30
0.0
 11
869.500000000028
 21
128.9730303892237
 31
0.0
  0
MTEXT
  5
183
330
A
100
AcDbEntity
  8
template
 62
     7
390
1D
100
AcDbMText
 10
747.500000000028
 20
124.7655694517235
 30
0.0
 40
8.144205729166664
 41
0.0
 46
0.0
 71
     1
 72
     1
  1
容量
  7
ＭＳ ゴシック
 73
     1
 44
0.7828267384257843
  0
LINE
  5
184
330
A
100
AcDbEntity
  8
template
  6
Continuous
 62
     7
370
     5
390
1D
100
AcDbLine
 10
744.000000000028
 20
86.4730303892236
 30
0.0
 11
744.000000000028
 21
128.9730303892237
 31
0.0
  0
MTEXT
  5
185
330
A
100
AcDbEntity
  8
template
 62
     7
390
1D
100
AcDbMText
 10
622.000000000028
 20
167.2655694517236
 30
0.0
 40
8.144205729166664
 41
0.0
 46
0.0
 71
     1
 72
     1
  1
品番
  7
ＭＳ ゴシック
 73
     1
 44
0.7828267384257843
  0
MTEXT
  5
186
330
A
100
AcDbEntity
  8
template
 62
     7
390
1D
100
AcDbMText
 10
622.000000000028
 20
124.7655694517235
 30
0.0
 40
8.144205729166664
 41
0.0
 46
0.0
 71
     1
 72
     1
  1
重量
  7
ＭＳ ゴシック
 73
     1
 44
0.7828267384257843
  0
MTEXT
  5
187
330
A
100
AcDbEntity
  8
template
 62
     7
390
1D
100
AcDbMText
 10
648.500000000028
 20
152.9743389829736
 30
0.0
 40
12.21630859375
 41
0.0
 46
12.21630859375
 71
     1
 72
     1
  1
{\fＭＳ ゴシック|b0|i0|c0|p34;SFG73-9903}
  7
ＭＳ ゴシック
 73
     1
 44
0.7828267384257843
1001
ACAD
1000
ACAD_MTEXT_DEFINED_HEIGHT_BEGIN
1070
    46
1040
12.21630859375
1000
ACAD_MTEXT_DEFINED_HEIGHT_END
  0
LINE
  5
188
330
A
100
AcDbEntity
  8
template
  6
Continuous
 62
     7
370
     5
390
1D
100
AcDbLine
 10
618.500000000028
 20
43.97303038922358
 30
0.0
 11
618.500000000028
 21
171.4730303892235
 31
0.0
  0
MTEXT
  5
189
330
A
100
AcDbEntity
  8
template
 62
     7
390
1D
100
AcDbMText
 10
49.99999999989814
 20
152.9743389829736
 30
0.0
 40
12.21630859375
 41
0.0
 46
12.21630859375
 71
     1
 72
     1
  1
{\fＭＳ ゴシック|b0|i0|c0|p34;ポップアップ排水金具}
  7
ＭＳ ゴシック
 73
     1
 44
0.7828267384257843
1001
ACAD
1000
ACAD_MTEXT_DEFINED_HEIGHT_BEGIN
1070
    46
1040
12.21630859375
1000
ACAD_MTEXT_DEFINED_HEIGHT_END
  0
INSERT
  5
6B5
330
A
100
AcDbEntity
  8
template
  6
Continuous
370
     0
100
AcDbBlockReference
  2
名称未設定-1
 10
919.2743017702577
 20
8.373076514336368
 30
0.0
 41
0.3809999999999999
 42
0.3809999999999999
 43
0.3809999999999999
  0
LWPOLYLINE
  5
87F
330
A
100
AcDbEntity
  8
0
  6
Continuous
370
    -3
100
AcDbPolyline
 90
        4
 70
     1
 43
0.0
 10
199.1026082016683
 20
390.4315454471538
 10
199.1026082016683
 20
309.5845072580629
 10
815.8973917976462
 20
309.5845072580629
 10
815.7741151516432
 20
390.4315454471538
  0
MTEXT
  5
880
330
A
100
AcDbEntity
  8
template
 62
     7
390
1D
100
AcDbMText
 10
237.8295636580742
 20
373.8285053301942
 30
0.0
 40
12.21630859375
 41
0.0
 46
39.89258437591512
 71
     1
 72
     1
  1
{このDXFデータは意匠図を目的としたものです。\P詳細寸法を確認される場合はPDFデータをご参照ください。}
  7
ＭＳ ゴシック
 73
     1
 44
1.304711230709641
1001
ACAD
1000
ACAD_MTEXT_DEFINED_HEIGHT_BEGIN
1070
    46
1040
39.89258437591512
1000
ACAD_MTEXT_DEFINED_HEIGHT_END
  0
MTEXT
  5
294B
330
A
100
AcDbEntity
  8
template
 62
     7
390
1D
100
AcDbMText
 10
49.99999999989814
 20
107.3145613957664
 30
0.0
 40
12.21630859375
 41
0.0
 46
44.96117654406689
 71
     1
 72
     1
  1
{\fＭＳ ゴシック|b0|i0|c0|p34;引棒連結用/対応引棒径φ5\P\Pクローム}
  7
ＭＳ ゴシック
 73
     1
 44
0.7828267384257843
1001
ACAD
1000
ACAD_MTEXT_DEFINED_HEIGHT_BEGIN
1070
    46
1040
44.96117654406689
1000
ACAD_MTEXT_DEFINED_HEIGHT_END
  0
POLYLINE
  5
2C9F
330
A
100
AcDbEntity
  8
1_10
 62
     7
370
     9
100
AcDb2dPolyline
 66
     1
 10
0.0
 20
0.0
 30
0.0
  0
VERTEX
  5
2CA0
330
2C9F
100
AcDbEntity
  8
1_10
 62
     7
370
     9
100
AcDbVertex
100
AcDb2dVertex
 10
358.3625995865146
 20
837.9467478586275
 30
0.0
  0
VERTEX
  5
2CA1
330
2C9F
100
AcDbEntity
  8
1_10
 62
     7
370
     9
100
AcDbVertex
100
AcDb2dVertex
 10
345.4574712205855
 20
837.9467478586275
 30
0.0
  0
VERTEX
  5
2CA2
330
2C9F
100
AcDbEntity
  8
1_10
 62
     7
370
     9
100
AcDbVertex
100
AcDb2dVertex
 10
345.4574712205855
 20
842.9772018122729
 30
0.0
  0
VERTEX
  5
2CA3
330
2C9F
100
AcDbEntity
  8
1_10
 62
     7
370
     9
100
AcDbVertex
100
AcDb2dVertex
 10
358.3625995865146
 20
842.9772018122729
 30
0.0
  0
SEQEND
  5
2CA4
330
2C9F
100
AcDbEntity
  8
1_10
370
     9
  0
POLYLINE
  5
2CA5
330
A
100
AcDbEntity
  8
1_10
 62
     7
370
     9
100
AcDb2dPolyline
 66
     1
 10
0.0
 20
0.0
 30
0.0
  0
VERTEX
  5
2CA6
330
2CA5
100
AcDbEntity
  8
1_10
 62
     7
370
     9
100
AcDbVertex
100
AcDb2dVertex
 10
367.0092392980699
 20
837.78921798534
 30
0.0
  0
VERTEX
  5
2CA7
330
2CA5
100
AcDbEntity
  8
1_10
 62
     7
370
     9
100
AcDbVertex
100
AcDb2dVertex
 10
361.6654759297747
 20
843.7683518425611
 30
0.0
  0
SEQEND
  5
2CA8
330
2CA5
100
AcDbEntity
  8
1_10
370
     9
  0
POLYLINE
  5
2CA9
330
A
100
AcDbEntity
  8
1_10
 62
     7
370
     9
100
AcDb2dPolyline
 66
     1
 10
0.0
 20
0.0
 30
0.0
  0
VERTEX
  5
2CAA
330
2CA9
100
AcDbEntity
  8
1_10
 62
     7
370
     9
100
AcDbVertex
100
AcDb2dVertex
 10
366.223340263558
 20
837.0820838874719
 30
0.0
  0
VERTEX
  5
2CAB
330
2CA9
100
AcDbEntity
  8
1_10
 62
     7
370
     9
100
AcDbVertex
100
AcDb2dVertex
 10
360.8778265633374
 20
843.1347316855605
 30
0.0
  0
SEQEND
  5
2CAC
330
2CA9
100
AcDbEntity
  8
1_10
370
     9
  0
POLYLINE
  5
2CAD
330
A
100
AcDbEntity
  8
1_10
 62
     7
370
     9
100
AcDb2dPolyline
 66
     1
 10
0.0
 20
0.0
 30
0.0
  0
VERTEX
  5
2CAE
330
2CAD
100
AcDbEntity
  8
1_10
 62
     7
370
     9
100
AcDbVertex
100
AcDb2dVertex
 10
368.0314331425128
 20
840.4637251673755
 30
0.0
  0
VERTEX
  5
2CAF
330
2CAD
100
AcDbEntity
  8
1_10
 62
     7
370
     9
100
AcDbVertex
100
AcDb2dVertex
 10
367.8756536011506
 20
841.4859190118186
 30
0.0
  0
VERTEX
  5
2CB0
330
2CAD
100
AcDbEntity
  8
1_10
 62
     7
370
     9
100
AcDbVertex
100
AcDb2dVertex
 10
367.4818289179321
 20
842.5081128562615
 30
0.0
  0
VERTEX
  5
2CB1
330
2CAD
100
AcDbEntity
  8
1_10
 62
     7
370
     9
100
AcDbVertex
100
AcDb2dVertex
 10
366.8534597567077
 20
843.2922615588479
 30
0.0
  0
VERTEX
  5
2CB2
330
2CAD
100
AcDbEntity
  8
1_10
 62
     7
370
     9
100
AcDbVertex
100
AcDb2dVertex
 10
365.987045453627
 20
843.999395656716
 30
0.0
  0
VERTEX
  5
2CB3
330
2CAD
100
AcDbEntity
  8
1_10
 62
     7
370
     9
100
AcDbVertex
100
AcDb2dVertex
 10
364.9648516091839
 20
844.39497067186
 30
0.0
  0
VERTEX
  5
2CB4
330
2CAD
100
AcDbEntity
  8
1_10
 62
     7
370
     9
100
AcDbVertex
100
AcDb2dVertex
 10
363.9426577647409
 20
844.5525005451474
 30
0.0
  0
VERTEX
  5
2CB5
330
2CAD
100
AcDbEntity
  8
1_10
 62
     7
370
     9
100
AcDbVertex
100
AcDb2dVertex
 10
362.9204639202982
 20
844.39497067186
 30
0.0
  0
VERTEX
  5
2CB6
330
2CAD
100
AcDbEntity
  8
1_10
 62
     7
370
     9
100
AcDbVertex
100
AcDb2dVertex
 10
361.9000204077803
 20
843.999395656716
 30
0.0
  0
VERTEX
  5
2CB7
330
2CAD
100
AcDbEntity
  8
1_10
 62
     7
370
     9
100
AcDbVertex
100
AcDb2dVertex
 10
361.0371067685505
 20
843.2922615588479
 30
0.0
  0
VERTEX
  5
2CB8
330
2CAD
100
AcDbEntity
  8
1_10
 62
     7
370
     9
100
AcDbVertex
100
AcDb2dVertex
 10
360.4052369434752
 20
842.5081128562615
 30
0.0
  0
VERTEX
  5
2CB9
330
2CAD
100
AcDbEntity
  8
1_10
 62
     7
370
     9
100
AcDbVertex
100
AcDb2dVertex
 10
360.0131625921821
 20
841.4859190118186
 30
0.0
  0
VERTEX
  5
2CBA
330
2CAD
100
AcDbEntity
  8
1_10
 62
     7
370
     9
100
AcDbVertex
100
AcDb2dVertex
 10
359.8556327188945
 20
840.4637251673755
 30
0.0
  0
VERTEX
  5
2CBB
330
2CAD
100
AcDbEntity
  8
1_10
 62
     7
370
     9
100
AcDbVertex
100
AcDb2dVertex
 10
360.0131625921821
 20
839.3645167182144
 30
0.0
  0
VERTEX
  5
2CBC
330
2CAD
100
AcDbEntity
  8
1_10
 62
     7
370
     9
100
AcDbVertex
100
AcDb2dVertex
 10
360.4052369434752
 20
838.4193374784898
 30
0.0
  0
VERTEX
  5
2CBD
330
2CAD
100
AcDbEntity
  8
1_10
 62
     7
370
     9
100
AcDbVertex
100
AcDb2dVertex
 10
361.0371067685505
 20
837.5581741711851
 30
0.0
  0
VERTEX
  5
2CBE
330
2CAD
100
AcDbEntity
  8
1_10
 62
     7
370
     9
100
AcDbVertex
100
AcDb2dVertex
 10
361.9000204077803
 20
836.9245540141844
 30
0.0
  0
VERTEX
  5
2CBF
330
2CAD
100
AcDbEntity
  8
1_10
 62
     7
370
     9
100
AcDbVertex
100
AcDb2dVertex
 10
362.9204639202982
 20
836.535980326742
 30
0.0
  0
VERTEX
  5
2CC0
330
2CAD
100
AcDbEntity
  8
1_10
 62
     7
370
     9
100
AcDbVertex
100
AcDb2dVertex
 10
363.9426577647409
 20
836.3784504534544
 30
0.0
  0
VERTEX
  5
2CC1
330
2CAD
100
AcDbEntity
  8
1_10
 62
     7
370
     9
100
AcDbVertex
100
AcDb2dVertex
 10
364.9648516091839
 20
836.535980326742
 30
0.0
  0
VERTEX
  5
2CC2
330
2CAD
100
AcDbEntity
  8
1_10
 62
     7
370
     9
100
AcDbVertex
100
AcDb2dVertex
 10
365.987045453627
 20
836.9245540141844
 30
0.0
  0
VERTEX
  5
2CC3
330
2CAD
100
AcDbEntity
  8
1_10
 62
     7
370
     9
100
AcDbVertex
100
AcDb2dVertex
 10
366.8534597567077
 20
837.5581741711851
 30
0.0
  0
VERTEX
  5
2CC4
330
2CAD
100
AcDbEntity
  8
1_10
 62
     7
370
     9
100
AcDbVertex
100
AcDb2dVertex
 10
367.4818289179321
 20
838.4193374784898
 30
0.0
  0
VERTEX
  5
2CC5
330
2CAD
100
AcDbEntity
  8
1_10
 62
     7
370
     9
100
AcDbVertex
100
AcDb2dVertex
 10
367.8756536011506
 20
839.3645167182144
 30
0.0
  0
VERTEX
  5
2CC6
330
2CAD
100
AcDbEntity
  8
1_10
 62
     7
370
     9
100
AcDbVertex
100
AcDb2dVertex
 10
368.0314331425128
 20
840.4637251673755
 30
0.0
  0
SEQEND
  5
2CC7
330
2CAD
100
AcDbEntity
  8
1_10
370
     9
  0
POLYLINE
  5
2CC8
330
A
100
AcDbEntity
  8
1_10
 62
     7
370
     9
100
AcDb2dPolyline
 66
     1
 10
0.0
 20
0.0
 30
0.0
  0
VERTEX
  5
2CC9
330
2CC8
100
AcDbEntity
  8
1_10
 62
     7
370
     9
100
AcDbVertex
100
AcDb2dVertex
 10
377.7020170304363
 20
845.021589501159
 30
0.0
  0
VERTEX
  5
2CCA
330
2CC8
100
AcDbEntity
  8
1_10
 62
     7
370
     9
100
AcDbVertex
100
AcDb2dVertex
 10
358.3625995865146
 20
845.021589501159
 30
0.0
  0
SEQEND
  5
2CCB
330
2CC8
100
AcDbEntity
  8
1_10
370
     9
  0
POLYLINE
  5
2CCC
330
A
100
AcDbEntity
  8
1_10
 62
     7
370
     9
100
AcDb2dPolyline
 66
     1
 10
0.0
 20
0.0
 30
0.0
  0
VERTEX
  5
2CCD
330
2CCC
100
AcDbEntity
  8
1_10
 62
     7
370
     9
100
AcDbVertex
100
AcDb2dVertex
 10
358.3625995865146
 20
835.9023601697415
 30
0.0
  0
VERTEX
  5
2CCE
330
2CCC
100
AcDbEntity
  8
1_10
 62
     7
370
     9
100
AcDbVertex
100
AcDb2dVertex
 10
377.7020170304363
 20
835.9023601697415
 30
0.0
  0
SEQEND
  5
2CCF
330
2CCC
100
AcDbEntity
  8
1_10
370
     9
  0
POLYLINE
  5
2CD0
330
A
100
AcDbEntity
  8
1_10
 62
     7
370
     9
100
AcDb2dPolyline
 66
     1
 10
0.0
 20
0.0
 30
0.0
  0
VERTEX
  5
2CD1
330
2CD0
100
AcDbEntity
  8
1_10
 62
     7
370
     9
100
AcDbVertex
100
AcDb2dVertex
 10
360.4052369434752
 20
845.021589501159
 30
0.0
  0
VERTEX
  5
2CD2
330
2CD0
100
AcDbEntity
  8
1_10
 62
     7
370
     9
100
AcDbVertex
100
AcDb2dVertex
 10
359.6210882408888
 20
843.8453664472794
 30
0.0
  0
VERTEX
  5
2CD3
330
2CD0
100
AcDbEntity
  8
1_10
 62
     7
370
     9
100
AcDbVertex
100
AcDb2dVertex
 10
359.1467482891011
 20
842.5081128562615
 30
0.0
  0
VERTEX
  5
2CD4
330
2CD0
100
AcDbEntity
  8
1_10
 62
     7
370
     9
100
AcDbVertex
100
AcDb2dVertex
 10
358.9139541430208
 20
841.1708592652436
 30
0.0
  0
VERTEX
  5
2CD5
330
2CD0
100
AcDbEntity
  8
1_10
 62
     7
370
     9
100
AcDbVertex
100
AcDb2dVertex
 10
358.9139541430208
 20
839.7565910695076
 30
0.0
  0
VERTEX
  5
2CD6
330
2CD0
100
AcDbEntity
  8
1_10
 62
     7
370
     9
100
AcDbVertex
100
AcDb2dVertex
 10
359.1467482891011
 20
838.3423228737713
 30
0.0
  0
VERTEX
  5
2CD7
330
2CD0
100
AcDbEntity
  8
1_10
 62
     7
370
     9
100
AcDbVertex
100
AcDb2dVertex
 10
359.6210882408888
 20
837.0820838874719
 30
0.0
  0
VERTEX
  5
2CD8
330
2CD0
100
AcDbEntity
  8
1_10
 62
     7
370
     9
100
AcDbVertex
100
AcDb2dVertex
 10
360.4052369434752
 20
835.9023601697415
 30
0.0
  0
SEQEND
  5
2CD9
330
2CD0
100
AcDbEntity
  8
1_10
370
     9
  0
POLYLINE
  5
2CDA
330
A
100
AcDbEntity
  8
1_10
 62
     7
370
     9
100
AcDb2dPolyline
 66
     1
 10
0.0
 20
0.0
 30
0.0
  0
VERTEX
  5
2CDB
330
2CDA
100
AcDbEntity
  8
1_10
 62
     7
370
     9
100
AcDbVertex
100
AcDb2dVertex
 10
358.3625995865146
 20
845.021589501159
 30
0.0
  0
VERTEX
  5
2CDC
330
2CDA
100
AcDbEntity
  8
1_10
 62
     7
370
     9
100
AcDbVertex
100
AcDb2dVertex
 10
358.3625995865146
 20
835.9023601697415
 30
0.0
  0
SEQEND
  5
2CDD
330
2CDA
100
AcDbEntity
  8
1_10
370
     9
  0
POLYLINE
  5
2CDE
330
A
100
AcDbEntity
  8
1_10
 62
     7
370
     9
100
AcDb2dPolyline
 66
     1
 10
0.0
 20
0.0
 30
0.0
  0
VERTEX
  5
2CDF
330
2CDE
100
AcDbEntity
  8
1_10
 62
     7
370
     9
100
AcDbVertex
100
AcDb2dVertex
 10
375.6576293415505
 20
835.9023601697415
 30
0.0
  0
VERTEX
  5
2CE0
330
2CDE
100
AcDbEntity
  8
1_10
 62
     7
370
     9
100
AcDbVertex
100
AcDb2dVertex
 10
376.3665137713439
 20
837.0820838874719
 30
0.0
  0
VERTEX
  5
2CE1
330
2CDE
100
AcDbEntity
  8
1_10
 62
     7
370
     9
100
AcDbVertex
100
AcDb2dVertex
 10
376.8373530592808
 20
838.3423228737713
 30
0.0
  0
VERTEX
  5
2CE2
330
2CDE
100
AcDbEntity
  8
1_10
 62
     7
370
     9
100
AcDbVertex
100
AcDb2dVertex
 10
377.1506624739301
 20
839.7565910695076
 30
0.0
  0
VERTEX
  5
2CE3
330
2CDE
100
AcDbEntity
  8
1_10
 62
     7
370
     9
100
AcDbVertex
100
AcDb2dVertex
 10
377.1506624739301
 20
841.1708592652436
 30
0.0
  0
VERTEX
  5
2CE4
330
2CDE
100
AcDbEntity
  8
1_10
 62
     7
370
     9
100
AcDbVertex
100
AcDb2dVertex
 10
376.8373530592808
 20
842.5081128562615
 30
0.0
  0
VERTEX
  5
2CE5
330
2CDE
100
AcDbEntity
  8
1_10
 62
     7
370
     9
100
AcDbVertex
100
AcDb2dVertex
 10
376.3665137713439
 20
843.8453664472794
 30
0.0
  0
VERTEX
  5
2CE6
330
2CDE
100
AcDbEntity
  8
1_10
 62
     7
370
     9
100
AcDbVertex
100
AcDb2dVertex
 10
375.6576293415505
 20
845.021589501159
 30
0.0
  0
SEQEND
  5
2CE7
330
2CDE
100
AcDbEntity
  8
1_10
370
     9
  0
POLYLINE
  5
2CE8
330
A
100
AcDbEntity
  8
1_10
 62
     7
370
     9
100
AcDb2dPolyline
 66
     1
 10
0.0
 20
0.0
 30
0.0
  0
VERTEX
  5
2CE9
330
2CE8
100
AcDbEntity
  8
1_10
 62
     7
370
     9
100
AcDbVertex
100
AcDb2dVertex
 10
377.7020170304363
 20
838.184793000484
 30
0.0
  0
VERTEX
  5
2CEA
330
2CE8
100
AcDbEntity
  8
1_10
 62
     7
370
     9
100
AcDbVertex
100
AcDb2dVertex
 10
378.8817407481667
 20
838.184793000484
 30
0.0
  0
SEQEND
  5
2CEB
330
2CE8
100
AcDbEntity
  8
1_10
370
     9
  0
POLYLINE
  5
2CEC
330
A
100
AcDbEntity
  8
1_10
 62
     7
370
     9
100
AcDb2dPolyline
 66
     1
 10
0.0
 20
0.0
 30
0.0
  0
VERTEX
  5
2CED
330
2CEC
100
AcDbEntity
  8
1_10
 62
     7
370
     9
100
AcDbVertex
100
AcDb2dVertex
 10
381.2289358601496
 20
843.999395656716
 30
0.0
  0
VERTEX
  5
2CEE
330
2CEC
100
AcDbEntity
  8
1_10
 62
     7
370
     9
100
AcDbVertex
100
AcDb2dVertex
 10
378.8817407481667
 20
843.999395656716
 30
0.0
  0
SEQEND
  5
2CEF
330
2CEC
100
AcDbEntity
  8
1_10
370
     9
  0
POLYLINE
  5
2CF0
330
A
100
AcDbEntity
  8
1_10
 62
     7
370
     9
100
AcDb2dPolyline
 66
     1
 10
0.0
 20
0.0
 30
0.0
  0
VERTEX
  5
2CF1
330
2CF0
100
AcDbEntity
  8
1_10
 62
     7
370
     9
100
AcDbVertex
100
AcDb2dVertex
 10
381.2289358601496
 20
842.1930531096866
 30
0.0
  0
VERTEX
  5
2CF2
330
2CF0
100
AcDbEntity
  8
1_10
 62
     7
370
     9
100
AcDbVertex
100
AcDb2dVertex
 10
378.8817407481667
 20
842.1930531096866
 30
0.0
  0
SEQEND
  5
2CF3
330
2CF0
100
AcDbEntity
  8
1_10
370
     9
  0
POLYLINE
  5
2CF4
330
A
100
AcDbEntity
  8
1_10
 62
     7
370
     9
100
AcDb2dPolyline
 66
     1
 10
0.0
 20
0.0
 30
0.0
  0
VERTEX
  5
2CF5
330
2CF4
100
AcDbEntity
  8
1_10
 62
     7
370
     9
100
AcDbVertex
100
AcDb2dVertex
 10
381.0609039953097
 20
840.9328141233871
 30
0.0
  0
VERTEX
  5
2CF6
330
2CF4
100
AcDbEntity
  8
1_10
 62
     7
370
     9
100
AcDbVertex
100
AcDb2dVertex
 10
380.2960089439028
 20
840.9328141233871
 30
0.0
  0
SEQEND
  5
2CF7
330
2CF4
100
AcDbEntity
  8
1_10
370
     9
  0
POLYLINE
  5
2CF8
330
A
100
AcDbEntity
  8
1_10
 62
     7
370
     9
100
AcDb2dPolyline
 66
     1
 10
0.0
 20
0.0
 30
0.0
  0
VERTEX
  5
2CF9
330
2CF8
100
AcDbEntity
  8
1_10
 62
     7
370
     9
100
AcDbVertex
100
AcDb2dVertex
 10
381.0609039953097
 20
839.9106202789442
 30
0.0
  0
VERTEX
  5
2CFA
330
2CF8
100
AcDbEntity
  8
1_10
 62
     7
370
     9
100
AcDbVertex
100
AcDb2dVertex
 10
380.2960089439028
 20
839.9106202789442
 30
0.0
  0
SEQEND
  5
2CFB
330
2CF8
100
AcDbEntity
  8
1_10
370
     9
  0
POLYLINE
  5
2CFC
330
A
100
AcDbEntity
  8
1_10
 62
     7
370
     9
100
AcDb2dPolyline
 66
     1
 10
0.0
 20
0.0
 30
0.0
  0
VERTEX
  5
2CFD
330
2CFC
100
AcDbEntity
  8
1_10
 62
     7
370
     9
100
AcDbVertex
100
AcDb2dVertex
 10
381.0609039953097
 20
838.6573826203464
 30
0.0
  0
VERTEX
  5
2CFE
330
2CFC
100
AcDbEntity
  8
1_10
 62
     7
370
     9
100
AcDbVertex
100
AcDb2dVertex
 10
378.8817407481667
 20
838.6573826203464
 30
0.0
  0
SEQEND
  5
2CFF
330
2CFC
100
AcDbEntity
  8
1_10
370
     9
  0
POLYLINE
  5
2D00
330
A
100
AcDbEntity
  8
1_10
 62
     7
370
     9
100
AcDb2dPolyline
 66
     1
 10
0.0
 20
0.0
 30
0.0
  0
VERTEX
  5
2D01
330
2D00
100
AcDbEntity
  8
1_10
 62
     7
370
     9
100
AcDbVertex
100
AcDb2dVertex
 10
381.2289358601496
 20
836.9245540141844
 30
0.0
  0
VERTEX
  5
2D02
330
2D00
100
AcDbEntity
  8
1_10
 62
     7
370
     9
100
AcDbVertex
100
AcDb2dVertex
 10
378.8817407481667
 20
836.9245540141844
 30
0.0
  0
SEQEND
  5
2D03
330
2D00
100
AcDbEntity
  8
1_10
370
     9
  0
POLYLINE
  5
2D04
330
A
100
AcDbEntity
  8
1_10
 62
     7
370
     9
100
AcDb2dPolyline
 66
     1
 10
0.0
 20
0.0
 30
0.0
  0
VERTEX
  5
2D05
330
2D04
100
AcDbEntity
  8
1_10
 62
     7
370
     9
100
AcDbVertex
100
AcDb2dVertex
 10
380.2960089439028
 20
840.9328141233871
 30
0.0
  0
VERTEX
  5
2D06
330
2D04
100
AcDbEntity
  8
1_10
 62
     7
370
     9
100
AcDbVertex
100
AcDb2dVertex
 10
380.2960089439028
 20
839.9106202789442
 30
0.0
  0
SEQEND
  5
2D07
330
2D04
100
AcDbEntity
  8
1_10
370
     9
  0
POLYLINE
  5
2D08
330
A
100
AcDbEntity
  8
1_10
 62
     7
370
     9
100
AcDb2dPolyline
 66
     1
 10
0.0
 20
0.0
 30
0.0
  0
VERTEX
  5
2D09
330
2D08
100
AcDbEntity
  8
1_10
 62
     7
370
     9
100
AcDbVertex
100
AcDb2dVertex
 10
377.7020170304363
 20
835.9023601697415
 30
0.0
  0
VERTEX
  5
2D0A
330
2D08
100
AcDbEntity
  8
1_10
 62
     7
370
     9
100
AcDbVertex
100
AcDb2dVertex
 10
377.7020170304363
 20
845.021589501159
 30
0.0
  0
SEQEND
  5
2D0B
330
2D08
100
AcDbEntity
  8
1_10
370
     9
  0
POLYLINE
  5
2D0C
330
A
100
AcDbEntity
  8
1_10
 62
     7
370
     9
100
AcDb2dPolyline
 66
     1
 10
0.0
 20
0.0
 30
0.0
  0
VERTEX
  5
2D0D
330
2D0C
100
AcDbEntity
  8
1_10
 62
     7
370
     9
100
AcDbVertex
100
AcDb2dVertex
 10
377.7020170304363
 20
842.1125378411175
 30
0.0
  0
VERTEX
  5
2D0E
330
2D0C
100
AcDbEntity
  8
1_10
 62
     7
370
     9
100
AcDbVertex
100
AcDb2dVertex
 10
378.8817407481667
 20
842.1125378411175
 30
0.0
  0
SEQEND
  5
2D0F
330
2D0C
100
AcDbEntity
  8
1_10
370
     9
  0
POLYLINE
  5
2D10
330
A
100
AcDbEntity
  8
1_10
 62
     7
370
     9
100
AcDb2dPolyline
 66
     1
 10
0.0
 20
0.0
 30
0.0
  0
VERTEX
  5
2D11
330
2D10
100
AcDbEntity
  8
1_10
 62
     7
370
     9
100
AcDbVertex
100
AcDb2dVertex
 10
377.7020170304363
 20
838.7378978889153
 30
0.0
  0
VERTEX
  5
2D12
330
2D10
100
AcDbEntity
  8
1_10
 62
     7
370
     9
100
AcDbVertex
100
AcDb2dVertex
 10
378.8817407481667
 20
838.7378978889153
 30
0.0
  0
SEQEND
  5
2D13
330
2D10
100
AcDbEntity
  8
1_10
370
     9
  0
POLYLINE
  5
2D14
330
A
100
AcDbEntity
  8
1_10
 62
     7
370
     9
100
AcDb2dPolyline
 66
     1
 10
0.0
 20
0.0
 30
0.0
  0
VERTEX
  5
2D15
330
2D14
100
AcDbEntity
  8
1_10
 62
     7
370
     9
100
AcDbVertex
100
AcDb2dVertex
 10
378.8817407481667
 20
842.9772018122729
 30
0.0
  0
VERTEX
  5
2D16
330
2D14
100
AcDbEntity
  8
1_10
 62
     7
370
     9
100
AcDbVertex
100
AcDb2dVertex
 10
377.7020170304363
 20
842.9772018122729
 30
0.0
  0
SEQEND
  5
2D17
330
2D14
100
AcDbEntity
  8
1_10
370
     9
  0
POLYLINE
  5
2D18
330
A
100
AcDbEntity
  8
1_10
 62
     7
370
     9
100
AcDb2dPolyline
 66
     1
 10
0.0
 20
0.0
 30
0.0
  0
VERTEX
  5
2D19
330
2D18
100
AcDbEntity
  8
1_10
 62
     7
370
     9
100
AcDbVertex
100
AcDb2dVertex
 10
378.8817407481667
 20
837.9467478586275
 30
0.0
  0
VERTEX
  5
2D1A
330
2D18
100
AcDbEntity
  8
1_10
 62
     7
370
     9
100
AcDbVertex
100
AcDb2dVertex
 10
377.7020170304363
 20
837.9467478586275
 30
0.0
  0
SEQEND
  5
2D1B
330
2D18
100
AcDbEntity
  8
1_10
370
     9
  0
POLYLINE
  5
2D1C
330
A
100
AcDbEntity
  8
1_10
 62
     7
370
     9
100
AcDb2dPolyline
 66
     1
 10
0.0
 20
0.0
 30
0.0
  0
VERTEX
  5
2D1D
330
2D1C
100
AcDbEntity
  8
1_10
 62
     7
370
     9
100
AcDbVertex
100
AcDb2dVertex
 10
378.8817407481667
 20
843.999395656716
 30
0.0
  0
VERTEX
  5
2D1E
330
2D1C
100
AcDbEntity
  8
1_10
 62
     7
370
     9
100
AcDbVertex
100
AcDb2dVertex
 10
378.8817407481667
 20
836.9245540141844
 30
0.0
  0
SEQEND
  5
2D1F
330
2D1C
100
AcDbEntity
  8
1_10
370
     9
  0
POLYLINE
  5
2D20
330
A
100
AcDbEntity
  8
1_10
 62
     7
370
     9
100
AcDb2dPolyline
 66
     1
 10
0.0
 20
0.0
 30
0.0
  0
VERTEX
  5
2D21
330
2D20
100
AcDbEntity
  8
1_10
 62
     7
370
     9
100
AcDbVertex
100
AcDb2dVertex
 10
377.7020170304363
 20
842.7461579981181
 30
0.0
  0
VERTEX
  5
2D22
330
2D20
100
AcDbEntity
  8
1_10
 62
     7
370
     9
100
AcDbVertex
100
AcDb2dVertex
 10
378.8817407481667
 20
842.7461579981181
 30
0.0
  0
SEQEND
  5
2D23
330
2D20
100
AcDbEntity
  8
1_10
370
     9
  0
POLYLINE
  5
2D24
330
A
100
AcDbEntity
  8
1_10
 62
     7
370
     9
100
AcDb2dPolyline
 66
     1
 10
0.0
 20
0.0
 30
0.0
  0
VERTEX
  5
2D25
330
2D24
100
AcDbEntity
  8
1_10
 62
     7
370
     9
100
AcDbVertex
100
AcDb2dVertex
 10
381.2289358601496
 20
842.9807024761237
 30
0.0
  0
VERTEX
  5
2D26
330
2D24
100
AcDbEntity
  8
1_10
 62
     7
370
     9
100
AcDbVertex
100
AcDb2dVertex
 10
578.0521814853882
 20
842.9807024761237
 30
0.0
  0
SEQEND
  5
2D27
330
2D24
100
AcDbEntity
  8
1_10
370
     9
  0
POLYLINE
  5
2D28
330
A
100
AcDbEntity
  8
1_10
 62
     7
370
     9
100
AcDb2dPolyline
 66
     1
 10
0.0
 20
0.0
 30
0.0
  0
VERTEX
  5
2D29
330
2D28
100
AcDbEntity
  8
1_10
 62
     7
370
     9
100
AcDbVertex
100
AcDb2dVertex
 10
381.2289358601496
 20
837.9012392285665
 30
0.0
  0
VERTEX
  5
2D2A
330
2D28
100
AcDbEntity
  8
1_10
 62
     7
370
     9
100
AcDbVertex
100
AcDb2dVertex
 10
578.0521814853882
 20
837.9012392285665
 30
0.0
  0
SEQEND
  5
2D2B
330
2D28
100
AcDbEntity
  8
1_10
370
     9
  0
POLYLINE
  5
2D2C
330
A
100
AcDbEntity
  8
1_10
 62
     7
370
     9
100
AcDb2dPolyline
 66
     1
 10
0.0
 20
0.0
 30
0.0
  0
VERTEX
  5
2D2D
330
2D2C
100
AcDbEntity
  8
1_10
 62
     7
370
     9
100
AcDbVertex
100
AcDb2dVertex
 10
359.7964714998154
 20
1004.971121642296
 30
0.0
  0
VERTEX
  5
2D2E
330
2D2C
100
AcDbEntity
  8
1_10
 62
     7
370
     9
100
AcDbVertex
100
AcDb2dVertex
 10
345.4574712205855
 20
1004.971121642296
 30
0.0
  0
VERTEX
  5
2D2F
330
2D2C
100
AcDbEntity
  8
1_10
 62
     7
370
     9
100
AcDbVertex
100
AcDb2dVertex
 10
345.4574712205855
 20
1010.001575595941
 30
0.0
  0
VERTEX
  5
2D30
330
2D2C
100
AcDbEntity
  8
1_10
 62
     7
370
     9
100
AcDbVertex
100
AcDb2dVertex
 10
359.7964714998154
 20
1010.001575595941
 30
0.0
  0
SEQEND
  5
2D31
330
2D2C
100
AcDbEntity
  8
1_10
370
     9
  0
POLYLINE
  5
2D32
330
A
100
AcDbEntity
  8
1_10
 62
     7
370
     9
100
AcDb2dPolyline
 66
     1
 10
0.0
 20
0.0
 30
0.0
  0
VERTEX
  5
2D33
330
2D32
100
AcDbEntity
  8
1_10
 62
     7
370
     9
100
AcDbVertex
100
AcDb2dVertex
 10
367.1499637969585
 20
1010.005076259792
 30
0.0
  0
VERTEX
  5
2D34
330
2D32
100
AcDbEntity
  8
1_10
 62
     7
370
     9
100
AcDbVertex
100
AcDb2dVertex
 10
578.0521814853882
 20
1010.005076259792
 30
0.0
  0
SEQEND
  5
2D35
330
2D32
100
AcDbEntity
  8
1_10
370
     9
  0
POLYLINE
  5
2D36
330
A
100
AcDbEntity
  8
1_10
 62
     7
370
     9
100
AcDb2dPolyline
 66
     1
 10
0.0
 20
0.0
 30
0.0
  0
VERTEX
  5
2D37
330
2D36
100
AcDbEntity
  8
1_10
 62
     7
370
     9
100
AcDbVertex
100
AcDb2dVertex
 10
367.124652891391
 20
1004.925613012235
 30
0.0
  0
VERTEX
  5
2D38
330
2D36
100
AcDbEntity
  8
1_10
 62
     7
370
     9
100
AcDbVertex
100
AcDb2dVertex
 10
578.0521814853882
 20
1004.925613012235
 30
0.0
  0
SEQEND
  5
2D39
330
2D36
100
AcDbEntity
  8
1_10
370
     9
  0
POLYLINE
  5
2D3A
330
A
100
AcDbEntity
  8
1_10
 62
     7
370
     9
100
AcDb2dPolyline
 66
     1
 10
0.0
 20
0.0
 30
0.0
  0
VERTEX
  5
2D3B
330
2D3A
100
AcDbEntity
  8
1_10
 62
     7
370
     9
100
AcDbVertex
100
AcDb2dVertex
 10
656.2759154977705
 20
868.5002046353005
 30
0.0
  0
VERTEX
  5
2D3C
330
2D3A
100
AcDbEntity
  8
1_10
 62
     7
370
     9
100
AcDbVertex
100
AcDb2dVertex
 10
656.5111601085464
 20
868.5002046353005
 30
0.0
  0
SEQEND
  5
2D3D
330
2D3A
100
AcDbEntity
  8
1_10
370
     9
  0
POLYLINE
  5
2D3E
330
A
100
AcDbEntity
  8
1_10
 62
     7
370
     9
100
AcDb2dPolyline
 66
     1
 10
0.0
 20
0.0
 30
0.0
  0
VERTEX
  5
2D3F
330
2D3E
100
AcDbEntity
  8
1_10
 62
     7
370
     9
100
AcDbVertex
100
AcDb2dVertex
 10
656.745004453782
 20
867.559226192197
 30
0.0
  0
VERTEX
  5
2D40
330
2D3E
100
AcDbEntity
  8
1_10
 62
     7
370
     9
100
AcDbVertex
100
AcDb2dVertex
 10
656.9830495956385
 20
867.559226192197
 30
0.0
  0
SEQEND
  5
2D41
330
2D3E
100
AcDbEntity
  8
1_10
370
     9
  0
POLYLINE
  5
2D42
330
A
100
AcDbEntity
  8
1_10
 62
     7
370
     9
100
AcDb2dPolyline
 66
     1
 10
0.0
 20
0.0
 30
0.0
  0
VERTEX
  5
2D43
330
2D42
100
AcDbEntity
  8
1_10
 62
     7
370
     9
100
AcDbVertex
100
AcDb2dVertex
 10
657.2182942064144
 20
866.6140469524722
 30
0.0
  0
VERTEX
  5
2D44
330
2D42
100
AcDbEntity
  8
1_10
 62
     7
370
     9
100
AcDbVertex
100
AcDb2dVertex
 10
657.4563393482711
 20
866.6140469524722
 30
0.0
  0
SEQEND
  5
2D45
330
2D42
100
AcDbEntity
  8
1_10
370
     9
  0
POLYLINE
  5
2D46
330
A
100
AcDbEntity
  8
1_10
 62
     7
370
     9
100
AcDb2dPolyline
 66
     1
 10
0.0
 20
0.0
 30
0.0
  0
VERTEX
  5
2D47
330
2D46
100
AcDbEntity
  8
1_10
 62
     7
370
     9
100
AcDbVertex
100
AcDb2dVertex
 10
656.745004453782
 20
896.6458920623752
 30
0.0
  0
VERTEX
  5
2D48
330
2D46
100
AcDbEntity
  8
1_10
 62
     7
370
     9
100
AcDbVertex
100
AcDb2dVertex
 10
656.9830495956385
 20
896.6458920623752
 30
0.0
  0
SEQEND
  5
2D49
330
2D46
100
AcDbEntity
  8
1_10
370
     9
  0
POLYLINE
  5
2D4A
330
A
100
AcDbEntity
  8
1_10
 62
     7
370
     9
100
AcDb2dPolyline
 66
     1
 10
0.0
 20
0.0
 30
0.0
  0
VERTEX
  5
2D4B
330
2D4A
100
AcDbEntity
  8
1_10
 62
     7
370
     9
100
AcDbVertex
100
AcDb2dVertex
 10
656.745004453782
 20
894.6785189782076
 30
0.0
  0
VERTEX
  5
2D4C
330
2D4A
100
AcDbEntity
  8
1_10
 62
     7
370
     9
100
AcDbVertex
100
AcDb2dVertex
 10
656.9830495956385
 20
894.6785189782076
 30
0.0
  0
SEQEND
  5
2D4D
330
2D4A
100
AcDbEntity
  8
1_10
370
     9
  0
POLYLINE
  5
2D4E
330
A
100
AcDbEntity
  8
1_10
 62
     7
370
     9
100
AcDb2dPolyline
 66
     1
 10
0.0
 20
0.0
 30
0.0
  0
VERTEX
  5
2D4F
330
2D4E
100
AcDbEntity
  8
1_10
 62
     7
370
     9
100
AcDbVertex
100
AcDb2dVertex
 10
620.9024074178831
 20
888.3913267021134
 30
0.0
  0
VERTEX
  5
2D50
330
2D4E
100
AcDbEntity
  8
1_10
 62
     7
370
     9
100
AcDbVertex
100
AcDb2dVertex
 10
630.0209366165302
 20
888.3913267021134
 30
0.0
  0
SEQEND
  5
2D51
330
2D4E
100
AcDbEntity
  8
1_10
370
     9
  0
POLYLINE
  5
2D52
330
A
100
AcDbEntity
  8
1_10
 62
     7
370
     9
100
AcDb2dPolyline
 66
     1
 10
0.0
 20
0.0
 30
0.0
  0
VERTEX
  5
2D53
330
2D52
100
AcDbEntity
  8
1_10
 62
     7
370
     9
100
AcDbVertex
100
AcDb2dVertex
 10
645.5050729615305
 20
908.201933500357
 30
0.0
  0
VERTEX
  5
2D54
330
2D52
100
AcDbEntity
  8
1_10
 62
     7
370
     9
100
AcDbVertex
100
AcDb2dVertex
 10
640.6321488811723
 20
909.3011419495183
 30
0.0
  0
VERTEX
  5
2D55
330
2D52
100
AcDbEntity
  8
1_10
 62
     7
370
     9
100
AcDbVertex
100
AcDb2dVertex
 10
635.5981942636756
 20
910.0887913159552
 30
0.0
  0
VERTEX
  5
2D56
330
2D52
100
AcDbEntity
  8
1_10
 62
     7
370
     9
100
AcDbVertex
100
AcDb2dVertex
 10
630.56704017726
 20
910.557880271967
 30
0.0
  0
VERTEX
  5
2D57
330
2D52
100
AcDbEntity
  8
1_10
 62
     7
370
     9
100
AcDbVertex
100
AcDb2dVertex
 10
625.4602717516661
 20
910.7189108091052
 30
0.0
  0
VERTEX
  5
2D58
330
2D52
100
AcDbEntity
  8
1_10
 62
     7
370
     9
100
AcDbVertex
100
AcDb2dVertex
 10
620.4291176652505
 20
910.557880271967
 30
0.0
  0
VERTEX
  5
2D59
330
2D52
100
AcDbEntity
  8
1_10
 62
     7
370
     9
100
AcDbVertex
100
AcDb2dVertex
 10
615.4007641099154
 20
910.0887913159552
 30
0.0
  0
VERTEX
  5
2D5A
330
2D52
100
AcDbEntity
  8
1_10
 62
     7
370
     9
100
AcDbVertex
100
AcDb2dVertex
 10
610.3633088285678
 20
909.3011419495183
 30
0.0
  0
VERTEX
  5
2D5B
330
2D52
100
AcDbEntity
  8
1_10
 62
     7
370
     9
100
AcDbVertex
100
AcDb2dVertex
 10
605.4168708073423
 20
908.201933500357
 30
0.0
  0
VERTEX
  5
2D5C
330
2D52
100
AcDbEntity
  8
1_10
 62
     7
370
     9
100
AcDbVertex
100
AcDb2dVertex
 10
645.5050729615305
 20
908.201933500357
 30
0.0
  0
SEQEND
  5
2D5D
330
2D52
100
AcDbEntity
  8
1_10
370
     9
  0
POLYLINE
  5
2D5E
330
A
100
AcDbEntity
  8
1_10
 62
     7
370
     9
100
AcDb2dPolyline
 66
     1
 10
0.0
 20
0.0
 30
0.0
  0
VERTEX
  5
2D5F
330
2D5E
100
AcDbEntity
  8
1_10
 62
     7
370
     9
100
AcDbVertex
100
AcDb2dVertex
 10
593.4656044206017
 20
863.7084959562816
 30
0.0
  0
VERTEX
  5
2D60
330
2D5E
100
AcDbEntity
  8
1_10
 62
     7
370
     9
100
AcDbVertex
100
AcDb2dVertex
 10
657.4563393482711
 20
863.7084959562816
 30
0.0
  0
SEQEND
  5
2D61
330
2D5E
100
AcDbEntity
  8
1_10
370
     9
  0
POLYLINE
  5
2D62
330
A
100
AcDbEntity
  8
1_10
 62
     7
370
     9
100
AcDb2dPolyline
 66
     1
 10
0.0
 20
0.0
 30
0.0
  0
VERTEX
  5
2D63
330
2D62
100
AcDbEntity
  8
1_10
 62
     7
370
     9
100
AcDbVertex
100
AcDb2dVertex
 10
597.5543797983735
 20
869.7604436216001
 30
0.0
  0
VERTEX
  5
2D64
330
2D62
100
AcDbEntity
  8
1_10
 62
     7
370
     9
100
AcDbVertex
100
AcDb2dVertex
 10
653.4403777785965
 20
869.7604436216001
 30
0.0
  0
SEQEND
  5
2D65
330
2D62
100
AcDbEntity
  8
1_10
370
     9
  0
POLYLINE
  5
2D66
330
A
100
AcDbEntity
  8
1_10
 62
     7
370
     9
100
AcDb2dPolyline
 66
     1
 10
0.0
 20
0.0
 30
0.0
  0
VERTEX
  5
2D67
330
2D66
100
AcDbEntity
  8
1_10
 62
     7
370
     9
100
AcDbVertex
100
AcDb2dVertex
 10
591.9708209562964
 20
830.0457495472995
 30
0.0
  0
VERTEX
  5
2D68
330
2D66
100
AcDbEntity
  8
1_10
 62
     7
370
     9
100
AcDbVertex
100
AcDb2dVertex
 10
646.9963557619851
 20
830.0457495472995
 30
0.0
  0
SEQEND
  5
2D69
330
2D66
100
AcDbEntity
  8
1_10
370
     9
  0
POLYLINE
  5
2D6A
330
A
100
AcDbEntity
  8
1_10
 62
     7
370
     9
100
AcDb2dPolyline
 66
     1
 10
0.0
 20
0.0
 30
0.0
  0
VERTEX
  5
2D6B
330
2D6A
100
AcDbEntity
  8
1_10
 62
     7
370
     9
100
AcDbVertex
100
AcDb2dVertex
 10
605.6479146214972
 20
818.7084959562816
 30
0.0
  0
VERTEX
  5
2D6C
330
2D6A
100
AcDbEntity
  8
1_10
 62
     7
370
     9
100
AcDbVertex
100
AcDb2dVertex
 10
645.2670278196738
 20
818.7084959562816
 30
0.0
  0
SEQEND
  5
2D6D
330
2D6A
100
AcDbEntity
  8
1_10
370
     9
  0
POLYLINE
  5
2D6E
330
A
100
AcDbEntity
  8
1_10
 62
     7
370
     9
100
AcDb2dPolyline
 66
     1
 10
0.0
 20
0.0
 30
0.0
  0
VERTEX
  5
2D6F
330
2D6E
100
AcDbEntity
  8
1_10
 62
     7
370
     9
100
AcDbVertex
100
AcDb2dVertex
 10
604.1531311571919
 20
820.2802940253051
 30
0.0
  0
VERTEX
  5
2D70
330
2D6E
100
AcDbEntity
  8
1_10
 62
     7
370
     9
100
AcDbVertex
100
AcDb2dVertex
 10
646.8423265525482
 20
820.2802940253051
 30
0.0
  0
SEQEND
  5
2D71
330
2D6E
100
AcDbEntity
  8
1_10
370
     9
  0
POLYLINE
  5
2D72
330
A
100
AcDbEntity
  8
1_10
 62
     7
370
     9
100
AcDb2dPolyline
 66
     1
 10
0.0
 20
0.0
 30
0.0
  0
VERTEX
  5
2D73
330
2D72
100
AcDbEntity
  8
1_10
 62
     7
370
     9
100
AcDbVertex
100
AcDb2dVertex
 10
604.1531311571919
 20
828.7084959562816
 30
0.0
  0
VERTEX
  5
2D74
330
2D72
100
AcDbEntity
  8
1_10
 62
     7
370
     9
100
AcDbVertex
100
AcDb2dVertex
 10
646.8423265525482
 20
828.7084959562816
 30
0.0
  0
SEQEND
  5
2D75
330
2D72
100
AcDbEntity
  8
1_10
370
     9
  0
POLYLINE
  5
2D76
330
A
100
AcDbEntity
  8
1_10
 62
     7
370
     9
100
AcDb2dPolyline
 66
     1
 10
0.0
 20
0.0
 30
0.0
  0
VERTEX
  5
2D77
330
2D76
100
AcDbEntity
  8
1_10
 62
     7
370
     9
100
AcDbVertex
100
AcDb2dVertex
 10
620.9024074178831
 20
876.1285012326487
 30
0.0
  0
VERTEX
  5
2D78
330
2D76
100
AcDbEntity
  8
1_10
 62
     7
370
     9
100
AcDbVertex
100
AcDb2dVertex
 10
630.0209366165302
 20
876.1285012326487
 30
0.0
  0
SEQEND
  5
2D79
330
2D76
100
AcDbEntity
  8
1_10
370
     9
  0
POLYLINE
  5
2D7A
330
A
100
AcDbEntity
  8
1_10
 62
     7
370
     9
100
AcDb2dPolyline
 66
     1
 10
0.0
 20
0.0
 30
0.0
  0
VERTEX
  5
2D7B
330
2D7A
100
AcDbEntity
  8
1_10
 62
     7
370
     9
100
AcDbVertex
100
AcDb2dVertex
 10
603.130937312749
 20
861.6641082673957
 30
0.0
  0
VERTEX
  5
2D7C
330
2D7A
100
AcDbEntity
  8
1_10
 62
     7
370
     9
100
AcDbVertex
100
AcDb2dVertex
 10
647.8645203969913
 20
861.6641082673957
 30
0.0
  0
SEQEND
  5
2D7D
330
2D7A
100
AcDbEntity
  8
1_10
370
     9
  0
POLYLINE
  5
2D7E
330
A
100
AcDbEntity
  8
1_10
 62
     7
370
     9
100
AcDb2dPolyline
 66
     1
 10
0.0
 20
0.0
 30
0.0
  0
VERTEX
  5
2D7F
330
2D7E
100
AcDbEntity
  8
1_10
 62
     7
370
     9
100
AcDbVertex
100
AcDb2dVertex
 10
656.9830495956385
 20
897.5105560335307
 30
0.0
  0
VERTEX
  5
2D80
330
2D7E
100
AcDbEntity
  8
1_10
 62
     7
370
     9
100
AcDbVertex
100
AcDb2dVertex
 10
594.0152086451824
 20
897.5105560335307
 30
0.0
  0
SEQEND
  5
2D81
330
2D7E
100
AcDbEntity
  8
1_10
370
     9
  0
POLYLINE
  5
2D82
330
A
100
AcDbEntity
  8
1_10
 62
     7
370
     9
100
AcDb2dPolyline
 66
     1
 10
0.0
 20
0.0
 30
0.0
  0
VERTEX
  5
2D83
330
2D82
100
AcDbEntity
  8
1_10
 62
     7
370
     9
100
AcDbVertex
100
AcDb2dVertex
 10
594.0152086451824
 20
891.9269971914537
 30
0.0
  0
VERTEX
  5
2D84
330
2D82
100
AcDbEntity
  8
1_10
 62
     7
370
     9
100
AcDbVertex
100
AcDb2dVertex
 10
656.9830495956385
 20
891.9269971914537
 30
0.0
  0
SEQEND
  5
2D85
330
2D82
100
AcDbEntity
  8
1_10
370
     9
  0
POLYLINE
  5
2D86
330
A
100
AcDbEntity
  8
1_10
 62
     7
370
     9
100
AcDb2dPolyline
 66
     1
 10
0.0
 20
0.0
 30
0.0
  0
VERTEX
  5
2D87
330
2D86
100
AcDbEntity
  8
1_10
 62
     7
370
     9
100
AcDbVertex
100
AcDb2dVertex
 10
593.4656044206017
 20
905.6044409230395
 30
0.0
  0
VERTEX
  5
2D88
330
2D86
100
AcDbEntity
  8
1_10
 62
     7
370
     9
100
AcDbVertex
100
AcDb2dVertex
 10
657.4563393482711
 20
905.6044409230395
 30
0.0
  0
SEQEND
  5
2D89
330
2D86
100
AcDbEntity
  8
1_10
370
     9
  0
POLYLINE
  5
2D8A
330
A
100
AcDbEntity
  8
1_10
 62
     7
370
     9
100
AcDb2dPolyline
 66
     1
 10
0.0
 20
0.0
 30
0.0
  0
VERTEX
  5
2D8B
330
2D8A
100
AcDbEntity
  8
1_10
 62
     7
370
     9
100
AcDbVertex
100
AcDb2dVertex
 10
594.0152086451824
 20
906.6301354313334
 30
0.0
  0
VERTEX
  5
2D8C
330
2D8A
100
AcDbEntity
  8
1_10
 62
     7
370
     9
100
AcDbVertex
100
AcDb2dVertex
 10
656.9830495956385
 20
906.6301354313334
 30
0.0
  0
SEQEND
  5
2D8D
330
2D8A
100
AcDbEntity
  8
1_10
370
     9
  0
POLYLINE
  5
2D8E
330
A
100
AcDbEntity
  8
1_10
 62
     7
370
     9
100
AcDb2dPolyline
 66
     1
 10
0.0
 20
0.0
 30
0.0
  0
VERTEX
  5
2D8F
330
2D8E
100
AcDbEntity
  8
1_10
 62
     7
370
     9
100
AcDbVertex
100
AcDb2dVertex
 10
602.9804087671632
 20
830.0457495472995
 30
0.0
  0
VERTEX
  5
2D90
330
2D8E
100
AcDbEntity
  8
1_10
 62
     7
370
     9
100
AcDbVertex
100
AcDb2dVertex
 10
604.2336464257612
 20
832.2483672422431
 30
0.0
  0
VERTEX
  5
2D91
330
2D8E
100
AcDbEntity
  8
1_10
 62
     7
370
     9
100
AcDbVertex
100
AcDb2dVertex
 10
605.1788256654856
 20
834.5265992763645
 30
0.0
  0
VERTEX
  5
2D92
330
2D8E
100
AcDbEntity
  8
1_10
 62
     7
370
     9
100
AcDbVertex
100
AcDb2dVertex
 10
605.8089451586354
 20
836.9630613165436
 30
0.0
  0
VERTEX
  5
2D93
330
2D8E
100
AcDbEntity
  8
1_10
 62
     7
370
     9
100
AcDbVertex
100
AcDb2dVertex
 10
606.1240049052103
 20
839.480738758062
 30
0.0
  0
VERTEX
  5
2D94
330
2D8E
100
AcDbEntity
  8
1_10
 62
     7
370
     9
100
AcDbVertex
100
AcDb2dVertex
 10
606.1240049052103
 20
841.9942154029593
 30
0.0
  0
VERTEX
  5
2D95
330
2D8E
100
AcDbEntity
  8
1_10
 62
     7
370
     9
100
AcDbVertex
100
AcDb2dVertex
 10
605.7284298900663
 20
844.5104925789376
 30
0.0
  0
VERTEX
  5
2D96
330
2D8E
100
AcDbEntity
  8
1_10
 62
     7
370
     9
100
AcDbVertex
100
AcDb2dVertex
 10
605.0212957921983
 20
846.8699400143984
 30
0.0
  0
VERTEX
  5
2D97
330
2D8E
100
AcDbEntity
  8
1_10
 62
     7
370
     9
100
AcDbVertex
100
AcDb2dVertex
 10
603.9991019477552
 20
849.2265869187784
 30
0.0
  0
VERTEX
  5
2D98
330
2D8E
100
AcDbEntity
  8
1_10
 62
     7
370
     9
100
AcDbVertex
100
AcDb2dVertex
 10
602.6618483567377
 20
851.3479892123827
 30
0.0
  0
SEQEND
  5
2D99
330
2D8E
100
AcDbEntity
  8
1_10
370
     9
  0
POLYLINE
  5
2D9A
330
A
100
AcDbEntity
  8
1_10
 62
     7
370
     9
100
AcDb2dPolyline
 66
     1
 10
0.0
 20
0.0
 30
0.0
  0
VERTEX
  5
2D9B
330
2D9A
100
AcDbEntity
  8
1_10
 62
     7
370
     9
100
AcDbVertex
100
AcDb2dVertex
 10
578.0521814853882
 20
837.1212913226012
 30
0.0
  0
VERTEX
  5
2D9C
330
2D9A
100
AcDbEntity
  8
1_10
 62
     7
370
     9
100
AcDbVertex
100
AcDb2dVertex
 10
578.8433315156763
 20
836.1761120828767
 30
0.0
  0
VERTEX
  5
2D9D
330
2D9A
100
AcDbEntity
  8
1_10
 62
     7
370
     9
100
AcDbVertex
100
AcDb2dVertex
 10
579.7850100915502
 20
835.3919633802902
 30
0.0
  0
SEQEND
  5
2D9E
330
2D9A
100
AcDbEntity
  8
1_10
370
     9
  0
POLYLINE
  5
2D9F
330
A
100
AcDbEntity
  8
1_10
 62
     7
370
     9
100
AcDb2dPolyline
 66
     1
 10
0.0
 20
0.0
 30
0.0
  0
VERTEX
  5
2DA0
330
2D9F
100
AcDbEntity
  8
1_10
 62
     7
370
     9
100
AcDbVertex
100
AcDb2dVertex
 10
594.960387884907
 20
830.0457495472995
 30
0.0
  0
VERTEX
  5
2DA1
330
2D9F
100
AcDbEntity
  8
1_10
 62
     7
370
     9
100
AcDbVertex
100
AcDb2dVertex
 10
594.960387884907
 20
850.878900256371
 30
0.0
  0
SEQEND
  5
2DA2
330
2D9F
100
AcDbEntity
  8
1_10
370
     9
  0
POLYLINE
  5
2DA3
330
A
100
AcDbEntity
  8
1_10
 62
     7
370
     9
100
AcDb2dPolyline
 66
     1
 10
0.0
 20
0.0
 30
0.0
  0
VERTEX
  5
2DA4
330
2DA3
100
AcDbEntity
  8
1_10
 62
     7
370
     9
100
AcDbVertex
100
AcDb2dVertex
 10
591.9708209562964
 20
851.901094100814
 30
0.0
  0
VERTEX
  5
2DA5
330
2DA3
100
AcDbEntity
  8
1_10
 62
     7
370
     9
100
AcDbVertex
100
AcDb2dVertex
 10
591.9708209562964
 20
829.0235557028566
 30
0.0
  0
SEQEND
  5
2DA6
330
2DA3
100
AcDbEntity
  8
1_10
370
     9
  0
POLYLINE
  5
2DA7
330
A
100
AcDbEntity
  8
1_10
 62
     7
370
     9
100
AcDb2dPolyline
 66
     1
 10
0.0
 20
0.0
 30
0.0
  0
VERTEX
  5
2DA8
330
2DA7
100
AcDbEntity
  8
1_10
 62
     7
370
     9
100
AcDbVertex
100
AcDb2dVertex
 10
588.9042394229677
 20
852.2889676554862
 30
0.0
  0
VERTEX
  5
2DA9
330
2DA7
100
AcDbEntity
  8
1_10
 62
     7
370
     9
100
AcDbVertex
100
AcDb2dVertex
 10
588.9042394229677
 20
828.7084959562816
 30
0.0
  0
SEQEND
  5
2DAA
330
2DA7
100
AcDbEntity
  8
1_10
370
     9
  0
POLYLINE
  5
2DAB
330
A
100
AcDbEntity
  8
1_10
 62
     7
370
     9
100
AcDb2dPolyline
 66
     1
 10
0.0
 20
0.0
 30
0.0
  0
VERTEX
  5
2DAC
330
2DAB
100
AcDbEntity
  8
1_10
 62
     7
370
     9
100
AcDbVertex
100
AcDb2dVertex
 10
579.7850100915502
 20
830.5918531080292
 30
0.0
  0
VERTEX
  5
2DAD
330
2DAB
100
AcDbEntity
  8
1_10
 62
     7
370
     9
100
AcDbVertex
100
AcDb2dVertex
 10
579.7850100915502
 20
850.4056105037387
 30
0.0
  0
SEQEND
  5
2DAE
330
2DAB
100
AcDbEntity
  8
1_10
370
     9
  0
POLYLINE
  5
2DAF
330
A
100
AcDbEntity
  8
1_10
 62
     7
370
     9
100
AcDb2dPolyline
 66
     1
 10
0.0
 20
0.0
 30
0.0
  0
VERTEX
  5
2DB0
330
2DAF
100
AcDbEntity
  8
1_10
 62
     7
370
     9
100
AcDbVertex
100
AcDb2dVertex
 10
582.7745770201607
 20
852.2889676554862
 30
0.0
  0
VERTEX
  5
2DB1
330
2DAF
100
AcDbEntity
  8
1_10
 62
     7
370
     9
100
AcDbVertex
100
AcDb2dVertex
 10
582.7745770201607
 20
828.7084959562816
 30
0.0
  0
SEQEND
  5
2DB2
330
2DAF
100
AcDbEntity
  8
1_10
370
     9
  0
POLYLINE
  5
2DB3
330
A
100
AcDbEntity
  8
1_10
 62
     7
370
     9
100
AcDb2dPolyline
 66
     1
 10
0.0
 20
0.0
 30
0.0
  0
VERTEX
  5
2DB4
330
2DB3
100
AcDbEntity
  8
1_10
 62
     7
370
     9
100
AcDbVertex
100
AcDb2dVertex
 10
579.7850100915502
 20
830.5918531080292
 30
0.0
  0
VERTEX
  5
2DB5
330
2DB3
100
AcDbEntity
  8
1_10
 62
     7
370
     9
100
AcDbVertex
100
AcDb2dVertex
 10
579.8655253601191
 20
829.9659344115005
 30
0.0
  0
VERTEX
  5
2DB6
330
2DB3
100
AcDbEntity
  8
1_10
 62
     7
370
     9
100
AcDbVertex
100
AcDb2dVertex
 10
580.1770844428434
 20
829.4926446588679
 30
0.0
  0
VERTEX
  5
2DB7
330
2DB3
100
AcDbEntity
  8
1_10
 62
     7
370
     9
100
AcDbVertex
100
AcDb2dVertex
 10
580.7301893312749
 20
829.1810855761441
 30
0.0
  0
VERTEX
  5
2DB8
330
2DB3
100
AcDbEntity
  8
1_10
 62
     7
370
     9
100
AcDbVertex
100
AcDb2dVertex
 10
581.2762928920047
 20
829.0235557028566
 30
0.0
  0
SEQEND
  5
2DB9
330
2DB3
100
AcDbEntity
  8
1_10
370
     9
  0
POLYLINE
  5
2DBA
330
A
100
AcDbEntity
  8
1_10
 62
     7
370
     9
100
AcDb2dPolyline
 66
     1
 10
0.0
 20
0.0
 30
0.0
  0
VERTEX
  5
2DBB
330
2DBA
100
AcDbEntity
  8
1_10
 62
     7
370
     9
100
AcDbVertex
100
AcDb2dVertex
 10
604.1531311571919
 20
830.0457495472995
 30
0.0
  0
VERTEX
  5
2DBC
330
2DBA
100
AcDbEntity
  8
1_10
 62
     7
370
     9
100
AcDbVertex
100
AcDb2dVertex
 10
605.6479146214972
 20
828.7084959562816
 30
0.0
  0
SEQEND
  5
2DBD
330
2DBA
100
AcDbEntity
  8
1_10
370
     9
  0
POLYLINE
  5
2DBE
330
A
100
AcDbEntity
  8
1_10
 62
     7
370
     9
100
AcDb2dPolyline
 66
     1
 10
0.0
 20
0.0
 30
0.0
  0
VERTEX
  5
2DBF
330
2DBE
100
AcDbEntity
  8
1_10
 62
     7
370
     9
100
AcDbVertex
100
AcDb2dVertex
 10
604.1531311571919
 20
820.2802940253051
 30
0.0
  0
VERTEX
  5
2DC0
330
2DBE
100
AcDbEntity
  8
1_10
 62
     7
370
     9
100
AcDbVertex
100
AcDb2dVertex
 10
605.6479146214972
 20
818.7084959562816
 30
0.0
  0
SEQEND
  5
2DC1
330
2DBE
100
AcDbEntity
  8
1_10
370
     9
  0
POLYLINE
  5
2DC2
330
A
100
AcDbEntity
  8
1_10
 62
     7
370
     9
100
AcDb2dPolyline
 66
     1
 10
0.0
 20
0.0
 30
0.0
  0
VERTEX
  5
2DC3
330
2DC2
100
AcDbEntity
  8
1_10
 62
     7
370
     9
100
AcDbVertex
100
AcDb2dVertex
 10
591.9708209562964
 20
831.2261733978
 30
0.0
  0
VERTEX
  5
2DC4
330
2DC2
100
AcDbEntity
  8
1_10
 62
     7
370
     9
100
AcDbVertex
100
AcDb2dVertex
 10
594.960387884907
 20
831.2261733978
 30
0.0
  0
SEQEND
  5
2DC5
330
2DC2
100
AcDbEntity
  8
1_10
370
     9
  0
POLYLINE
  5
2DC6
330
A
100
AcDbEntity
  8
1_10
 62
     7
370
     9
100
AcDb2dPolyline
 66
     1
 10
0.0
 20
0.0
 30
0.0
  0
VERTEX
  5
2DC7
330
2DC6
100
AcDbEntity
  8
1_10
 62
     7
370
     9
100
AcDbVertex
100
AcDb2dVertex
 10
588.9042394229677
 20
828.7084959562816
 30
0.0
  0
VERTEX
  5
2DC8
330
2DC6
100
AcDbEntity
  8
1_10
 62
     7
370
     9
100
AcDbVertex
100
AcDb2dVertex
 10
582.7745770201607
 20
828.7084959562816
 30
0.0
  0
SEQEND
  5
2DC9
330
2DC6
100
AcDbEntity
  8
1_10
370
     9
  0
POLYLINE
  5
2DCA
330
A
100
AcDbEntity
  8
1_10
 62
     7
370
     9
100
AcDb2dPolyline
 66
     1
 10
0.0
 20
0.0
 30
0.0
  0
VERTEX
  5
2DCB
330
2DCA
100
AcDbEntity
  8
1_10
 62
     7
370
     9
100
AcDbVertex
100
AcDb2dVertex
 10
591.9708209562964
 20
829.0235557028566
 30
0.0
  0
VERTEX
  5
2DCC
330
2DCA
100
AcDbEntity
  8
1_10
 62
     7
370
     9
100
AcDbVertex
100
AcDb2dVertex
 10
588.9042394229677
 20
829.0235557028566
 30
0.0
  0
SEQEND
  5
2DCD
330
2DCA
100
AcDbEntity
  8
1_10
370
     9
  0
POLYLINE
  5
2DCE
330
A
100
AcDbEntity
  8
1_10
 62
     7
370
     9
100
AcDb2dPolyline
 66
     1
 10
0.0
 20
0.0
 30
0.0
  0
VERTEX
  5
2DCF
330
2DCE
100
AcDbEntity
  8
1_10
 62
     7
370
     9
100
AcDbVertex
100
AcDb2dVertex
 10
582.7745770201607
 20
829.0235557028566
 30
0.0
  0
VERTEX
  5
2DD0
330
2DCE
100
AcDbEntity
  8
1_10
 62
     7
370
     9
100
AcDbVertex
100
AcDb2dVertex
 10
581.2762928920047
 20
829.0235557028566
 30
0.0
  0
SEQEND
  5
2DD1
330
2DCE
100
AcDbEntity
  8
1_10
370
     9
  0
POLYLINE
  5
2DD2
330
A
100
AcDbEntity
  8
1_10
 62
     7
370
     9
100
AcDb2dPolyline
 66
     1
 10
0.0
 20
0.0
 30
0.0
  0
VERTEX
  5
2DD3
330
2DD2
100
AcDbEntity
  8
1_10
 62
     7
370
     9
100
AcDbVertex
100
AcDb2dVertex
 10
604.1531311571919
 20
820.2802940253051
 30
0.0
  0
VERTEX
  5
2DD4
330
2DD2
100
AcDbEntity
  8
1_10
 62
     7
370
     9
100
AcDbVertex
100
AcDb2dVertex
 10
604.1531311571919
 20
828.5509660829943
 30
0.0
  0
VERTEX
  5
2DD5
330
2DD2
100
AcDbEntity
  8
1_10
 62
     7
370
     9
100
AcDbVertex
100
AcDb2dVertex
 10
603.9991019477552
 20
829.1040709714257
 30
0.0
  0
VERTEX
  5
2DD6
330
2DD2
100
AcDbEntity
  8
1_10
 62
     7
370
     9
100
AcDbVertex
100
AcDb2dVertex
 10
603.6840422011805
 20
829.6501745321555
 30
0.0
  0
VERTEX
  5
2DD7
330
2DD2
100
AcDbEntity
  8
1_10
 62
     7
370
     9
100
AcDbVertex
100
AcDb2dVertex
 10
603.2114525813183
 20
829.9659344115005
 30
0.0
  0
VERTEX
  5
2DD8
330
2DD2
100
AcDbEntity
  8
1_10
 62
     7
370
     9
100
AcDbVertex
100
AcDb2dVertex
 10
602.5848337520192
 20
830.0457495472995
 30
0.0
  0
SEQEND
  5
2DD9
330
2DD2
100
AcDbEntity
  8
1_10
370
     9
  0
POLYLINE
  5
2DDA
330
A
100
AcDbEntity
  8
1_10
 62
     7
370
     9
100
AcDb2dPolyline
 66
     1
 10
0.0
 20
0.0
 30
0.0
  0
VERTEX
  5
2DDB
330
2DDA
100
AcDbEntity
  8
1_10
 62
     7
370
     9
100
AcDbVertex
100
AcDb2dVertex
 10
605.6479146214972
 20
818.7084959562816
 30
0.0
  0
VERTEX
  5
2DDC
330
2DDA
100
AcDbEntity
  8
1_10
 62
     7
370
     9
100
AcDbVertex
100
AcDb2dVertex
 10
605.6479146214972
 20
828.7084959562816
 30
0.0
  0
SEQEND
  5
2DDD
330
2DDA
100
AcDbEntity
  8
1_10
370
     9
  0
POLYLINE
  5
2DDE
330
A
100
AcDbEntity
  8
1_10
 62
     7
370
     9
100
AcDb2dPolyline
 66
     1
 10
0.0
 20
0.0
 30
0.0
  0
VERTEX
  5
2DDF
330
2DDE
100
AcDbEntity
  8
1_10
 62
     7
370
     9
100
AcDbVertex
100
AcDb2dVertex
 10
605.4168708073423
 20
908.201933500357
 30
0.0
  0
VERTEX
  5
2DE0
330
2DDE
100
AcDbEntity
  8
1_10
 62
     7
370
     9
100
AcDbVertex
100
AcDb2dVertex
 10
605.8859597633539
 20
906.6301354313334
 30
0.0
  0
SEQEND
  5
2DE1
330
2DDE
100
AcDbEntity
  8
1_10
370
     9
  0
POLYLINE
  5
2DE2
330
A
100
AcDbEntity
  8
1_10
 62
     7
370
     9
100
AcDb2dPolyline
 66
     1
 10
0.0
 20
0.0
 30
0.0
  0
VERTEX
  5
2DE3
330
2DE2
100
AcDbEntity
  8
1_10
 62
     7
370
     9
100
AcDbVertex
100
AcDb2dVertex
 10
604.3106610304794
 20
897.5105560335307
 30
0.0
  0
VERTEX
  5
2DE4
330
2DE2
100
AcDbEntity
  8
1_10
 62
     7
370
     9
100
AcDbVertex
100
AcDb2dVertex
 10
603.7645574697494
 20
899.2398839758417
 30
0.0
  0
VERTEX
  5
2DE5
330
2DE2
100
AcDbEntity
  8
1_10
 62
     7
370
     9
100
AcDbVertex
100
AcDb2dVertex
 10
602.8998934985941
 20
900.7311667762962
 30
0.0
  0
VERTEX
  5
2DE6
330
2DE2
100
AcDbEntity
  8
1_10
 62
     7
370
     9
100
AcDbVertex
100
AcDb2dVertex
 10
601.8776996541512
 20
902.1489356358832
 30
0.0
  0
VERTEX
  5
2DE7
330
2DE2
100
AcDbEntity
  8
1_10
 62
     7
370
     9
100
AcDbVertex
100
AcDb2dVertex
 10
600.5404460631335
 20
903.3290094199986
 30
0.0
  0
VERTEX
  5
2DE8
330
2DE2
100
AcDbEntity
  8
1_10
 62
     7
370
     9
100
AcDbVertex
100
AcDb2dVertex
 10
599.0456625988281
 20
904.3477026005907
 30
0.0
  0
VERTEX
  5
2DE9
330
2DE2
100
AcDbEntity
  8
1_10
 62
     7
370
     9
100
AcDbVertex
100
AcDb2dVertex
 10
597.4738645298046
 20
905.0583373623098
 30
0.0
  0
VERTEX
  5
2DEA
330
2DE2
100
AcDbEntity
  8
1_10
 62
     7
370
     9
100
AcDbVertex
100
AcDb2dVertex
 10
595.7410359236426
 20
905.4504117136028
 30
0.0
  0
VERTEX
  5
2DEB
330
2DE2
100
AcDbEntity
  8
1_10
 62
     7
370
     9
100
AcDbVertex
100
AcDb2dVertex
 10
594.0152086451824
 20
905.6044409230395
 30
0.0
  0
SEQEND
  5
2DEC
330
2DE2
100
AcDbEntity
  8
1_10
370
     9
  0
POLYLINE
  5
2DED
330
A
100
AcDbEntity
  8
1_10
 62
     7
370
     9
100
AcDb2dPolyline
 66
     1
 10
0.0
 20
0.0
 30
0.0
  0
VERTEX
  5
2DEE
330
2DED
100
AcDbEntity
  8
1_10
 62
     7
370
     9
100
AcDbVertex
100
AcDb2dVertex
 10
581.2762928920047
 20
851.901094100814
 30
0.0
  0
VERTEX
  5
2DEF
330
2DED
100
AcDbEntity
  8
1_10
 62
     7
370
     9
100
AcDbVertex
100
AcDb2dVertex
 10
580.7301893312749
 20
851.8198786994749
 30
0.0
  0
VERTEX
  5
2DF0
330
2DED
100
AcDbEntity
  8
1_10
 62
     7
370
     9
100
AcDbVertex
100
AcDb2dVertex
 10
580.1770844428434
 20
851.5048189529
 30
0.0
  0
VERTEX
  5
2DF1
330
2DED
100
AcDbEntity
  8
1_10
 62
     7
370
     9
100
AcDbVertex
100
AcDb2dVertex
 10
579.8655253601191
 20
850.9587153921701
 30
0.0
  0
VERTEX
  5
2DF2
330
2DED
100
AcDbEntity
  8
1_10
 62
     7
370
     9
100
AcDbVertex
100
AcDb2dVertex
 10
579.7850100915502
 20
850.4056105037387
 30
0.0
  0
SEQEND
  5
2DF3
330
2DED
100
AcDbEntity
  8
1_10
370
     9
  0
POLYLINE
  5
2DF4
330
A
100
AcDbEntity
  8
1_10
 62
     7
370
     9
100
AcDb2dPolyline
 66
     1
 10
0.0
 20
0.0
 30
0.0
  0
VERTEX
  5
2DF5
330
2DF4
100
AcDbEntity
  8
1_10
 62
     7
370
     9
100
AcDbVertex
100
AcDb2dVertex
 10
579.7850100915502
 20
845.5326864233805
 30
0.0
  0
VERTEX
  5
2DF6
330
2DF4
100
AcDbEntity
  8
1_10
 62
     7
370
     9
100
AcDbVertex
100
AcDb2dVertex
 10
578.8433315156763
 20
844.8255523255123
 30
0.0
  0
VERTEX
  5
2DF7
330
2DF4
100
AcDbEntity
  8
1_10
 62
     7
370
     9
100
AcDbVertex
100
AcDb2dVertex
 10
578.0521814853882
 20
843.8845738824086
 30
0.0
  0
VERTEX
  5
2DF8
330
2DF4
100
AcDbEntity
  8
1_10
 62
     7
370
     9
100
AcDbVertex
100
AcDb2dVertex
 10
578.0521814853882
 20
837.1212913226012
 30
0.0
  0
SEQEND
  5
2DF9
330
2DF4
100
AcDbEntity
  8
1_10
370
     9
  0
POLYLINE
  5
2DFA
330
A
100
AcDbEntity
  8
1_10
 62
     7
370
     9
100
AcDb2dPolyline
 66
     1
 10
0.0
 20
0.0
 30
0.0
  0
VERTEX
  5
2DFB
330
2DFA
100
AcDbEntity
  8
1_10
 62
     7
370
     9
100
AcDbVertex
100
AcDb2dVertex
 10
605.1788256654856
 20
869.7604436216001
 30
0.0
  0
VERTEX
  5
2DFC
330
2DFA
100
AcDbEntity
  8
1_10
 62
     7
370
     9
100
AcDbVertex
100
AcDb2dVertex
 10
605.1788256654856
 20
876.1285012326487
 30
0.0
  0
SEQEND
  5
2DFD
330
2DFA
100
AcDbEntity
  8
1_10
370
     9
  0
POLYLINE
  5
2DFE
330
A
100
AcDbEntity
  8
1_10
 62
     7
370
     9
100
AcDb2dPolyline
 66
     1
 10
0.0
 20
0.0
 30
0.0
  0
VERTEX
  5
2DFF
330
2DFE
100
AcDbEntity
  8
1_10
 62
     7
370
     9
100
AcDbVertex
100
AcDb2dVertex
 10
597.5543797983735
 20
869.7604436216001
 30
0.0
  0
VERTEX
  5
2E00
330
2DFE
100
AcDbEntity
  8
1_10
 62
     7
370
     9
100
AcDbVertex
100
AcDb2dVertex
 10
596.4516706853615
 20
869.5994130844617
 30
0.0
  0
VERTEX
  5
2E01
330
2DFE
100
AcDbEntity
  8
1_10
 62
     7
370
     9
100
AcDbVertex
100
AcDb2dVertex
 10
595.5099921094877
 20
869.2073387331685
 30
0.0
  0
VERTEX
  5
2E02
330
2DFE
100
AcDbEntity
  8
1_10
 62
     7
370
     9
100
AcDbVertex
100
AcDb2dVertex
 10
594.6453281383322
 20
868.5814200366399
 30
0.0
  0
VERTEX
  5
2E03
330
2DFE
100
AcDbEntity
  8
1_10
 62
     7
370
     9
100
AcDbVertex
100
AcDb2dVertex
 10
594.0152086451824
 20
867.7160559327142
 30
0.0
  0
VERTEX
  5
2E04
330
2DFE
100
AcDbEntity
  8
1_10
 62
     7
370
     9
100
AcDbVertex
100
AcDb2dVertex
 10
593.623134293889
 20
866.7708766929895
 30
0.0
  0
VERTEX
  5
2E05
330
2DFE
100
AcDbEntity
  8
1_10
 62
     7
370
     9
100
AcDbVertex
100
AcDb2dVertex
 10
593.4656044206017
 20
865.7486828485467
 30
0.0
  0
SEQEND
  5
2E06
330
2DFE
100
AcDbEntity
  8
1_10
370
     9
  0
POLYLINE
  5
2E07
330
A
100
AcDbEntity
  8
1_10
 62
     7
370
     9
100
AcDb2dPolyline
 66
     1
 10
0.0
 20
0.0
 30
0.0
  0
VERTEX
  5
2E08
330
2E07
100
AcDbEntity
  8
1_10
 62
     7
370
     9
100
AcDbVertex
100
AcDb2dVertex
 10
603.130937312749
 20
852.4499981926244
 30
0.0
  0
VERTEX
  5
2E09
330
2E07
100
AcDbEntity
  8
1_10
 62
     7
370
     9
100
AcDbVertex
100
AcDb2dVertex
 10
603.130937312749
 20
862.8231653154102
 30
0.0
  0
SEQEND
  5
2E0A
330
2E07
100
AcDbEntity
  8
1_10
370
     9
  0
POLYLINE
  5
2E0B
330
A
100
AcDbEntity
  8
1_10
 62
     7
370
     9
100
AcDb2dPolyline
 66
     1
 10
0.0
 20
0.0
 30
0.0
  0
VERTEX
  5
2E0C
330
2E0B
100
AcDbEntity
  8
1_10
 62
     7
370
     9
100
AcDbVertex
100
AcDb2dVertex
 10
591.9708209562964
 20
849.6984764058707
 30
0.0
  0
VERTEX
  5
2E0D
330
2E0B
100
AcDbEntity
  8
1_10
 62
     7
370
     9
100
AcDbVertex
100
AcDb2dVertex
 10
594.960387884907
 20
849.6984764058707
 30
0.0
  0
SEQEND
  5
2E0E
330
2E0B
100
AcDbEntity
  8
1_10
370
     9
  0
POLYLINE
  5
2E0F
330
A
100
AcDbEntity
  8
1_10
 62
     7
370
     9
100
AcDb2dPolyline
 66
     1
 10
0.0
 20
0.0
 30
0.0
  0
VERTEX
  5
2E10
330
2E0F
100
AcDbEntity
  8
1_10
 62
     7
370
     9
100
AcDbVertex
100
AcDb2dVertex
 10
591.9708209562964
 20
850.878900256371
 30
0.0
  0
VERTEX
  5
2E11
330
2E0F
100
AcDbEntity
  8
1_10
 62
     7
370
     9
100
AcDbVertex
100
AcDb2dVertex
 10
601.5626399075763
 20
850.878900256371
 30
0.0
  0
SEQEND
  5
2E12
330
2E0F
100
AcDbEntity
  8
1_10
370
     9
  0
POLYLINE
  5
2E13
330
A
100
AcDbEntity
  8
1_10
 62
     7
370
     9
100
AcDb2dPolyline
 66
     1
 10
0.0
 20
0.0
 30
0.0
  0
VERTEX
  5
2E14
330
2E13
100
AcDbEntity
  8
1_10
 62
     7
370
     9
100
AcDbVertex
100
AcDb2dVertex
 10
588.9042394229677
 20
852.2889676554862
 30
0.0
  0
VERTEX
  5
2E15
330
2E13
100
AcDbEntity
  8
1_10
 62
     7
370
     9
100
AcDbVertex
100
AcDb2dVertex
 10
582.7745770201607
 20
852.2889676554862
 30
0.0
  0
SEQEND
  5
2E16
330
2E13
100
AcDbEntity
  8
1_10
370
     9
  0
POLYLINE
  5
2E17
330
A
100
AcDbEntity
  8
1_10
 62
     7
370
     9
100
AcDb2dPolyline
 66
     1
 10
0.0
 20
0.0
 30
0.0
  0
VERTEX
  5
2E18
330
2E17
100
AcDbEntity
  8
1_10
 62
     7
370
     9
100
AcDbVertex
100
AcDb2dVertex
 10
588.9042394229677
 20
851.901094100814
 30
0.0
  0
VERTEX
  5
2E19
330
2E17
100
AcDbEntity
  8
1_10
 62
     7
370
     9
100
AcDbVertex
100
AcDb2dVertex
 10
591.9708209562964
 20
851.901094100814
 30
0.0
  0
SEQEND
  5
2E1A
330
2E17
100
AcDbEntity
  8
1_10
370
     9
  0
POLYLINE
  5
2E1B
330
A
100
AcDbEntity
  8
1_10
 62
     7
370
     9
100
AcDb2dPolyline
 66
     1
 10
0.0
 20
0.0
 30
0.0
  0
VERTEX
  5
2E1C
330
2E1B
100
AcDbEntity
  8
1_10
 62
     7
370
     9
100
AcDbVertex
100
AcDb2dVertex
 10
581.2762928920047
 20
851.901094100814
 30
0.0
  0
VERTEX
  5
2E1D
330
2E1B
100
AcDbEntity
  8
1_10
 62
     7
370
     9
100
AcDbVertex
100
AcDb2dVertex
 10
582.7745770201607
 20
851.901094100814
 30
0.0
  0
SEQEND
  5
2E1E
330
2E1B
100
AcDbEntity
  8
1_10
370
     9
  0
POLYLINE
  5
2E1F
330
A
100
AcDbEntity
  8
1_10
 62
     7
370
     9
100
AcDb2dPolyline
 66
     1
 10
0.0
 20
0.0
 30
0.0
  0
VERTEX
  5
2E20
330
2E1F
100
AcDbEntity
  8
1_10
 62
     7
370
     9
100
AcDbVertex
100
AcDb2dVertex
 10
591.9708209562964
 20
997.0186635723605
 30
0.0
  0
VERTEX
  5
2E21
330
2E1F
100
AcDbEntity
  8
1_10
 62
     7
370
     9
100
AcDbVertex
100
AcDb2dVertex
 10
595.7457824982891
 20
997.0186635723605
 30
0.0
  0
SEQEND
  5
2E22
330
2E1F
100
AcDbEntity
  8
1_10
370
     9
  0
POLYLINE
  5
2E23
330
A
100
AcDbEntity
  8
1_10
 62
     7
370
     9
100
AcDb2dPolyline
 66
     1
 10
0.0
 20
0.0
 30
0.0
  0
VERTEX
  5
2E24
330
2E23
100
AcDbEntity
  8
1_10
 62
     7
370
     9
100
AcDbVertex
100
AcDb2dVertex
 10
578.0521814853882
 20
1004.093505214892
 30
0.0
  0
VERTEX
  5
2E25
330
2E23
100
AcDbEntity
  8
1_10
 62
     7
370
     9
100
AcDbVertex
100
AcDb2dVertex
 10
578.8433315156763
 20
1003.148325975168
 30
0.0
  0
VERTEX
  5
2E26
330
2E23
100
AcDbEntity
  8
1_10
 62
     7
370
     9
100
AcDbVertex
100
AcDb2dVertex
 10
579.7850100915502
 20
1002.364177272581
 30
0.0
  0
SEQEND
  5
2E27
330
2E23
100
AcDbEntity
  8
1_10
370
     9
  0
POLYLINE
  5
2E28
330
A
100
AcDbEntity
  8
1_10
 62
     7
370
     9
100
AcDb2dPolyline
 66
     1
 10
0.0
 20
0.0
 30
0.0
  0
VERTEX
  5
2E29
330
2E28
100
AcDbEntity
  8
1_10
 62
     7
370
     9
100
AcDbVertex
100
AcDb2dVertex
 10
591.9708209562964
 20
1018.873307993105
 30
0.0
  0
VERTEX
  5
2E2A
330
2E28
100
AcDbEntity
  8
1_10
 62
     7
370
     9
100
AcDbVertex
100
AcDb2dVertex
 10
591.9708209562964
 20
995.9961196615327
 30
0.0
  0
SEQEND
  5
2E2B
330
2E28
100
AcDbEntity
  8
1_10
370
     9
  0
POLYLINE
  5
2E2C
330
A
100
AcDbEntity
  8
1_10
 62
     7
370
     9
100
AcDb2dPolyline
 66
     1
 10
0.0
 20
0.0
 30
0.0
  0
VERTEX
  5
2E2D
330
2E2C
100
AcDbEntity
  8
1_10
 62
     7
370
     9
100
AcDbVertex
100
AcDb2dVertex
 10
588.9042394229677
 20
1019.261881680547
 30
0.0
  0
VERTEX
  5
2E2E
330
2E2C
100
AcDbEntity
  8
1_10
 62
     7
370
     9
100
AcDbVertex
100
AcDb2dVertex
 10
588.9042394229677
 20
995.6810599149578
 30
0.0
  0
SEQEND
  5
2E2F
330
2E2C
100
AcDbEntity
  8
1_10
370
     9
  0
POLYLINE
  5
2E30
330
A
100
AcDbEntity
  8
1_10
 62
     7
370
     9
100
AcDb2dPolyline
 66
     1
 10
0.0
 20
0.0
 30
0.0
  0
VERTEX
  5
2E31
330
2E30
100
AcDbEntity
  8
1_10
 62
     7
370
     9
100
AcDbVertex
100
AcDb2dVertex
 10
579.7850100915502
 20
997.5647671330903
 30
0.0
  0
VERTEX
  5
2E32
330
2E30
100
AcDbEntity
  8
1_10
 62
     7
370
     9
100
AcDbVertex
100
AcDb2dVertex
 10
579.7850100915502
 20
1017.3785245288
 30
0.0
  0
SEQEND
  5
2E33
330
2E30
100
AcDbEntity
  8
1_10
370
     9
  0
POLYLINE
  5
2E34
330
A
100
AcDbEntity
  8
1_10
 62
     7
370
     9
100
AcDb2dPolyline
 66
     1
 10
0.0
 20
0.0
 30
0.0
  0
VERTEX
  5
2E35
330
2E34
100
AcDbEntity
  8
1_10
 62
     7
370
     9
100
AcDbVertex
100
AcDb2dVertex
 10
582.7745770201607
 20
1019.261881680547
 30
0.0
  0
VERTEX
  5
2E36
330
2E34
100
AcDbEntity
  8
1_10
 62
     7
370
     9
100
AcDbVertex
100
AcDb2dVertex
 10
582.7745770201607
 20
995.6810599149578
 30
0.0
  0
SEQEND
  5
2E37
330
2E34
100
AcDbEntity
  8
1_10
370
     9
  0
POLYLINE
  5
2E38
330
A
100
AcDbEntity
  8
1_10
 62
     7
370
     9
100
AcDb2dPolyline
 66
     1
 10
0.0
 20
0.0
 30
0.0
  0
VERTEX
  5
2E39
330
2E38
100
AcDbEntity
  8
1_10
 62
     7
370
     9
100
AcDbVertex
100
AcDb2dVertex
 10
579.7850100915502
 20
997.5647671330903
 30
0.0
  0
VERTEX
  5
2E3A
330
2E38
100
AcDbEntity
  8
1_10
 62
     7
370
     9
100
AcDbVertex
100
AcDb2dVertex
 10
579.8655253601191
 20
996.9381483037914
 30
0.0
  0
VERTEX
  5
2E3B
330
2E38
100
AcDbEntity
  8
1_10
 62
     7
370
     9
100
AcDbVertex
100
AcDb2dVertex
 10
580.1770844428434
 20
996.4652086175442
 30
0.0
  0
VERTEX
  5
2E3C
330
2E38
100
AcDbEntity
  8
1_10
 62
     7
370
     9
100
AcDbVertex
100
AcDb2dVertex
 10
580.7301893312749
 20
996.15364953482
 30
0.0
  0
VERTEX
  5
2E3D
330
2E38
100
AcDbEntity
  8
1_10
 62
     7
370
     9
100
AcDbVertex
100
AcDb2dVertex
 10
581.2762928920047
 20
995.9961196615327
 30
0.0
  0
SEQEND
  5
2E3E
330
2E38
100
AcDbEntity
  8
1_10
370
     9
  0
POLYLINE
  5
2E3F
330
A
100
AcDbEntity
  8
1_10
 62
     7
370
     9
100
AcDb2dPolyline
 66
     1
 10
0.0
 20
0.0
 30
0.0
  0
VERTEX
  5
2E40
330
2E3F
100
AcDbEntity
  8
1_10
 62
     7
370
     9
100
AcDbVertex
100
AcDb2dVertex
 10
591.9708209562964
 20
998.198387290091
 30
0.0
  0
VERTEX
  5
2E41
330
2E3F
100
AcDbEntity
  8
1_10
 62
     7
370
     9
100
AcDbVertex
100
AcDb2dVertex
 10
595.35676672263
 20
998.198387290091
 30
0.0
  0
SEQEND
  5
2E42
330
2E3F
100
AcDbEntity
  8
1_10
370
     9
  0
POLYLINE
  5
2E43
330
A
100
AcDbEntity
  8
1_10
 62
     7
370
     9
100
AcDb2dPolyline
 66
     1
 10
0.0
 20
0.0
 30
0.0
  0
VERTEX
  5
2E44
330
2E43
100
AcDbEntity
  8
1_10
 62
     7
370
     9
100
AcDbVertex
100
AcDb2dVertex
 10
588.9042394229677
 20
995.6810599149578
 30
0.0
  0
VERTEX
  5
2E45
330
2E43
100
AcDbEntity
  8
1_10
 62
     7
370
     9
100
AcDbVertex
100
AcDb2dVertex
 10
582.7745770201607
 20
995.6810599149578
 30
0.0
  0
SEQEND
  5
2E46
330
2E43
100
AcDbEntity
  8
1_10
370
     9
  0
POLYLINE
  5
2E47
330
A
100
AcDbEntity
  8
1_10
 62
     7
370
     9
100
AcDb2dPolyline
 66
     1
 10
0.0
 20
0.0
 30
0.0
  0
VERTEX
  5
2E48
330
2E47
100
AcDbEntity
  8
1_10
 62
     7
370
     9
100
AcDbVertex
100
AcDb2dVertex
 10
591.9708209562964
 20
995.9961196615327
 30
0.0
  0
VERTEX
  5
2E49
330
2E47
100
AcDbEntity
  8
1_10
 62
     7
370
     9
100
AcDbVertex
100
AcDb2dVertex
 10
588.9042394229677
 20
995.9961196615327
 30
0.0
  0
SEQEND
  5
2E4A
330
2E47
100
AcDbEntity
  8
1_10
370
     9
  0
POLYLINE
  5
2E4B
330
A
100
AcDbEntity
  8
1_10
 62
     7
370
     9
100
AcDb2dPolyline
 66
     1
 10
0.0
 20
0.0
 30
0.0
  0
VERTEX
  5
2E4C
330
2E4B
100
AcDbEntity
  8
1_10
 62
     7
370
     9
100
AcDbVertex
100
AcDb2dVertex
 10
582.7745770201607
 20
995.9961196615327
 30
0.0
  0
VERTEX
  5
2E4D
330
2E4B
100
AcDbEntity
  8
1_10
 62
     7
370
     9
100
AcDbVertex
100
AcDb2dVertex
 10
581.2762928920047
 20
995.9961196615327
 30
0.0
  0
SEQEND
  5
2E4E
330
2E4B
100
AcDbEntity
  8
1_10
370
     9
  0
POLYLINE
  5
2E4F
330
A
100
AcDbEntity
  8
1_10
 62
     7
370
     9
100
AcDb2dPolyline
 66
     1
 10
0.0
 20
0.0
 30
0.0
  0
VERTEX
  5
2E50
330
2E4F
100
AcDbEntity
  8
1_10
 62
     7
370
     9
100
AcDbVertex
100
AcDb2dVertex
 10
581.2762928920047
 20
1018.873307993105
 30
0.0
  0
VERTEX
  5
2E51
330
2E4F
100
AcDbEntity
  8
1_10
 62
     7
370
     9
100
AcDbVertex
100
AcDb2dVertex
 10
580.7301893312749
 20
1018.792792724536
 30
0.0
  0
VERTEX
  5
2E52
330
2E4F
100
AcDbEntity
  8
1_10
 62
     7
370
     9
100
AcDbVertex
100
AcDb2dVertex
 10
580.1770844428434
 20
1018.477732977961
 30
0.0
  0
VERTEX
  5
2E53
330
2E4F
100
AcDbEntity
  8
1_10
 62
     7
370
     9
100
AcDbVertex
100
AcDb2dVertex
 10
579.8655253601191
 20
1017.931629417231
 30
0.0
  0
VERTEX
  5
2E54
330
2E4F
100
AcDbEntity
  8
1_10
 62
     7
370
     9
100
AcDbVertex
100
AcDb2dVertex
 10
579.7850100915502
 20
1017.3785245288
 30
0.0
  0
SEQEND
  5
2E55
330
2E4F
100
AcDbEntity
  8
1_10
370
     9
  0
POLYLINE
  5
2E56
330
A
100
AcDbEntity
  8
1_10
 62
     7
370
     9
100
AcDb2dPolyline
 66
     1
 10
0.0
 20
0.0
 30
0.0
  0
VERTEX
  5
2E57
330
2E56
100
AcDbEntity
  8
1_10
 62
     7
370
     9
100
AcDbVertex
100
AcDb2dVertex
 10
579.7850100915502
 20
1012.505600448442
 30
0.0
  0
VERTEX
  5
2E58
330
2E56
100
AcDbEntity
  8
1_10
 62
     7
370
     9
100
AcDbVertex
100
AcDb2dVertex
 10
578.8433315156763
 20
1011.798466350573
 30
0.0
  0
VERTEX
  5
2E59
330
2E56
100
AcDbEntity
  8
1_10
 62
     7
370
     9
100
AcDbVertex
100
AcDb2dVertex
 10
578.0521814853882
 20
1010.8567877747
 30
0.0
  0
VERTEX
  5
2E5A
330
2E56
100
AcDbEntity
  8
1_10
 62
     7
370
     9
100
AcDbVertex
100
AcDb2dVertex
 10
578.0521814853882
 20
1004.093505214892
 30
0.0
  0
SEQEND
  5
2E5B
330
2E56
100
AcDbEntity
  8
1_10
370
     9
  0
POLYLINE
  5
2E5C
330
A
100
AcDbEntity
  8
1_10
 62
     7
370
     9
100
AcDb2dPolyline
 66
     1
 10
0.0
 20
0.0
 30
0.0
  0
VERTEX
  5
2E5D
330
2E5C
100
AcDbEntity
  8
1_10
 62
     7
370
     9
100
AcDbVertex
100
AcDb2dVertex
 10
591.9708209562964
 20
1016.671390430932
 30
0.0
  0
VERTEX
  5
2E5E
330
2E5C
100
AcDbEntity
  8
1_10
 62
     7
370
     9
100
AcDbVertex
100
AcDb2dVertex
 10
595.3344344443356
 20
1016.671390430932
 30
0.0
  0
SEQEND
  5
2E5F
330
2E5C
100
AcDbEntity
  8
1_10
370
     9
  0
POLYLINE
  5
2E60
330
A
100
AcDbEntity
  8
1_10
 62
     7
370
     9
100
AcDb2dPolyline
 66
     1
 10
0.0
 20
0.0
 30
0.0
  0
VERTEX
  5
2E61
330
2E60
100
AcDbEntity
  8
1_10
 62
     7
370
     9
100
AcDbVertex
100
AcDb2dVertex
 10
591.9708209562964
 20
1017.851114148662
 30
0.0
  0
VERTEX
  5
2E62
330
2E60
100
AcDbEntity
  8
1_10
 62
     7
370
     9
100
AcDbVertex
100
AcDb2dVertex
 10
595.7202696346062
 20
1017.851114148662
 30
0.0
  0
SEQEND
  5
2E63
330
2E60
100
AcDbEntity
  8
1_10
370
     9
  0
POLYLINE
  5
2E64
330
A
100
AcDbEntity
  8
1_10
 62
     7
370
     9
100
AcDb2dPolyline
 66
     1
 10
0.0
 20
0.0
 30
0.0
  0
VERTEX
  5
2E65
330
2E64
100
AcDbEntity
  8
1_10
 62
     7
370
     9
100
AcDbVertex
100
AcDb2dVertex
 10
588.9042394229677
 20
1019.261881680547
 30
0.0
  0
VERTEX
  5
2E66
330
2E64
100
AcDbEntity
  8
1_10
 62
     7
370
     9
100
AcDbVertex
100
AcDb2dVertex
 10
582.7745770201607
 20
1019.261881680547
 30
0.0
  0
SEQEND
  5
2E67
330
2E64
100
AcDbEntity
  8
1_10
370
     9
  0
POLYLINE
  5
2E68
330
A
100
AcDbEntity
  8
1_10
 62
     7
370
     9
100
AcDb2dPolyline
 66
     1
 10
0.0
 20
0.0
 30
0.0
  0
VERTEX
  5
2E69
330
2E68
100
AcDbEntity
  8
1_10
 62
     7
370
     9
100
AcDbVertex
100
AcDb2dVertex
 10
588.9042394229677
 20
1018.873307993105
 30
0.0
  0
VERTEX
  5
2E6A
330
2E68
100
AcDbEntity
  8
1_10
 62
     7
370
     9
100
AcDbVertex
100
AcDb2dVertex
 10
591.9708209562964
 20
1018.873307993105
 30
0.0
  0
SEQEND
  5
2E6B
330
2E68
100
AcDbEntity
  8
1_10
370
     9
  0
POLYLINE
  5
2E6C
330
A
100
AcDbEntity
  8
1_10
 62
     7
370
     9
100
AcDb2dPolyline
 66
     1
 10
0.0
 20
0.0
 30
0.0
  0
VERTEX
  5
2E6D
330
2E6C
100
AcDbEntity
  8
1_10
 62
     7
370
     9
100
AcDbVertex
100
AcDb2dVertex
 10
581.2762928920047
 20
1018.873307993105
 30
0.0
  0
VERTEX
  5
2E6E
330
2E6C
100
AcDbEntity
  8
1_10
 62
     7
370
     9
100
AcDbVertex
100
AcDb2dVertex
 10
582.7745770201607
 20
1018.873307993105
 30
0.0
  0
SEQEND
  5
2E6F
330
2E6C
100
AcDbEntity
  8
1_10
370
     9
  0
POLYLINE
  5
2E70
330
A
100
AcDbEntity
  8
1_10
 62
     7
370
     9
100
AcDb2dPolyline
 66
     1
 10
0.0
 20
0.0
 30
0.0
  0
VERTEX
  5
2E71
330
2E70
100
AcDbEntity
  8
1_10
 62
     7
370
     9
100
AcDbVertex
100
AcDb2dVertex
 10
601.5626399075763
 20
850.878900256371
 30
0.0
  0
VERTEX
  5
2E72
330
2E70
100
AcDbEntity
  8
1_10
 62
     7
370
     9
100
AcDbVertex
100
AcDb2dVertex
 10
602.1892587368752
 20
851.0357299968882
 30
0.0
  0
VERTEX
  5
2E73
330
2E70
100
AcDbEntity
  8
1_10
 62
     7
370
     9
100
AcDbVertex
100
AcDb2dVertex
 10
602.6618483567377
 20
851.3479892123827
 30
0.0
  0
VERTEX
  5
2E74
330
2E70
100
AcDbEntity
  8
1_10
 62
     7
370
     9
100
AcDbVertex
100
AcDb2dVertex
 10
602.9804087671632
 20
851.8198786994749
 30
0.0
  0
VERTEX
  5
2E75
330
2E70
100
AcDbEntity
  8
1_10
 62
     7
370
     9
100
AcDbVertex
100
AcDb2dVertex
 10
603.130937312749
 20
852.4499981926244
 30
0.0
  0
SEQEND
  5
2E76
330
2E70
100
AcDbEntity
  8
1_10
370
     9
  0
POLYLINE
  5
2E77
330
A
100
AcDbEntity
  8
1_10
 62
     7
370
     9
100
AcDb2dPolyline
 66
     1
 10
0.0
 20
0.0
 30
0.0
  0
VERTEX
  5
2E78
330
2E77
100
AcDbEntity
  8
1_10
 62
     7
370
     9
100
AcDbVertex
100
AcDb2dVertex
 10
603.130937312749
 20
860.8729582371079
 30
0.0
  0
VERTEX
  5
2E79
330
2E77
100
AcDbEntity
  8
1_10
 62
     7
370
     9
100
AcDbVertex
100
AcDb2dVertex
 10
603.0539227080308
 20
861.2678331194816
 30
0.0
  0
VERTEX
  5
2E7A
330
2E77
100
AcDbEntity
  8
1_10
 62
     7
370
     9
100
AcDbVertex
100
AcDb2dVertex
 10
602.7423636253066
 20
861.6641082673957
 30
0.0
  0
VERTEX
  5
2E7B
330
2E77
100
AcDbEntity
  8
1_10
 62
     7
370
     9
100
AcDbVertex
100
AcDb2dVertex
 10
602.3467886101625
 20
861.8181374768324
 30
0.0
  0
VERTEX
  5
2E7C
330
2E77
100
AcDbEntity
  8
1_10
 62
     7
370
     9
100
AcDbVertex
100
AcDb2dVertex
 10
596.5321859539306
 20
863.3122208083676
 30
0.0
  0
SEQEND
  5
2E7D
330
2E77
100
AcDbEntity
  8
1_10
370
     9
  0
POLYLINE
  5
2E7E
330
A
100
AcDbEntity
  8
1_10
 62
     7
370
     9
100
AcDb2dPolyline
 66
     1
 10
0.0
 20
0.0
 30
0.0
  0
VERTEX
  5
2E7F
330
2E7E
100
AcDbEntity
  8
1_10
 62
     7
370
     9
100
AcDbVertex
100
AcDb2dVertex
 10
593.4656044206017
 20
905.6044409230395
 30
0.0
  0
VERTEX
  5
2E80
330
2E7E
100
AcDbEntity
  8
1_10
 62
     7
370
     9
100
AcDbVertex
100
AcDb2dVertex
 10
594.0152086451824
 20
906.6301354313334
 30
0.0
  0
SEQEND
  5
2E81
330
2E7E
100
AcDbEntity
  8
1_10
370
     9
  0
POLYLINE
  5
2E82
330
A
100
AcDbEntity
  8
1_10
 62
     7
370
     9
100
AcDb2dPolyline
 66
     1
 10
0.0
 20
0.0
 30
0.0
  0
VERTEX
  5
2E83
330
2E82
100
AcDbEntity
  8
1_10
 62
     7
370
     9
100
AcDbVertex
100
AcDb2dVertex
 10
594.0152086451824
 20
897.5105560335307
 30
0.0
  0
VERTEX
  5
2E84
330
2E82
100
AcDbEntity
  8
1_10
 62
     7
370
     9
100
AcDbVertex
100
AcDb2dVertex
 10
594.0152086451824
 20
891.9269971914537
 30
0.0
  0
SEQEND
  5
2E85
330
2E82
100
AcDbEntity
  8
1_10
370
     9
  0
POLYLINE
  5
2E86
330
A
100
AcDbEntity
  8
1_10
 62
     7
370
     9
100
AcDb2dPolyline
 66
     1
 10
0.0
 20
0.0
 30
0.0
  0
VERTEX
  5
2E87
330
2E86
100
AcDbEntity
  8
1_10
 62
     7
370
     9
100
AcDbVertex
100
AcDb2dVertex
 10
593.4656044206017
 20
863.7084959562816
 30
0.0
  0
VERTEX
  5
2E88
330
2E86
100
AcDbEntity
  8
1_10
 62
     7
370
     9
100
AcDbVertex
100
AcDb2dVertex
 10
593.4656044206017
 20
865.7486828485467
 30
0.0
  0
SEQEND
  5
2E89
330
2E86
100
AcDbEntity
  8
1_10
370
     9
  0
POLYLINE
  5
2E8A
330
A
100
AcDbEntity
  8
1_10
 62
     7
370
     9
100
AcDb2dPolyline
 66
     1
 10
0.0
 20
0.0
 30
0.0
  0
VERTEX
  5
2E8B
330
2E8A
100
AcDbEntity
  8
1_10
 62
     7
370
     9
100
AcDbVertex
100
AcDb2dVertex
 10
620.9024074178831
 20
888.3913267021134
 30
0.0
  0
VERTEX
  5
2E8C
330
2E8A
100
AcDbEntity
  8
1_10
 62
     7
370
     9
100
AcDbVertex
100
AcDb2dVertex
 10
619.9621291075493
 20
888.2337968288258
 30
0.0
  0
VERTEX
  5
2E8D
330
2E8A
100
AcDbEntity
  8
1_10
 62
     7
370
     9
100
AcDbVertex
100
AcDb2dVertex
 10
619.0939644725431
 20
887.7612072089635
 30
0.0
  0
VERTEX
  5
2E8E
330
2E8A
100
AcDbEntity
  8
1_10
 62
     7
370
     9
100
AcDbVertex
100
AcDb2dVertex
 10
618.4638449793933
 20
887.1345883796645
 30
0.0
  0
VERTEX
  5
2E8F
330
2E8A
100
AcDbEntity
  8
1_10
 62
     7
370
     9
100
AcDbVertex
100
AcDb2dVertex
 10
617.9912553595311
 20
886.2664237446583
 30
0.0
  0
VERTEX
  5
2E90
330
2E8A
100
AcDbEntity
  8
1_10
 62
     7
370
     9
100
AcDbVertex
100
AcDb2dVertex
 10
617.8372261500942
 20
885.3247451687844
 30
0.0
  0
SEQEND
  5
2E91
330
2E8A
100
AcDbEntity
  8
1_10
370
     9
  0
POLYLINE
  5
2E92
330
A
100
AcDbEntity
  8
1_10
 62
     7
370
     9
100
AcDb2dPolyline
 66
     1
 10
0.0
 20
0.0
 30
0.0
  0
VERTEX
  5
2E93
330
2E92
100
AcDbEntity
  8
1_10
 62
     7
370
     9
100
AcDbVertex
100
AcDb2dVertex
 10
607.2232133543716
 20
878.1728889215346
 30
0.0
  0
VERTEX
  5
2E94
330
2E92
100
AcDbEntity
  8
1_10
 62
     7
370
     9
100
AcDbVertex
100
AcDb2dVertex
 10
607.2232133543716
 20
886.3469390132275
 30
0.0
  0
SEQEND
  5
2E95
330
2E92
100
AcDbEntity
  8
1_10
370
     9
  0
POLYLINE
  5
2E96
330
A
100
AcDbEntity
  8
1_10
 62
     7
370
     9
100
AcDb2dPolyline
 66
     1
 10
0.0
 20
0.0
 30
0.0
  0
VERTEX
  5
2E97
330
2E96
100
AcDbEntity
  8
1_10
 62
     7
370
     9
100
AcDbVertex
100
AcDb2dVertex
 10
605.1788256654856
 20
888.3913267021134
 30
0.0
  0
VERTEX
  5
2E98
330
2E96
100
AcDbEntity
  8
1_10
 62
     7
370
     9
100
AcDbVertex
100
AcDb2dVertex
 10
605.1788256654856
 20
891.9269971914537
 30
0.0
  0
SEQEND
  5
2E99
330
2E96
100
AcDbEntity
  8
1_10
370
     9
  0
POLYLINE
  5
2E9A
330
A
100
AcDbEntity
  8
1_10
 62
     7
370
     9
100
AcDb2dPolyline
 66
     1
 10
0.0
 20
0.0
 30
0.0
  0
VERTEX
  5
2E9B
330
2E9A
100
AcDbEntity
  8
1_10
 62
     7
370
     9
100
AcDbVertex
100
AcDb2dVertex
 10
605.1788256654856
 20
876.1285012326487
 30
0.0
  0
VERTEX
  5
2E9C
330
2E9A
100
AcDbEntity
  8
1_10
 62
     7
370
     9
100
AcDbVertex
100
AcDb2dVertex
 10
605.966475031923
 20
876.2860311059361
 30
0.0
  0
VERTEX
  5
2E9D
330
2E9A
100
AcDbEntity
  8
1_10
 62
     7
370
     9
100
AcDbVertex
100
AcDb2dVertex
 10
606.5930938612219
 20
876.7551200619478
 30
0.0
  0
VERTEX
  5
2E9E
330
2E9A
100
AcDbEntity
  8
1_10
 62
     7
370
     9
100
AcDbVertex
100
AcDb2dVertex
 10
607.0656834810843
 20
877.3852395550973
 30
0.0
  0
VERTEX
  5
2E9F
330
2E9A
100
AcDbEntity
  8
1_10
 62
     7
370
     9
100
AcDbVertex
100
AcDb2dVertex
 10
607.2232133543716
 20
878.1728889215346
 30
0.0
  0
SEQEND
  5
2EA0
330
2E9A
100
AcDbEntity
  8
1_10
370
     9
  0
POLYLINE
  5
2EA1
330
A
100
AcDbEntity
  8
1_10
 62
     7
370
     9
100
AcDb2dPolyline
 66
     1
 10
0.0
 20
0.0
 30
0.0
  0
VERTEX
  5
2EA2
330
2EA1
100
AcDbEntity
  8
1_10
 62
     7
370
     9
100
AcDbVertex
100
AcDb2dVertex
 10
607.2232133543716
 20
886.3469390132275
 30
0.0
  0
VERTEX
  5
2EA3
330
2EA1
100
AcDbEntity
  8
1_10
 62
     7
370
     9
100
AcDbVertex
100
AcDb2dVertex
 10
607.0656834810843
 20
887.1345883796645
 30
0.0
  0
VERTEX
  5
2EA4
330
2EA1
100
AcDbEntity
  8
1_10
 62
     7
370
     9
100
AcDbVertex
100
AcDb2dVertex
 10
606.5930938612219
 20
887.7612072089635
 30
0.0
  0
VERTEX
  5
2EA5
330
2EA1
100
AcDbEntity
  8
1_10
 62
     7
370
     9
100
AcDbVertex
100
AcDb2dVertex
 10
605.966475031923
 20
888.2337968288258
 30
0.0
  0
VERTEX
  5
2EA6
330
2EA1
100
AcDbEntity
  8
1_10
 62
     7
370
     9
100
AcDbVertex
100
AcDb2dVertex
 10
605.1788256654856
 20
888.3913267021134
 30
0.0
  0
SEQEND
  5
2EA7
330
2EA1
100
AcDbEntity
  8
1_10
370
     9
  0
POLYLINE
  5
2EA8
330
A
100
AcDbEntity
  8
1_10
 62
     7
370
     9
100
AcDb2dPolyline
 66
     1
 10
0.0
 20
0.0
 30
0.0
  0
VERTEX
  5
2EA9
330
2EA8
100
AcDbEntity
  8
1_10
 62
     7
370
     9
100
AcDbVertex
100
AcDb2dVertex
 10
617.8372261500942
 20
885.3247451687844
 30
0.0
  0
VERTEX
  5
2EAA
330
2EA8
100
AcDbEntity
  8
1_10
 62
     7
370
     9
100
AcDbVertex
100
AcDb2dVertex
 10
617.8372261500942
 20
879.1915821021266
 30
0.0
  0
VERTEX
  5
2EAB
330
2EA8
100
AcDbEntity
  8
1_10
 62
     7
370
     9
100
AcDbVertex
100
AcDb2dVertex
 10
617.9912553595311
 20
878.249903526253
 30
0.0
  0
VERTEX
  5
2EAC
330
2EA8
100
AcDbEntity
  8
1_10
 62
     7
370
     9
100
AcDbVertex
100
AcDb2dVertex
 10
618.4638449793933
 20
877.3852395550973
 30
0.0
  0
VERTEX
  5
2EAD
330
2EA8
100
AcDbEntity
  8
1_10
 62
     7
370
     9
100
AcDbVertex
100
AcDb2dVertex
 10
619.0939644725431
 20
876.7551200619478
 30
0.0
  0
VERTEX
  5
2EAE
330
2EA8
100
AcDbEntity
  8
1_10
 62
     7
370
     9
100
AcDbVertex
100
AcDb2dVertex
 10
619.9621291075493
 20
876.2860311059361
 30
0.0
  0
VERTEX
  5
2EAF
330
2EA8
100
AcDbEntity
  8
1_10
 62
     7
370
     9
100
AcDbVertex
100
AcDb2dVertex
 10
620.9024074178831
 20
876.1285012326487
 30
0.0
  0
SEQEND
  5
2EB0
330
2EA8
100
AcDbEntity
  8
1_10
370
     9
  0
POLYLINE
  5
2EB1
330
A
100
AcDbEntity
  8
1_10
 62
     7
370
     9
100
AcDb2dPolyline
 66
     1
 10
0.0
 20
0.0
 30
0.0
  0
VERTEX
  5
2EB2
330
2EB1
100
AcDbEntity
  8
1_10
 62
     7
370
     9
100
AcDbVertex
100
AcDb2dVertex
 10
647.8645203969913
 20
831.6140469524721
 30
0.0
  0
VERTEX
  5
2EB3
330
2EB1
100
AcDbEntity
  8
1_10
 62
     7
370
     9
100
AcDbVertex
100
AcDb2dVertex
 10
647.8645203969913
 20
862.8231653154102
 30
0.0
  0
SEQEND
  5
2EB4
330
2EB1
100
AcDbEntity
  8
1_10
370
     9
  0
POLYLINE
  5
2EB5
330
A
100
AcDbEntity
  8
1_10
 62
     7
370
     9
100
AcDb2dPolyline
 66
     1
 10
0.0
 20
0.0
 30
0.0
  0
VERTEX
  5
2EB6
330
2EB5
100
AcDbEntity
  8
1_10
 62
     7
370
     9
100
AcDbVertex
100
AcDb2dVertex
 10
645.2670278196738
 20
818.7084959562816
 30
0.0
  0
VERTEX
  5
2EB7
330
2EB5
100
AcDbEntity
  8
1_10
 62
     7
370
     9
100
AcDbVertex
100
AcDb2dVertex
 10
645.2670278196738
 20
828.7084959562816
 30
0.0
  0
SEQEND
  5
2EB8
330
2EB5
100
AcDbEntity
  8
1_10
370
     9
  0
POLYLINE
  5
2EB9
330
A
100
AcDbEntity
  8
1_10
 62
     7
370
     9
100
AcDb2dPolyline
 66
     1
 10
0.0
 20
0.0
 30
0.0
  0
VERTEX
  5
2EBA
330
2EB9
100
AcDbEntity
  8
1_10
 62
     7
370
     9
100
AcDbVertex
100
AcDb2dVertex
 10
646.8423265525482
 20
829.3351147855806
 30
0.0
  0
VERTEX
  5
2EBB
330
2EB9
100
AcDbEntity
  8
1_10
 62
     7
370
     9
100
AcDbVertex
100
AcDb2dVertex
 10
646.8423265525482
 20
820.2802940253051
 30
0.0
  0
VERTEX
  5
2EBC
330
2EB9
100
AcDbEntity
  8
1_10
 62
     7
370
     9
100
AcDbVertex
100
AcDb2dVertex
 10
645.2670278196738
 20
818.7084959562816
 30
0.0
  0
SEQEND
  5
2EBD
330
2EB9
100
AcDbEntity
  8
1_10
370
     9
  0
POLYLINE
  5
2EBE
330
A
100
AcDbEntity
  8
1_10
 62
     7
370
     9
100
AcDb2dPolyline
 66
     1
 10
0.0
 20
0.0
 30
0.0
  0
VERTEX
  5
2EBF
330
2EBE
100
AcDbEntity
  8
1_10
 62
     7
370
     9
100
AcDbVertex
100
AcDb2dVertex
 10
646.8423265525482
 20
830.0457495472995
 30
0.0
  0
VERTEX
  5
2EC0
330
2EBE
100
AcDbEntity
  8
1_10
 62
     7
370
     9
100
AcDbVertex
100
AcDb2dVertex
 10
645.2670278196738
 20
828.7084959562816
 30
0.0
  0
SEQEND
  5
2EC1
330
2EBE
100
AcDbEntity
  8
1_10
370
     9
  0
POLYLINE
  5
2EC2
330
A
100
AcDbEntity
  8
1_10
 62
     7
370
     9
100
AcDb2dPolyline
 66
     1
 10
0.0
 20
0.0
 30
0.0
  0
VERTEX
  5
2EC3
330
2EC2
100
AcDbEntity
  8
1_10
 62
     7
370
     9
100
AcDbVertex
100
AcDb2dVertex
 10
647.3142160396403
 20
830.435023367512
 30
0.0
  0
VERTEX
  5
2EC4
330
2EC2
100
AcDbEntity
  8
1_10
 62
     7
370
     9
100
AcDbVertex
100
AcDb2dVertex
 10
647.7034898598529
 20
830.9881282559436
 30
0.0
  0
VERTEX
  5
2EC5
330
2EC2
100
AcDbEntity
  8
1_10
 62
     7
370
     9
100
AcDbVertex
100
AcDb2dVertex
 10
647.8645203969913
 20
831.6140469524721
 30
0.0
  0
SEQEND
  5
2EC6
330
2EC2
100
AcDbEntity
  8
1_10
370
     9
  0
POLYLINE
  5
2EC7
330
A
100
AcDbEntity
  8
1_10
 62
     7
370
     9
100
AcDb2dPolyline
 66
     1
 10
0.0
 20
0.0
 30
0.0
  0
VERTEX
  5
2EC8
330
2EC7
100
AcDbEntity
  8
1_10
 62
     7
370
     9
100
AcDbVertex
100
AcDb2dVertex
 10
647.3142160396403
 20
830.435023367512
 30
0.0
  0
VERTEX
  5
2EC9
330
2EC7
100
AcDbEntity
  8
1_10
 62
     7
370
     9
100
AcDbVertex
100
AcDb2dVertex
 10
646.9221416883474
 20
829.9659344115005
 30
0.0
  0
VERTEX
  5
2ECA
330
2EC7
100
AcDbEntity
  8
1_10
 62
     7
370
     9
100
AcDbVertex
100
AcDb2dVertex
 10
646.8423265525482
 20
829.3351147855806
 30
0.0
  0
SEQEND
  5
2ECB
330
2EC7
100
AcDbEntity
  8
1_10
370
     9
  0
POLYLINE
  5
2ECC
330
A
100
AcDbEntity
  8
1_10
 62
     7
370
     9
100
AcDb2dPolyline
 66
     1
 10
0.0
 20
0.0
 30
0.0
  0
VERTEX
  5
2ECD
330
2ECC
100
AcDbEntity
  8
1_10
 62
     7
370
     9
100
AcDbVertex
100
AcDb2dVertex
 10
645.5050729615305
 20
908.201933500357
 30
0.0
  0
VERTEX
  5
2ECE
330
2ECC
100
AcDbEntity
  8
1_10
 62
     7
370
     9
100
AcDbVertex
100
AcDb2dVertex
 10
645.0317832088979
 20
906.6301354313334
 30
0.0
  0
SEQEND
  5
2ECF
330
2ECC
100
AcDbEntity
  8
1_10
370
     9
  0
POLYLINE
  5
2ED0
330
A
100
AcDbEntity
  8
1_10
 62
     7
370
     9
100
AcDb2dPolyline
 66
     1
 10
0.0
 20
0.0
 30
0.0
  0
VERTEX
  5
2ED1
330
2ED0
100
AcDbEntity
  8
1_10
 62
     7
370
     9
100
AcDbVertex
100
AcDb2dVertex
 10
656.9830495956385
 20
905.6044409230395
 30
0.0
  0
VERTEX
  5
2ED2
330
2ED0
100
AcDbEntity
  8
1_10
 62
     7
370
     9
100
AcDbVertex
100
AcDb2dVertex
 10
655.1739065175286
 20
905.4504117136028
 30
0.0
  0
VERTEX
  5
2ED3
330
2ED0
100
AcDbEntity
  8
1_10
 62
     7
370
     9
100
AcDbVertex
100
AcDb2dVertex
 10
653.5243937110163
 20
905.0583373623098
 30
0.0
  0
VERTEX
  5
2ED4
330
2ED0
100
AcDbEntity
  8
1_10
 62
     7
370
     9
100
AcDbVertex
100
AcDb2dVertex
 10
651.8762811700449
 20
904.3477026005907
 30
0.0
  0
VERTEX
  5
2ED5
330
2ED0
100
AcDbEntity
  8
1_10
 62
     7
370
     9
100
AcDbVertex
100
AcDb2dVertex
 10
650.3737962452676
 20
903.3290094199986
 30
0.0
  0
VERTEX
  5
2ED6
330
2ED0
100
AcDbEntity
  8
1_10
 62
     7
370
     9
100
AcDbVertex
100
AcDb2dVertex
 10
649.1177580555893
 20
902.1489356358832
 30
0.0
  0
VERTEX
  5
2ED7
330
2ED0
100
AcDbEntity
  8
1_10
 62
     7
370
     9
100
AcDbVertex
100
AcDb2dVertex
 10
648.018549606428
 20
900.7311667762962
 30
0.0
  0
VERTEX
  5
2ED8
330
2ED0
100
AcDbEntity
  8
1_10
 62
     7
370
     9
100
AcDbVertex
100
AcDb2dVertex
 10
647.1573862991233
 20
899.2398839758417
 30
0.0
  0
VERTEX
  5
2ED9
330
2ED0
100
AcDbEntity
  8
1_10
 62
     7
370
     9
100
AcDbVertex
100
AcDb2dVertex
 10
646.6070819417723
 20
897.5105560335307
 30
0.0
  0
SEQEND
  5
2EDA
330
2ED0
100
AcDbEntity
  8
1_10
370
     9
  0
POLYLINE
  5
2EDB
330
A
100
AcDbEntity
  8
1_10
 62
     7
370
     9
100
AcDb2dPolyline
 66
     1
 10
0.0
 20
0.0
 30
0.0
  0
VERTEX
  5
2EDC
330
2EDB
100
AcDbEntity
  8
1_10
 62
     7
370
     9
100
AcDbVertex
100
AcDb2dVertex
 10
645.8201327081053
 20
869.7604436216001
 30
0.0
  0
VERTEX
  5
2EDD
330
2EDB
100
AcDbEntity
  8
1_10
 62
     7
370
     9
100
AcDbVertex
100
AcDb2dVertex
 10
645.8201327081053
 20
876.1285012326487
 30
0.0
  0
SEQEND
  5
2EDE
330
2EDB
100
AcDbEntity
  8
1_10
370
     9
  0
POLYLINE
  5
2EDF
330
A
100
AcDbEntity
  8
1_10
 62
     7
370
     9
100
AcDb2dPolyline
 66
     1
 10
0.0
 20
0.0
 30
0.0
  0
VERTEX
  5
2EE0
330
2EDF
100
AcDbEntity
  8
1_10
 62
     7
370
     9
100
AcDbVertex
100
AcDb2dVertex
 10
654.3855570183212
 20
863.3122208083676
 30
0.0
  0
VERTEX
  5
2EE1
330
2EDF
100
AcDbEntity
  8
1_10
 62
     7
370
     9
100
AcDbVertex
100
AcDb2dVertex
 10
648.5716544948593
 20
861.8181374768324
 30
0.0
  0
VERTEX
  5
2EE2
330
2EDF
100
AcDbEntity
  8
1_10
 62
     7
370
     9
100
AcDbVertex
100
AcDb2dVertex
 10
648.1753793469452
 20
861.6641082673957
 30
0.0
  0
VERTEX
  5
2EE3
330
2EDF
100
AcDbEntity
  8
1_10
 62
     7
370
     9
100
AcDbVertex
100
AcDb2dVertex
 10
647.9415350017096
 20
861.2678331194816
 30
0.0
  0
VERTEX
  5
2EE4
330
2EDF
100
AcDbEntity
  8
1_10
 62
     7
370
     9
100
AcDbVertex
100
AcDb2dVertex
 10
647.8645203969913
 20
860.8729582371079
 30
0.0
  0
SEQEND
  5
2EE5
330
2EDF
100
AcDbEntity
  8
1_10
370
     9
  0
POLYLINE
  5
2EE6
330
A
100
AcDbEntity
  8
1_10
 62
     7
370
     9
100
AcDb2dPolyline
 66
     1
 10
0.0
 20
0.0
 30
0.0
  0
VERTEX
  5
2EE7
330
2EE6
100
AcDbEntity
  8
1_10
 62
     7
370
     9
100
AcDbVertex
100
AcDb2dVertex
 10
657.4563393482711
 20
863.7084959562816
 30
0.0
  0
VERTEX
  5
2EE8
330
2EE6
100
AcDbEntity
  8
1_10
 62
     7
370
     9
100
AcDbVertex
100
AcDb2dVertex
 10
657.4563393482711
 20
865.7486828485467
 30
0.0
  0
VERTEX
  5
2EE9
330
2EE6
100
AcDbEntity
  8
1_10
 62
     7
370
     9
100
AcDbVertex
100
AcDb2dVertex
 10
657.3751239469318
 20
866.7708766929895
 30
0.0
  0
VERTEX
  5
2EEA
330
2EE6
100
AcDbEntity
  8
1_10
 62
     7
370
     9
100
AcDbVertex
100
AcDb2dVertex
 10
656.9032344598397
 20
867.7160559327142
 30
0.0
  0
VERTEX
  5
2EEB
330
2EE6
100
AcDbEntity
  8
1_10
 62
     7
370
     9
100
AcDbVertex
100
AcDb2dVertex
 10
656.2759154977705
 20
868.5814200366399
 30
0.0
  0
VERTEX
  5
2EEC
330
2EE6
100
AcDbEntity
  8
1_10
 62
     7
370
     9
100
AcDbVertex
100
AcDb2dVertex
 10
655.4847654674825
 20
869.2073387331685
 30
0.0
  0
VERTEX
  5
2EED
330
2EE6
100
AcDbEntity
  8
1_10
 62
     7
370
     9
100
AcDbVertex
100
AcDb2dVertex
 10
654.4667724196604
 20
869.5994130844617
 30
0.0
  0
VERTEX
  5
2EEE
330
2EE6
100
AcDbEntity
  8
1_10
 62
     7
370
     9
100
AcDbVertex
100
AcDb2dVertex
 10
653.4403777785965
 20
869.7604436216001
 30
0.0
  0
SEQEND
  5
2EEF
330
2EE6
100
AcDbEntity
  8
1_10
370
     9
  0
POLYLINE
  5
2EF0
330
A
100
AcDbEntity
  8
1_10
 62
     7
370
     9
100
AcDb2dPolyline
 66
     1
 10
0.0
 20
0.0
 30
0.0
  0
VERTEX
  5
2EF1
330
2EF0
100
AcDbEntity
  8
1_10
 62
     7
370
     9
100
AcDbVertex
100
AcDb2dVertex
 10
645.8201327081053
 20
888.3913267021134
 30
0.0
  0
VERTEX
  5
2EF2
330
2EF0
100
AcDbEntity
  8
1_10
 62
     7
370
     9
100
AcDbVertex
100
AcDb2dVertex
 10
645.8201327081053
 20
891.9269971914537
 30
0.0
  0
SEQEND
  5
2EF3
330
2EF0
100
AcDbEntity
  8
1_10
370
     9
  0
POLYLINE
  5
2EF4
330
A
100
AcDbEntity
  8
1_10
 62
     7
370
     9
100
AcDb2dPolyline
 66
     1
 10
0.0
 20
0.0
 30
0.0
  0
VERTEX
  5
2EF5
330
2EF4
100
AcDbEntity
  8
1_10
 62
     7
370
     9
100
AcDbVertex
100
AcDb2dVertex
 10
633.0847176187785
 20
885.3247451687844
 30
0.0
  0
VERTEX
  5
2EF6
330
2EF4
100
AcDbEntity
  8
1_10
 62
     7
370
     9
100
AcDbVertex
100
AcDb2dVertex
 10
632.9264876127208
 20
886.2664237446583
 30
0.0
  0
VERTEX
  5
2EF7
330
2EF4
100
AcDbEntity
  8
1_10
 62
     7
370
     9
100
AcDbVertex
100
AcDb2dVertex
 10
632.5344132614275
 20
887.1345883796645
 30
0.0
  0
VERTEX
  5
2EF8
330
2EF4
100
AcDbEntity
  8
1_10
 62
     7
370
     9
100
AcDbVertex
100
AcDb2dVertex
 10
631.8272791635595
 20
887.7612072089635
 30
0.0
  0
VERTEX
  5
2EF9
330
2EF4
100
AcDbEntity
  8
1_10
 62
     7
370
     9
100
AcDbVertex
100
AcDb2dVertex
 10
630.9633153251741
 20
888.2337968288258
 30
0.0
  0
VERTEX
  5
2EFA
330
2EF4
100
AcDbEntity
  8
1_10
 62
     7
370
     9
100
AcDbVertex
100
AcDb2dVertex
 10
630.0209366165302
 20
888.3913267021134
 30
0.0
  0
SEQEND
  5
2EFB
330
2EF4
100
AcDbEntity
  8
1_10
370
     9
  0
POLYLINE
  5
2EFC
330
A
100
AcDbEntity
  8
1_10
 62
     7
370
     9
100
AcDb2dPolyline
 66
     1
 10
0.0
 20
0.0
 30
0.0
  0
VERTEX
  5
2EFD
330
2EFC
100
AcDbEntity
  8
1_10
 62
     7
370
     9
100
AcDbVertex
100
AcDb2dVertex
 10
633.0847176187785
 20
879.1915821021266
 30
0.0
  0
VERTEX
  5
2EFE
330
2EFC
100
AcDbEntity
  8
1_10
 62
     7
370
     9
100
AcDbVertex
100
AcDb2dVertex
 10
633.0847176187785
 20
885.3247451687844
 30
0.0
  0
SEQEND
  5
2EFF
330
2EFC
100
AcDbEntity
  8
1_10
370
     9
  0
POLYLINE
  5
2F00
330
A
100
AcDbEntity
  8
1_10
 62
     7
370
     9
100
AcDb2dPolyline
 66
     1
 10
0.0
 20
0.0
 30
0.0
  0
VERTEX
  5
2F01
330
2F00
100
AcDbEntity
  8
1_10
 62
     7
370
     9
100
AcDbVertex
100
AcDb2dVertex
 10
630.0209366165302
 20
876.1285012326487
 30
0.0
  0
VERTEX
  5
2F02
330
2F00
100
AcDbEntity
  8
1_10
 62
     7
370
     9
100
AcDbVertex
100
AcDb2dVertex
 10
630.9633153251741
 20
876.2860311059361
 30
0.0
  0
VERTEX
  5
2F03
330
2F00
100
AcDbEntity
  8
1_10
 62
     7
370
     9
100
AcDbVertex
100
AcDb2dVertex
 10
631.8272791635595
 20
876.7551200619478
 30
0.0
  0
VERTEX
  5
2F04
330
2F00
100
AcDbEntity
  8
1_10
 62
     7
370
     9
100
AcDbVertex
100
AcDb2dVertex
 10
632.5344132614275
 20
877.3852395550973
 30
0.0
  0
VERTEX
  5
2F05
330
2F00
100
AcDbEntity
  8
1_10
 62
     7
370
     9
100
AcDbVertex
100
AcDb2dVertex
 10
632.9264876127208
 20
878.249903526253
 30
0.0
  0
VERTEX
  5
2F06
330
2F00
100
AcDbEntity
  8
1_10
 62
     7
370
     9
100
AcDbVertex
100
AcDb2dVertex
 10
633.0847176187785
 20
879.1915821021266
 30
0.0
  0
SEQEND
  5
2F07
330
2F00
100
AcDbEntity
  8
1_10
370
     9
  0
POLYLINE
  5
2F08
330
A
100
AcDbEntity
  8
1_10
 62
     7
370
     9
100
AcDb2dPolyline
 66
     1
 10
0.0
 20
0.0
 30
0.0
  0
VERTEX
  5
2F09
330
2F08
100
AcDbEntity
  8
1_10
 62
     7
370
     9
100
AcDbVertex
100
AcDb2dVertex
 10
643.7785455503001
 20
878.1728889215346
 30
0.0
  0
VERTEX
  5
2F0A
330
2F08
100
AcDbEntity
  8
1_10
 62
     7
370
     9
100
AcDbVertex
100
AcDb2dVertex
 10
643.7785455503001
 20
886.3469390132275
 30
0.0
  0
SEQEND
  5
2F0B
330
2F08
100
AcDbEntity
  8
1_10
370
     9
  0
POLYLINE
  5
2F0C
330
A
100
AcDbEntity
  8
1_10
 62
     7
370
     9
100
AcDb2dPolyline
 66
     1
 10
0.0
 20
0.0
 30
0.0
  0
VERTEX
  5
2F0D
330
2F0C
100
AcDbEntity
  8
1_10
 62
     7
370
     9
100
AcDbVertex
100
AcDb2dVertex
 10
645.5848880973294
 20
876.1285012326487
 30
0.0
  0
VERTEX
  5
2F0E
330
2F0C
100
AcDbEntity
  8
1_10
 62
     7
370
     9
100
AcDbVertex
100
AcDb2dVertex
 10
646.1351924546802
 20
876.1285012326487
 30
0.0
  0
SEQEND
  5
2F0F
330
2F0C
100
AcDbEntity
  8
1_10
370
     9
  0
POLYLINE
  5
2F10
330
A
100
AcDbEntity
  8
1_10
 62
     7
370
     9
100
AcDb2dPolyline
 66
     1
 10
0.0
 20
0.0
 30
0.0
  0
VERTEX
  5
2F11
330
2F10
100
AcDbEntity
  8
1_10
 62
     7
370
     9
100
AcDbVertex
100
AcDb2dVertex
 10
643.7785455503001
 20
878.1728889215346
 30
0.0
  0
VERTEX
  5
2F12
330
2F10
100
AcDbEntity
  8
1_10
 62
     7
370
     9
100
AcDbVertex
100
AcDb2dVertex
 10
643.9367755563578
 20
877.3852395550973
 30
0.0
  0
VERTEX
  5
2F13
330
2F10
100
AcDbEntity
  8
1_10
 62
     7
370
     9
100
AcDbVertex
100
AcDb2dVertex
 10
644.3246491110299
 20
876.7551200619478
 30
0.0
  0
VERTEX
  5
2F14
330
2F10
100
AcDbEntity
  8
1_10
 62
     7
370
     9
100
AcDbVertex
100
AcDb2dVertex
 10
645.0317832088979
 20
876.2860311059361
 30
0.0
  0
VERTEX
  5
2F15
330
2F10
100
AcDbEntity
  8
1_10
 62
     7
370
     9
100
AcDbVertex
100
AcDb2dVertex
 10
645.8201327081053
 20
876.1285012326487
 30
0.0
  0
SEQEND
  5
2F16
330
2F10
100
AcDbEntity
  8
1_10
370
     9
  0
POLYLINE
  5
2F17
330
A
100
AcDbEntity
  8
1_10
 62
     7
370
     9
100
AcDb2dPolyline
 66
     1
 10
0.0
 20
0.0
 30
0.0
  0
VERTEX
  5
2F18
330
2F17
100
AcDbEntity
  8
1_10
 62
     7
370
     9
100
AcDbVertex
100
AcDb2dVertex
 10
645.8201327081053
 20
888.3913267021134
 30
0.0
  0
VERTEX
  5
2F19
330
2F17
100
AcDbEntity
  8
1_10
 62
     7
370
     9
100
AcDbVertex
100
AcDb2dVertex
 10
645.0317832088979
 20
888.2337968288258
 30
0.0
  0
VERTEX
  5
2F1A
330
2F17
100
AcDbEntity
  8
1_10
 62
     7
370
     9
100
AcDbVertex
100
AcDb2dVertex
 10
644.3246491110299
 20
887.7612072089635
 30
0.0
  0
VERTEX
  5
2F1B
330
2F17
100
AcDbEntity
  8
1_10
 62
     7
370
     9
100
AcDbVertex
100
AcDb2dVertex
 10
643.9367755563578
 20
887.1345883796645
 30
0.0
  0
VERTEX
  5
2F1C
330
2F17
100
AcDbEntity
  8
1_10
 62
     7
370
     9
100
AcDbVertex
100
AcDb2dVertex
 10
643.7785455503001
 20
886.3469390132275
 30
0.0
  0
SEQEND
  5
2F1D
330
2F17
100
AcDbEntity
  8
1_10
370
     9
  0
POLYLINE
  5
2F1E
330
A
100
AcDbEntity
  8
1_10
 62
     7
370
     9
100
AcDb2dPolyline
 66
     1
 10
0.0
 20
0.0
 30
0.0
  0
VERTEX
  5
2F1F
330
2F1E
100
AcDbEntity
  8
1_10
 62
     7
370
     9
100
AcDbVertex
100
AcDb2dVertex
 10
645.5848880973294
 20
888.3913267021134
 30
0.0
  0
VERTEX
  5
2F20
330
2F1E
100
AcDbEntity
  8
1_10
 62
     7
370
     9
100
AcDbVertex
100
AcDb2dVertex
 10
646.1351924546802
 20
888.3913267021134
 30
0.0
  0
SEQEND
  5
2F21
330
2F1E
100
AcDbEntity
  8
1_10
370
     9
  0
POLYLINE
  5
2F22
330
A
100
AcDbEntity
  8
1_10
 62
     7
370
     9
100
AcDb2dPolyline
 66
     1
 10
0.0
 20
0.0
 30
0.0
  0
VERTEX
  5
2F23
330
2F22
100
AcDbEntity
  8
1_10
 62
     7
370
     9
100
AcDbVertex
100
AcDb2dVertex
 10
656.9830495956385
 20
906.6301354313334
 30
0.0
  0
VERTEX
  5
2F24
330
2F22
100
AcDbEntity
  8
1_10
 62
     7
370
     9
100
AcDbVertex
100
AcDb2dVertex
 10
657.4563393482711
 20
905.6044409230395
 30
0.0
  0
SEQEND
  5
2F25
330
2F22
100
AcDbEntity
  8
1_10
370
     9
  0
POLYLINE
  5
2F26
330
A
100
AcDbEntity
  8
1_10
 62
     7
370
     9
100
AcDb2dPolyline
 66
     1
 10
0.0
 20
0.0
 30
0.0
  0
VERTEX
  5
2F27
330
2F26
100
AcDbEntity
  8
1_10
 62
     7
370
     9
100
AcDbVertex
100
AcDb2dVertex
 10
656.9830495956385
 20
891.9269971914537
 30
0.0
  0
VERTEX
  5
2F28
330
2F26
100
AcDbEntity
  8
1_10
 62
     7
370
     9
100
AcDbVertex
100
AcDb2dVertex
 10
656.9830495956385
 20
897.5105560335307
 30
0.0
  0
SEQEND
  5
2F29
330
2F26
100
AcDbEntity
  8
1_10
370
     9
  0
POLYLINE
  5
2F2A
330
A
100
AcDbEntity
  8
1_10
 62
     7
370
     9
100
AcDb2dPolyline
 66
     1
 10
0.0
 20
0.0
 30
0.0
  0
VERTEX
  5
2F2B
330
2F2A
100
AcDbEntity
  8
1_10
 62
     7
370
     9
100
AcDbVertex
100
AcDb2dVertex
 10
381.2289358601496
 20
843.999395656716
 30
0.0
  0
VERTEX
  5
2F2C
330
2F2A
100
AcDbEntity
  8
1_10
 62
     7
370
     9
100
AcDbVertex
100
AcDb2dVertex
 10
381.2289358601496
 20
836.9245540141844
 30
0.0
  0
SEQEND
  5
2F2D
330
2F2A
100
AcDbEntity
  8
1_10
370
     9
  0
POLYLINE
  5
2F2E
330
A
100
AcDbEntity
  8
1_10
 62
     7
370
     9
100
AcDb2dPolyline
 66
     1
 10
0.0
 20
0.0
 30
0.0
  0
VERTEX
  5
2F2F
330
2F2E
100
AcDbEntity
  8
1_10
 62
     7
370
     9
100
AcDbVertex
100
AcDb2dVertex
 10
368.0324833416681
 20
1010.762619917112
 30
0.0
  0
VERTEX
  5
2F30
330
2F2E
100
AcDbEntity
  8
1_10
 62
     7
370
     9
100
AcDbVertex
100
AcDb2dVertex
 10
367.2315314525978
 20
1010.106245445081
 30
0.0
  0
VERTEX
  5
2F31
330
2F2E
100
AcDbEntity
  8
1_10
 62
     7
370
     9
100
AcDbVertex
100
AcDb2dVertex
 10
366.6444701248132
 20
1009.378107364108
 30
0.0
  0
VERTEX
  5
2F32
330
2F2E
100
AcDbEntity
  8
1_10
 62
     7
370
     9
100
AcDbVertex
100
AcDb2dVertex
 10
366.2804010843267
 20
1008.428727327763
 30
0.0
  0
VERTEX
  5
2F33
330
2F2E
100
AcDbEntity
  8
1_10
 62
     7
370
     9
100
AcDbVertex
100
AcDb2dVertex
 10
366.1333732025917
 20
1007.478297092262
 30
0.0
  0
VERTEX
  5
2F34
330
2F2E
100
AcDbEntity
  8
1_10
 62
     7
370
     9
100
AcDbVertex
100
AcDb2dVertex
 10
366.2804010843267
 20
1006.457853579744
 30
0.0
  0
VERTEX
  5
2F35
330
2F2E
100
AcDbEntity
  8
1_10
 62
     7
370
     9
100
AcDbVertex
100
AcDb2dVertex
 10
366.6444701248132
 20
1005.579887085956
 30
0.0
  0
VERTEX
  5
2F36
330
2F2E
100
AcDbEntity
  8
1_10
 62
     7
370
     9
100
AcDbVertex
100
AcDb2dVertex
 10
367.2315314525978
 20
1004.779985396041
 30
0.0
  0
VERTEX
  5
2F37
330
2F2E
100
AcDbEntity
  8
1_10
 62
     7
370
     9
100
AcDbVertex
100
AcDb2dVertex
 10
368.0324833416681
 20
1004.19117373633
 30
0.0
  0
SEQEND
  5
2F38
330
2F2E
100
AcDbEntity
  8
1_10
370
     9
  0
POLYLINE
  5
2F39
330
A
100
AcDbEntity
  8
1_10
 62
     7
370
     9
100
AcDb2dPolyline
 66
     1
 10
0.0
 20
0.0
 30
0.0
  0
VERTEX
  5
2F3A
330
2F39
100
AcDbEntity
  8
1_10
 62
     7
370
     9
100
AcDbVertex
100
AcDb2dVertex
 10
377.7020170304363
 20
1000.95025914323
 30
0.0
  0
VERTEX
  5
2F3B
330
2F39
100
AcDbEntity
  8
1_10
 62
     7
370
     9
100
AcDbVertex
100
AcDb2dVertex
 10
358.3625995865146
 20
1000.95025914323
 30
0.0
  0
SEQEND
  5
2F3C
330
2F39
100
AcDbEntity
  8
1_10
370
     9
  0
POLYLINE
  5
2F3D
330
A
100
AcDbEntity
  8
1_10
 62
     7
370
     9
100
AcDb2dPolyline
 66
     1
 10
0.0
 20
0.0
 30
0.0
  0
VERTEX
  5
2F3E
330
2F3D
100
AcDbEntity
  8
1_10
 62
     7
370
     9
100
AcDbVertex
100
AcDb2dVertex
 10
358.3625995865146
 20
991.8310298118126
 30
0.0
  0
VERTEX
  5
2F3F
330
2F3D
100
AcDbEntity
  8
1_10
 62
     7
370
     9
100
AcDbVertex
100
AcDb2dVertex
 10
377.7020170304363
 20
991.8310298118126
 30
0.0
  0
SEQEND
  5
2F40
330
2F3D
100
AcDbEntity
  8
1_10
370
     9
  0
POLYLINE
  5
2F41
330
A
100
AcDbEntity
  8
1_10
 62
     7
370
     9
100
AcDb2dPolyline
 66
     1
 10
0.0
 20
0.0
 30
0.0
  0
VERTEX
  5
2F42
330
2F41
100
AcDbEntity
  8
1_10
 62
     7
370
     9
100
AcDbVertex
100
AcDb2dVertex
 10
360.4052369434752
 20
1000.95025914323
 30
0.0
  0
VERTEX
  5
2F43
330
2F41
100
AcDbEntity
  8
1_10
 62
     7
370
     9
100
AcDbVertex
100
AcDb2dVertex
 10
359.6210882408888
 20
999.7740360893506
 30
0.0
  0
VERTEX
  5
2F44
330
2F41
100
AcDbEntity
  8
1_10
 62
     7
370
     9
100
AcDbVertex
100
AcDb2dVertex
 10
359.1467482891011
 20
998.4367824983328
 30
0.0
  0
VERTEX
  5
2F45
330
2F41
100
AcDbEntity
  8
1_10
 62
     7
370
     9
100
AcDbVertex
100
AcDb2dVertex
 10
358.9139541430208
 20
997.0995289073148
 30
0.0
  0
VERTEX
  5
2F46
330
2F41
100
AcDbEntity
  8
1_10
 62
     7
370
     9
100
AcDbVertex
100
AcDb2dVertex
 10
358.9139541430208
 20
995.6852607115786
 30
0.0
  0
VERTEX
  5
2F47
330
2F41
100
AcDbEntity
  8
1_10
 62
     7
370
     9
100
AcDbVertex
100
AcDb2dVertex
 10
359.1467482891011
 20
994.2709925158426
 30
0.0
  0
VERTEX
  5
2F48
330
2F41
100
AcDbEntity
  8
1_10
 62
     7
370
     9
100
AcDbVertex
100
AcDb2dVertex
 10
359.6210882408888
 20
993.0107535295429
 30
0.0
  0
VERTEX
  5
2F49
330
2F41
100
AcDbEntity
  8
1_10
 62
     7
370
     9
100
AcDbVertex
100
AcDb2dVertex
 10
360.4052369434752
 20
991.8310298118126
 30
0.0
  0
SEQEND
  5
2F4A
330
2F41
100
AcDbEntity
  8
1_10
370
     9
  0
POLYLINE
  5
2F4B
330
A
100
AcDbEntity
  8
1_10
 62
     7
370
     9
100
AcDb2dPolyline
 66
     1
 10
0.0
 20
0.0
 30
0.0
  0
VERTEX
  5
2F4C
330
2F4B
100
AcDbEntity
  8
1_10
 62
     7
370
     9
100
AcDbVertex
100
AcDb2dVertex
 10
358.3625995865146
 20
1000.95025914323
 30
0.0
  0
VERTEX
  5
2F4D
330
2F4B
100
AcDbEntity
  8
1_10
 62
     7
370
     9
100
AcDbVertex
100
AcDb2dVertex
 10
358.3625995865146
 20
991.8310298118126
 30
0.0
  0
SEQEND
  5
2F4E
330
2F4B
100
AcDbEntity
  8
1_10
370
     9
  0
POLYLINE
  5
2F4F
330
A
100
AcDbEntity
  8
1_10
 62
     7
370
     9
100
AcDb2dPolyline
 66
     1
 10
0.0
 20
0.0
 30
0.0
  0
VERTEX
  5
2F50
330
2F4F
100
AcDbEntity
  8
1_10
 62
     7
370
     9
100
AcDbVertex
100
AcDb2dVertex
 10
375.6576293415505
 20
991.8310298118126
 30
0.0
  0
VERTEX
  5
2F51
330
2F4F
100
AcDbEntity
  8
1_10
 62
     7
370
     9
100
AcDbVertex
100
AcDb2dVertex
 10
376.3665137713439
 20
993.0107535295429
 30
0.0
  0
VERTEX
  5
2F52
330
2F4F
100
AcDbEntity
  8
1_10
 62
     7
370
     9
100
AcDbVertex
100
AcDb2dVertex
 10
376.8373530592808
 20
994.2709925158426
 30
0.0
  0
VERTEX
  5
2F53
330
2F4F
100
AcDbEntity
  8
1_10
 62
     7
370
     9
100
AcDbVertex
100
AcDb2dVertex
 10
377.1506624739301
 20
995.6852607115786
 30
0.0
  0
VERTEX
  5
2F54
330
2F4F
100
AcDbEntity
  8
1_10
 62
     7
370
     9
100
AcDbVertex
100
AcDb2dVertex
 10
377.1506624739301
 20
997.0995289073148
 30
0.0
  0
VERTEX
  5
2F55
330
2F4F
100
AcDbEntity
  8
1_10
 62
     7
370
     9
100
AcDbVertex
100
AcDb2dVertex
 10
376.8373530592808
 20
998.4367824983328
 30
0.0
  0
VERTEX
  5
2F56
330
2F4F
100
AcDbEntity
  8
1_10
 62
     7
370
     9
100
AcDbVertex
100
AcDb2dVertex
 10
376.3665137713439
 20
999.7740360893506
 30
0.0
  0
VERTEX
  5
2F57
330
2F4F
100
AcDbEntity
  8
1_10
 62
     7
370
     9
100
AcDbVertex
100
AcDb2dVertex
 10
375.6576293415505
 20
1000.95025914323
 30
0.0
  0
SEQEND
  5
2F58
330
2F4F
100
AcDbEntity
  8
1_10
370
     9
  0
POLYLINE
  5
2F59
330
A
100
AcDbEntity
  8
1_10
 62
     7
370
     9
100
AcDb2dPolyline
 66
     1
 10
0.0
 20
0.0
 30
0.0
  0
VERTEX
  5
2F5A
330
2F59
100
AcDbEntity
  8
1_10
 62
     7
370
     9
100
AcDbVertex
100
AcDb2dVertex
 10
377.7020170304363
 20
994.1134626425551
 30
0.0
  0
VERTEX
  5
2F5B
330
2F59
100
AcDbEntity
  8
1_10
 62
     7
370
     9
100
AcDbVertex
100
AcDb2dVertex
 10
378.8817407481667
 20
994.1134626425551
 30
0.0
  0
SEQEND
  5
2F5C
330
2F59
100
AcDbEntity
  8
1_10
370
     9
  0
POLYLINE
  5
2F5D
330
A
100
AcDbEntity
  8
1_10
 62
     7
370
     9
100
AcDb2dPolyline
 66
     1
 10
0.0
 20
0.0
 30
0.0
  0
VERTEX
  5
2F5E
330
2F5D
100
AcDbEntity
  8
1_10
 62
     7
370
     9
100
AcDbVertex
100
AcDb2dVertex
 10
380.5946155703788
 20
996.8614837654582
 30
0.0
  0
VERTEX
  5
2F5F
330
2F5D
100
AcDbEntity
  8
1_10
 62
     7
370
     9
100
AcDbVertex
100
AcDb2dVertex
 10
379.8297205189718
 20
996.8614837654582
 30
0.0
  0
SEQEND
  5
2F60
330
2F5D
100
AcDbEntity
  8
1_10
370
     9
  0
POLYLINE
  5
2F61
330
A
100
AcDbEntity
  8
1_10
 62
     7
370
     9
100
AcDb2dPolyline
 66
     1
 10
0.0
 20
0.0
 30
0.0
  0
VERTEX
  5
2F62
330
2F61
100
AcDbEntity
  8
1_10
 62
     7
370
     9
100
AcDbVertex
100
AcDb2dVertex
 10
380.5946155703788
 20
995.8392899210153
 30
0.0
  0
VERTEX
  5
2F63
330
2F61
100
AcDbEntity
  8
1_10
 62
     7
370
     9
100
AcDbVertex
100
AcDb2dVertex
 10
379.8297205189718
 20
995.8392899210153
 30
0.0
  0
SEQEND
  5
2F64
330
2F61
100
AcDbEntity
  8
1_10
370
     9
  0
POLYLINE
  5
2F65
330
A
100
AcDbEntity
  8
1_10
 62
     7
370
     9
100
AcDb2dPolyline
 66
     1
 10
0.0
 20
0.0
 30
0.0
  0
VERTEX
  5
2F66
330
2F65
100
AcDbEntity
  8
1_10
 62
     7
370
     9
100
AcDbVertex
100
AcDb2dVertex
 10
379.8297205189718
 20
996.8614837654582
 30
0.0
  0
VERTEX
  5
2F67
330
2F65
100
AcDbEntity
  8
1_10
 62
     7
370
     9
100
AcDbVertex
100
AcDb2dVertex
 10
379.8297205189718
 20
995.8392899210153
 30
0.0
  0
SEQEND
  5
2F68
330
2F65
100
AcDbEntity
  8
1_10
370
     9
  0
POLYLINE
  5
2F69
330
A
100
AcDbEntity
  8
1_10
 62
     7
370
     9
100
AcDb2dPolyline
 66
     1
 10
0.0
 20
0.0
 30
0.0
  0
VERTEX
  5
2F6A
330
2F69
100
AcDbEntity
  8
1_10
 62
     7
370
     9
100
AcDbVertex
100
AcDb2dVertex
 10
377.7020170304363
 20
991.8310298118126
 30
0.0
  0
VERTEX
  5
2F6B
330
2F69
100
AcDbEntity
  8
1_10
 62
     7
370
     9
100
AcDbVertex
100
AcDb2dVertex
 10
377.7020170304363
 20
1000.95025914323
 30
0.0
  0
SEQEND
  5
2F6C
330
2F69
100
AcDbEntity
  8
1_10
370
     9
  0
POLYLINE
  5
2F6D
330
A
100
AcDbEntity
  8
1_10
 62
     7
370
     9
100
AcDb2dPolyline
 66
     1
 10
0.0
 20
0.0
 30
0.0
  0
VERTEX
  5
2F6E
330
2F6D
100
AcDbEntity
  8
1_10
 62
     7
370
     9
100
AcDbVertex
100
AcDb2dVertex
 10
377.7020170304363
 20
998.0412074831886
 30
0.0
  0
VERTEX
  5
2F6F
330
2F6D
100
AcDbEntity
  8
1_10
 62
     7
370
     9
100
AcDbVertex
100
AcDb2dVertex
 10
378.8817407481667
 20
998.0412074831886
 30
0.0
  0
SEQEND
  5
2F70
330
2F6D
100
AcDbEntity
  8
1_10
370
     9
  0
POLYLINE
  5
2F71
330
A
100
AcDbEntity
  8
1_10
 62
     7
370
     9
100
AcDb2dPolyline
 66
     1
 10
0.0
 20
0.0
 30
0.0
  0
VERTEX
  5
2F72
330
2F71
100
AcDbEntity
  8
1_10
 62
     7
370
     9
100
AcDbVertex
100
AcDb2dVertex
 10
377.7020170304363
 20
994.6665675309866
 30
0.0
  0
VERTEX
  5
2F73
330
2F71
100
AcDbEntity
  8
1_10
 62
     7
370
     9
100
AcDbVertex
100
AcDb2dVertex
 10
378.8817407481667
 20
994.6665675309866
 30
0.0
  0
SEQEND
  5
2F74
330
2F71
100
AcDbEntity
  8
1_10
370
     9
  0
POLYLINE
  5
2F75
330
A
100
AcDbEntity
  8
1_10
 62
     7
370
     9
100
AcDb2dPolyline
 66
     1
 10
0.0
 20
0.0
 30
0.0
  0
VERTEX
  5
2F76
330
2F75
100
AcDbEntity
  8
1_10
 62
     7
370
     9
100
AcDbVertex
100
AcDb2dVertex
 10
378.8817407481667
 20
998.9058714543442
 30
0.0
  0
VERTEX
  5
2F77
330
2F75
100
AcDbEntity
  8
1_10
 62
     7
370
     9
100
AcDbVertex
100
AcDb2dVertex
 10
377.7020170304363
 20
998.9058714543442
 30
0.0
  0
SEQEND
  5
2F78
330
2F75
100
AcDbEntity
  8
1_10
370
     9
  0
POLYLINE
  5
2F79
330
A
100
AcDbEntity
  8
1_10
 62
     7
370
     9
100
AcDb2dPolyline
 66
     1
 10
0.0
 20
0.0
 30
0.0
  0
VERTEX
  5
2F7A
330
2F79
100
AcDbEntity
  8
1_10
 62
     7
370
     9
100
AcDbVertex
100
AcDb2dVertex
 10
378.8817407481667
 20
993.8754175006984
 30
0.0
  0
VERTEX
  5
2F7B
330
2F79
100
AcDbEntity
  8
1_10
 62
     7
370
     9
100
AcDbVertex
100
AcDb2dVertex
 10
377.7020170304363
 20
993.8754175006984
 30
0.0
  0
SEQEND
  5
2F7C
330
2F79
100
AcDbEntity
  8
1_10
370
     9
  0
POLYLINE
  5
2F7D
330
A
100
AcDbEntity
  8
1_10
 62
     7
370
     9
100
AcDb2dPolyline
 66
     1
 10
0.0
 20
0.0
 30
0.0
  0
VERTEX
  5
2F7E
330
2F7D
100
AcDbEntity
  8
1_10
 62
     7
370
     9
100
AcDbVertex
100
AcDb2dVertex
 10
378.8817407481667
 20
1000.481170187219
 30
0.0
  0
VERTEX
  5
2F7F
330
2F7D
100
AcDbEntity
  8
1_10
 62
     7
370
     9
100
AcDbVertex
100
AcDb2dVertex
 10
378.8817407481667
 20
992.3071200955258
 30
0.0
  0
SEQEND
  5
2F80
330
2F7D
100
AcDbEntity
  8
1_10
370
     9
  0
POLYLINE
  5
2F81
330
A
100
AcDbEntity
  8
1_10
 62
     7
370
     9
100
AcDb2dPolyline
 66
     1
 10
0.0
 20
0.0
 30
0.0
  0
VERTEX
  5
2F82
330
2F81
100
AcDbEntity
  8
1_10
 62
     7
370
     9
100
AcDbVertex
100
AcDb2dVertex
 10
377.7020170304363
 20
998.6748276401893
 30
0.0
  0
VERTEX
  5
2F83
330
2F81
100
AcDbEntity
  8
1_10
 62
     7
370
     9
100
AcDbVertex
100
AcDb2dVertex
 10
378.8817407481667
 20
998.6748276401893
 30
0.0
  0
SEQEND
  5
2F84
330
2F81
100
AcDbEntity
  8
1_10
370
     9
  0
POLYLINE
  5
2F85
330
A
100
AcDbEntity
  8
1_10
 62
     7
370
     9
100
AcDb2dPolyline
 66
     1
 10
0.0
 20
0.0
 30
0.0
  0
VERTEX
  5
2F86
330
2F85
100
AcDbEntity
  8
1_10
 62
     7
370
     9
100
AcDbVertex
100
AcDb2dVertex
 10
380.7626474352186
 20
998.1217227517577
 30
0.0
  0
VERTEX
  5
2F87
330
2F85
100
AcDbEntity
  8
1_10
 62
     7
370
     9
100
AcDbVertex
100
AcDb2dVertex
 10
380.7626474352186
 20
994.6665675309866
 30
0.0
  0
SEQEND
  5
2F88
330
2F85
100
AcDbEntity
  8
1_10
370
     9
  0
SPLINE
  5
2F89
330
A
100
AcDbEntity
  8
1_10
 62
     7
370
     9
100
AcDbSpline
210
0.0
220
0.0
230
1.0
 70
     8
 71
     3
 72
     8
 73
     4
 74
     0
 42
0.000000001
 43
0.0000000001
 40
0.0
 40
0.0
 40
0.0
 40
0.0
 40
1.0
 40
1.0
 40
1.0
 40
1.0
 10
380.7626474352186
 20
998.1217227517577
 30
0.0
 10
380.7626474352186
 20
999.1204621484001
 30
0.0
 10
380.1787367048998
 20
1000.481170187219
 30
0.0
 10
378.8817407481667
 20
1000.481170187219
 30
0.0
  0
SPLINE
  5
2F8A
330
A
100
AcDbEntity
  8
1_10
 62
     7
370
     9
100
AcDbSpline
210
0.0
220
0.0
230
1.0
 70
     8
 71
     3
 72
     8
 73
     4
 74
     0
 42
0.000000001
 43
0.0000000001
 40
0.0
 40
0.0
 40
0.0
 40
0.0
 40
1.0
 40
1.0
 40
1.0
 40
1.0
 10
380.7626474352186
 20
994.6665675309866
 30
0.0
 10
380.7626474352186
 20
993.6646775368786
 30
0.0
 10
380.1787367048998
 20
992.3071200955258
 30
0.0
 10
378.8817407481667
 20
992.3071200955258
 30
0.0
  0
POLYLINE
  5
2F8B
330
A
100
AcDbEntity
  8
1_10
 62
     7
370
     9
100
AcDb2dPolyline
 66
     1
 10
0.0
 20
0.0
 30
0.0
  0
VERTEX
  5
2F8C
330
2F8B
100
AcDbEntity
  8
1_10
 62
     7
370
     9
100
AcDbVertex
100
AcDb2dVertex
 10
361.663025465079
 20
991.8310298118126
 30
0.0
  0
VERTEX
  5
2F8D
330
2F8B
100
AcDbEntity
  8
1_10
 62
     7
370
     9
100
AcDbVertex
100
AcDb2dVertex
 10
361.663025465079
 20
990.6513060940822
 30
0.0
  0
SEQEND
  5
2F8E
330
2F8B
100
AcDbEntity
  8
1_10
370
     9
  0
POLYLINE
  5
2F8F
330
A
100
AcDbEntity
  8
1_10
 62
     7
370
     9
100
AcDb2dPolyline
 66
     1
 10
0.0
 20
0.0
 30
0.0
  0
VERTEX
  5
2F90
330
2F8F
100
AcDbEntity
  8
1_10
 62
     7
370
     9
100
AcDbVertex
100
AcDb2dVertex
 10
364.4110465879822
 20
988.9387813382551
 30
0.0
  0
VERTEX
  5
2F91
330
2F8F
100
AcDbEntity
  8
1_10
 62
     7
370
     9
100
AcDbVertex
100
AcDb2dVertex
 10
364.4110465879822
 20
989.7036763896622
 30
0.0
  0
SEQEND
  5
2F92
330
2F8F
100
AcDbEntity
  8
1_10
370
     9
  0
POLYLINE
  5
2F93
330
A
100
AcDbEntity
  8
1_10
 62
     7
370
     9
100
AcDb2dPolyline
 66
     1
 10
0.0
 20
0.0
 30
0.0
  0
VERTEX
  5
2F94
330
2F93
100
AcDbEntity
  8
1_10
 62
     7
370
     9
100
AcDbVertex
100
AcDb2dVertex
 10
363.3888527435394
 20
988.9387813382551
 30
0.0
  0
VERTEX
  5
2F95
330
2F93
100
AcDbEntity
  8
1_10
 62
     7
370
     9
100
AcDbVertex
100
AcDb2dVertex
 10
363.3888527435394
 20
989.7036763896622
 30
0.0
  0
SEQEND
  5
2F96
330
2F93
100
AcDbEntity
  8
1_10
370
     9
  0
POLYLINE
  5
2F97
330
A
100
AcDbEntity
  8
1_10
 62
     7
370
     9
100
AcDb2dPolyline
 66
     1
 10
0.0
 20
0.0
 30
0.0
  0
VERTEX
  5
2F98
330
2F97
100
AcDbEntity
  8
1_10
 62
     7
370
     9
100
AcDbVertex
100
AcDb2dVertex
 10
364.4110465879822
 20
989.7036763896622
 30
0.0
  0
VERTEX
  5
2F99
330
2F97
100
AcDbEntity
  8
1_10
 62
     7
370
     9
100
AcDbVertex
100
AcDb2dVertex
 10
363.3888527435394
 20
989.7036763896622
 30
0.0
  0
SEQEND
  5
2F9A
330
2F97
100
AcDbEntity
  8
1_10
370
     9
  0
POLYLINE
  5
2F9B
330
A
100
AcDbEntity
  8
1_10
 62
     7
370
     9
100
AcDb2dPolyline
 66
     1
 10
0.0
 20
0.0
 30
0.0
  0
VERTEX
  5
2F9C
330
2F9B
100
AcDbEntity
  8
1_10
 62
     7
370
     9
100
AcDbVertex
100
AcDb2dVertex
 10
365.5907703057126
 20
991.8310298118126
 30
0.0
  0
VERTEX
  5
2F9D
330
2F9B
100
AcDbEntity
  8
1_10
 62
     7
370
     9
100
AcDbVertex
100
AcDb2dVertex
 10
365.5907703057126
 20
990.6513060940822
 30
0.0
  0
SEQEND
  5
2F9E
330
2F9B
100
AcDbEntity
  8
1_10
370
     9
  0
POLYLINE
  5
2F9F
330
A
100
AcDbEntity
  8
1_10
 62
     7
370
     9
100
AcDb2dPolyline
 66
     1
 10
0.0
 20
0.0
 30
0.0
  0
VERTEX
  5
2FA0
330
2F9F
100
AcDbEntity
  8
1_10
 62
     7
370
     9
100
AcDbVertex
100
AcDb2dVertex
 10
362.2161303535106
 20
991.8310298118126
 30
0.0
  0
VERTEX
  5
2FA1
330
2F9F
100
AcDbEntity
  8
1_10
 62
     7
370
     9
100
AcDbVertex
100
AcDb2dVertex
 10
362.2161303535106
 20
990.6513060940822
 30
0.0
  0
SEQEND
  5
2FA2
330
2F9F
100
AcDbEntity
  8
1_10
370
     9
  0
POLYLINE
  5
2FA3
330
A
100
AcDbEntity
  8
1_10
 62
     7
370
     9
100
AcDb2dPolyline
 66
     1
 10
0.0
 20
0.0
 30
0.0
  0
VERTEX
  5
2FA4
330
2FA3
100
AcDbEntity
  8
1_10
 62
     7
370
     9
100
AcDbVertex
100
AcDb2dVertex
 10
366.4554342768682
 20
990.6513060940822
 30
0.0
  0
VERTEX
  5
2FA5
330
2FA3
100
AcDbEntity
  8
1_10
 62
     7
370
     9
100
AcDbVertex
100
AcDb2dVertex
 10
366.4554342768682
 20
991.8310298118126
 30
0.0
  0
SEQEND
  5
2FA6
330
2FA3
100
AcDbEntity
  8
1_10
370
     9
  0
POLYLINE
  5
2FA7
330
A
100
AcDbEntity
  8
1_10
 62
     7
370
     9
100
AcDb2dPolyline
 66
     1
 10
0.0
 20
0.0
 30
0.0
  0
VERTEX
  5
2FA8
330
2FA7
100
AcDbEntity
  8
1_10
 62
     7
370
     9
100
AcDbVertex
100
AcDb2dVertex
 10
361.4249803232225
 20
990.6513060940822
 30
0.0
  0
VERTEX
  5
2FA9
330
2FA7
100
AcDbEntity
  8
1_10
 62
     7
370
     9
100
AcDbVertex
100
AcDb2dVertex
 10
361.4249803232225
 20
991.8310298118126
 30
0.0
  0
SEQEND
  5
2FAA
330
2FA7
100
AcDbEntity
  8
1_10
370
     9
  0
POLYLINE
  5
2FAB
330
A
100
AcDbEntity
  8
1_10
 62
     7
370
     9
100
AcDb2dPolyline
 66
     1
 10
0.0
 20
0.0
 30
0.0
  0
VERTEX
  5
2FAC
330
2FAB
100
AcDbEntity
  8
1_10
 62
     7
370
     9
100
AcDbVertex
100
AcDb2dVertex
 10
366.4554342768682
 20
1000.95025914323
 30
0.0
  0
VERTEX
  5
2FAD
330
2FAB
100
AcDbEntity
  8
1_10
 62
     7
370
     9
100
AcDbVertex
100
AcDb2dVertex
 10
366.4554342768682
 20
1002.212248461455
 30
0.0
  0
SEQEND
  5
2FAE
330
2FAB
100
AcDbEntity
  8
1_10
370
     9
  0
POLYLINE
  5
2FAF
330
A
100
AcDbEntity
  8
1_10
 62
     7
370
     9
100
AcDb2dPolyline
 66
     1
 10
0.0
 20
0.0
 30
0.0
  0
VERTEX
  5
2FB0
330
2FAF
100
AcDbEntity
  8
1_10
 62
     7
370
     9
100
AcDbVertex
100
AcDb2dVertex
 10
361.4249803232225
 20
1000.95025914323
 30
0.0
  0
VERTEX
  5
2FB1
330
2FAF
100
AcDbEntity
  8
1_10
 62
     7
370
     9
100
AcDbVertex
100
AcDb2dVertex
 10
361.4249803232225
 20
1002.212248461455
 30
0.0
  0
SEQEND
  5
2FB2
330
2FAF
100
AcDbEntity
  8
1_10
370
     9
  0
POLYLINE
  5
2FB3
330
A
100
AcDbEntity
  8
1_10
 62
     7
370
     9
100
AcDb2dPolyline
 66
     1
 10
0.0
 20
0.0
 30
0.0
  0
VERTEX
  5
2FB4
330
2FB3
100
AcDbEntity
  8
1_10
 62
     7
370
     9
100
AcDbVertex
100
AcDb2dVertex
 10
368.0307330097427
 20
990.6513060940822
 30
0.0
  0
VERTEX
  5
2FB5
330
2FB3
100
AcDbEntity
  8
1_10
 62
     7
370
     9
100
AcDbVertex
100
AcDb2dVertex
 10
359.8566829180498
 20
990.6513060940822
 30
0.0
  0
SEQEND
  5
2FB6
330
2FB3
100
AcDbEntity
  8
1_10
370
     9
  0
POLYLINE
  5
2FB7
330
A
100
AcDbEntity
  8
1_10
 62
     7
370
     9
100
AcDb2dPolyline
 66
     1
 10
0.0
 20
0.0
 30
0.0
  0
VERTEX
  5
2FB8
330
2FB7
100
AcDbEntity
  8
1_10
 62
     7
370
     9
100
AcDbVertex
100
AcDb2dVertex
 10
366.2243904627132
 20
991.8310298118126
 30
0.0
  0
VERTEX
  5
2FB9
330
2FB7
100
AcDbEntity
  8
1_10
 62
     7
370
     9
100
AcDbVertex
100
AcDb2dVertex
 10
366.2243904627132
 20
990.6513060940822
 30
0.0
  0
SEQEND
  5
2FBA
330
2FB7
100
AcDbEntity
  8
1_10
370
     9
  0
POLYLINE
  5
2FBB
330
A
100
AcDbEntity
  8
1_10
 62
     7
370
     9
100
AcDb2dPolyline
 66
     1
 10
0.0
 20
0.0
 30
0.0
  0
VERTEX
  5
2FBC
330
2FBB
100
AcDbEntity
  8
1_10
 62
     7
370
     9
100
AcDbVertex
100
AcDb2dVertex
 10
365.6712855742817
 20
988.7707494734153
 30
0.0
  0
VERTEX
  5
2FBD
330
2FBB
100
AcDbEntity
  8
1_10
 62
     7
370
     9
100
AcDbVertex
100
AcDb2dVertex
 10
362.2161303535106
 20
988.7707494734153
 30
0.0
  0
SEQEND
  5
2FBE
330
2FBB
100
AcDbEntity
  8
1_10
370
     9
  0
SPLINE
  5
2FBF
330
A
100
AcDbEntity
  8
1_10
 62
     7
370
     9
100
AcDbSpline
210
0.0
220
0.0
230
1.0
 70
     8
 71
     3
 72
     8
 73
     4
 74
     0
 42
0.000000001
 43
0.0000000001
 40
0.0
 40
0.0
 40
0.0
 40
0.0
 40
1.0
 40
1.0
 40
1.0
 40
1.0
 10
365.6712855742817
 20
988.7707494734153
 30
0.0
 10
366.6689747717689
 20
988.7707494734153
 30
0.0
 10
368.0307330097427
 20
989.3543101373491
 30
0.0
 10
368.0307330097427
 20
990.6513060940822
 30
0.0
  0
SPLINE
  5
2FC0
330
A
100
AcDbEntity
  8
1_10
 62
     7
370
     9
100
AcDbSpline
210
0.0
220
0.0
230
1.0
 70
     8
 71
     3
 72
     8
 73
     4
 74
     0
 42
0.000000001
 43
0.0000000001
 40
0.0
 40
0.0
 40
0.0
 40
0.0
 40
1.0
 40
1.0
 40
1.0
 40
1.0
 10
362.2161303535106
 20
988.7707494734153
 30
0.0
 10
361.2131901602473
 20
988.7707494734153
 30
0.0
 10
359.8566829180498
 20
989.3543101373491
 30
0.0
 10
359.8566829180498
 20
990.6513060940822
 30
0.0
  0
POLYLINE
  5
2FC1
330
A
100
AcDbEntity
  8
1_10
 62
     7
370
     9
100
AcDb2dPolyline
 66
     1
 10
0.0
 20
0.0
 30
0.0
  0
VERTEX
  5
2FC2
330
2FC1
100
AcDbEntity
  8
1_10
 62
     7
370
     9
100
AcDbVertex
100
AcDb2dVertex
 10
367.9929258401536
 20
1004.25243535372
 30
0.0
  0
VERTEX
  5
2FC3
330
2FC1
100
AcDbEntity
  8
1_10
 62
     7
370
     9
100
AcDbVertex
100
AcDb2dVertex
 10
367.9929258401536
 20
1002.212248461455
 30
0.0
  0
VERTEX
  5
2FC4
330
2FC1
100
AcDbEntity
  8
1_10
 62
     7
370
     9
100
AcDbVertex
100
AcDb2dVertex
 10
359.8566829180498
 20
1002.212248461455
 30
0.0
  0
VERTEX
  5
2FC5
330
2FC1
100
AcDbEntity
  8
1_10
 62
     7
370
     9
100
AcDbVertex
100
AcDb2dVertex
 10
359.8566829180498
 20
1012.742245324758
 30
0.0
  0
VERTEX
  5
2FC6
330
2FC1
100
AcDbEntity
  8
1_10
 62
     7
370
     9
100
AcDbVertex
100
AcDb2dVertex
 10
367.9929258401536
 20
1012.742245324758
 30
0.0
  0
VERTEX
  5
2FC7
330
2FC1
100
AcDbEntity
  8
1_10
 62
     7
370
     9
100
AcDbVertex
100
AcDb2dVertex
 10
367.9929258401536
 20
1010.702408498878
 30
0.0
  0
SEQEND
  5
2FC8
330
2FC1
100
AcDbEntity
  8
1_10
370
     9
  0
CIRCLE
  5
2FC9
330
A
100
AcDbEntity
  8
0
100
AcDbCircle
 10
625.4609718844363
 20
1007.47129576456
 30
0.0
 40
20.04410107709426
  0
LINE
  5
2FCA
330
A
100
AcDbEntity
  8
0
100
AcDbLine
 10
368.8330851643533
 20
996.3486365113113
 30
0.0
 11
375.2848086414368
 21
996.3486365113113
 31
0.0
  0
CIRCLE
  5
2FCB
330
A
100
AcDbEntity
  8
0
100
AcDbCircle
 10
372.0589469028949
 20
996.3486365113113
 30
0.0
 40
3.226912013649691
  0
CIRCLE
  5
2FCC
330
A
100
AcDbEntity
  8
0
100
AcDbCircle
 10
625.4609718844363
 20
1007.47129576456
 30
0.0
 40
31.5
  0
VIEWPORT
  5
349
330
B
100
AcDbEntity
 67
     1
  8
0
100
AcDbViewport
 10
202.5
 20
128.5
 30
0.0
 40
486.0
 41
308.4
 68
     1
 69
     1
 12
202.5
 22
128.5
 13
0.0
 23
0.0
 14
0.5
 24
0.5
 15
0.0
 25
0.0
 16
0.0
 26
0.0
 36
1.0
 17
0.0
 27
0.0
 37
0.0
 42
50.0
 43
0.0
 44
0.0
 45
308.4
 50
0.0
 51
0.0
 72
   100
 90
   557152
  1

281
     0
 71
     1
 74
     0
110
0.0
120
0.0
130
0.0
111
1.0
121
0.0
131
0.0
112
0.0
122
1.0
132
0.0
 79
     0
146
0.0
170
     0
 61
     5
348
26C
292
     1
282
     1
141
0.0
142
0.0
 63
   256
  0
VIEWPORT
  5
34A
330
B
100
AcDbEntity
 67
     1
  8
0
100
AcDbViewport
 10
202.5
 20
128.5
 30
0.0
 40
324.0
 41
205.6
 68
     2
 69
     2
 12
986.6781359294573
 22
1427.077061889956
 13
0.0
 23
0.0
 14
0.5
 24
0.5
 15
0.0
 25
0.0
 16
0.0
 26
0.0
 36
1.0
 17
0.0
 27
0.0
 37
0.0
 42
50.0
 43
0.0
 44
0.0
 45
2890.021615685494
 50
0.0
 51
0.0
 72
   100
 90
   557152
  1

281
     0
 71
     1
 74
     0
110
0.0
120
0.0
130
0.0
111
1.0
121
0.0
131
0.0
112
0.0
122
1.0
132
0.0
 79
     0
146
0.0
170
     0
 61
     5
348
26C
292
     1
282
     1
141
0.0
142
0.0
 63
   256
  0
ENDSEC
  0
SECTION
  2
OBJECTS
  0
DICTIONARY
  5
19
330
0
100
AcDbDictionary
281
     1
  3
ACAD_COLOR
350
674
  3
ACAD_DETAILVIEWSTYLE
350
215F
  3
ACAD_GROUP
350
1A
  3
ACAD_IMAGE_VARS
350
27B
  3
ACAD_LAYOUT
350
1E
  3
ACAD_MATERIAL
350
263
  3
ACAD_MLEADERSTYLE
350
336
  3
ACAD_MLINESTYLE
350
1B
  3
ACAD_PLOTSETTINGS
350
22
  3
ACAD_PLOTSTYLENAME
350
1F
  3
ACAD_SCALELIST
350
241
  3
ACAD_SECTIONVIEWSTYLE
350
2160
  3
ACAD_TABLESTYLE
350
278
  3
ACAD_VISUALSTYLE
350
267
  3
ACDB_RECOMPOSE_DATA
350
3022
  3
AcDbVariableDictionary
350
330
  3
APPDATA
350
27A
  0
SUN
  5
215B
330
15
100
AcDbSun
 90
        1
290
     0
 63
     7
421
 16777215
 40
1.0
291
     1
 91
  2455826
 92
 54000000
292
     0
 70
     2
 71
   256
280
     1
  0
DICTIONARY
  5
2E1
330
2
100
AcDbDictionary
280
     1
281
     1
  3
ACAD_LAYERSTATES
360
2E2
  3
ACLYDICTIONARY
360
7AD
  0
DICTIONARY
  5
674
102
{ACAD_REACTORS
330
19
102
}
330
19
100
AcDbDictionary
281
     1
  0
DICTIONARY
  5
215F
102
{ACAD_REACTORS
330
19
102
}
330
19
100
AcDbDictionary
281
     1
  0
DICTIONARY
  5
1A
102
{ACAD_REACTORS
330
19
102
}
330
19
100
AcDbDictionary
281
     1
  0
RASTERVARIABLES
  5
27B
102
{ACAD_REACTORS
330
19
102
}
330
19
100
AcDbRasterVariables
 90
        0
 70
     1
 71
     1
 72
     1
  0
DICTIONARY
  5
1E
102
{ACAD_REACTORS
330
19
102
}
330
19
100
AcDbDictionary
281
     1
  3
Layout1
350
21
  3
Model
350
20
  0
DICTIONARY
  5
263
102
{ACAD_REACTORS
330
19
102
}
330
19
100
AcDbDictionary
281
     1
  3
ByBlock
350
301C
  3
ByLayer
350
264
  3
Global
350
266
  0
DICTIONARY
  5
336
102
{ACAD_REACTORS
330
19
102
}
330
19
100
AcDbDictionary
281
     1
  3
Standard
350
2FEF
  0
DICTIONARY
  5
1B
102
{ACAD_REACTORS
330
19
102
}
330
19
100
AcDbDictionary
281
     1
  3
Standard
350
1C
  0
DICTIONARY
  5
22
102
{ACAD_REACTORS
330
19
102
}
330
19
100
AcDbDictionary
281
     1
  0
ACDBDICTIONARYWDFLT
  5
1F
102
{ACAD_REACTORS
330
19
102
}
330
19
100
AcDbDictionary
281
     1
  3
Normal
350
1D
100
AcDbDictionaryWithDefault
340
1D
  0
DICTIONARY
  5
241
102
{ACAD_REACTORS
330
19
102
}
330
19
100
AcDbDictionary
281
     1
  3
A0
350
242
  3
A1
350
243
  3
A2
350
244
  3
A3
350
245
  3
A4
350
246
  3
A5
350
247
  3
A6
350
248
  3
A7
350
249
  3
A8
350
24A
  3
A9
350
24B
  3
B0
350
24C
  3
B1
350
24D
  3
B2
350
24E
  3
B3
350
24F
  3
B4
350
250
  3
B5
350
251
  3
B6
350
252
  3
B7
350
253
  3
B8
350
254
  3
B9
350
255
  3
C0
350
256
  3
C1
350
257
  3
C2
350
258
  3
C3
350
259
  3
C4
350
25A
  3
C5
350
25B
  3
C6
350
25C
  3
C7
350
25D
  3
C8
350
25E
  3
C9
350
25F
  3
D0
350
260
  3
D1
350
261
  3
D2
350
262
  0
DICTIONARY
  5
2160
102
{ACAD_REACTORS
330
19
102
}
330
19
100
AcDbDictionary
281
     1
  0
DICTIONARY
  5
278
102
{ACAD_REACTORS
330
19
102
}
330
19
100
AcDbDictionary
281
     1
  3
Standard
350
279
  0
DICTIONARY
  5
267
102
{ACAD_REACTORS
330
19
102
}
330
19
100
AcDbDictionary
281
     1
  3
2dWireframe
350
26C
  3
3D Hidden
350
26E
  3
3dWireframe
350
26D
  3
Basic
350
26F
  3
Brighten
350
273
  3
ColorChange
350
277
  3
Conceptual
350
271
  3
Dim
350
272
  3
EdgeColorOff
350
2155
  3
Facepattern
350
276
  3
Flat
350
268
  3
FlatWithEdges
350
269
  3
Gouraud
350
26A
  3
GouraudWithEdges
350
26B
  3
Hidden
350
2152
  3
JitterOff
350
2153
  3
Linepattern
350
275
  3
OverhangOff
350
2154
  3
Realistic
350
270
  3
Shaded
350
215A
  3
Shaded with edges
350
2159
  3
Shades of Gray
350
2156
  3
Sketchy
350
2157
  3
Thicken
350
274
  3
Wireframe
350
2151
  3
X-Ray
350
2158
  0
XRECORD
  5
3022
102
{ACAD_REACTORS
330
19
102
}
330
19
100
AcDbXrecord
280
     1
 90
        1
330
279
  0
DICTIONARY
  5
330
102
{ACAD_REACTORS
330
19
102
}
330
19
100
AcDbDictionary
281
     1
  3
CANNOSCALE
350
331
  3
CMLEADERSTYLE
350
3017
  3
CTABLESTYLE
350
335
  3
XCLIPFRAME
350
2947
  0
DICTIONARY
  5
27A
102
{ACAD_REACTORS
330
19
102
}
330
19
100
AcDbDictionary
281
     1
  0
DICTIONARY
  5
2E2
102
{ACAD_REACTORS
330
2E1
102
}
330
2E1
100
AcDbDictionary
281
     1
  3
ARGON_LAYERP_9
350
7AA
  0
DICTIONARY
  5
7AD
102
{ACAD_REACTORS
330
2E1
102
}
330
2E1
100
AcDbDictionary
281
     1
1001
ACAD
1000
<All
  0
LAYOUT
  5
21
102
{ACAD_REACTORS
330
1E
102
}
330
1E
100
AcDbPlotSettings
  1

  2
none_device
  4
ISO_A3_(420.00_x_297.00_MM)
  6

 40
7.5
 41
20.0
 42
7.5
 43
20.0
 44
420.0
 45
297.0
 46
0.0
 47
0.0
 48
0.0
 49
0.0
140
0.0
141
0.0
142
1.0
143
1.0
 70
     0
 72
     1
 73
     0
 74
     0
  7

 75
     0
 76
     0
 77
     2
 78
   300
147
1.0
148
0.0
149
0.0
100
AcDbLayout
  1
Layout1
 70
     0
 71
     0
 10
-7.5
 20
-20.0
 11
412.5
 21
277.0
 12
0.0
 22
0.0
 32
0.0
 14
0.0
 24
0.0
 34
0.0
 15
0.0
 25
0.0
 35
0.0
146
0.0
 13
0.0
 23
0.0
 33
0.0
 16
0.0
 26
0.0
 36
0.0
 17
0.0
 27
0.0
 37
0.0
 76
     0
330
B
331
349
  0
LAYOUT
  5
20
102
{ACAD_REACTORS
330
1E
102
}
330
1E
100
AcDbPlotSettings
  1

  2
none_device
  4
ISO_A3_(420.00_x_297.00_MM)
  6

 40
7.5
 41
20.0
 42
7.5
 43
20.0
 44
420.0
 45
297.0
 46
0.0
 47
0.0
 48
0.0
 49
0.0
140
0.0
141
0.0
142
1.0
143
1.0
 70
  1024
 72
     1
 73
     0
 74
     0
  7

 75
     0
 76
     0
 77
     2
 78
   300
147
1.0
148
0.0
149
0.0
100
AcDbLayout
  1
Model
 70
     0
 71
     1
 10
0.0
 20
0.0
 11
1014.999999999657
 21
1463.973030389223
 12
0.0
 22
0.0
 32
0.0
 14
19.99999999965712
 24
27.29576779829506
 34
0.0
 15
994.999999999898
 25
1443.973030389223
 35
0.0
146
0.0
 13
0.0
 23
0.0
 33
0.0
 16
0.0
 26
0.0
 36
0.0
 17
0.0
 27
0.0
 37
0.0
 76
     0
330
A
331
15
  0
MATERIAL
  5
301C
102
{ACAD_REACTORS
330
263
102
}
330
263
100
AcDbMaterial
  1
ByBlock
 72
     1
 94
      127
  0
MATERIAL
  5
264
102
{ACAD_REACTORS
330
263
102
}
330
263
100
AcDbMaterial
  1
ByLayer
 72
     1
 94
      127
  0
MATERIAL
  5
266
102
{ACAD_REACTORS
330
263
102
}
330
263
100
AcDbMaterial
  1
Global
 72
     1
 94
      127
  0
MLEADERSTYLE
  5
2FEF
102
{ACAD_REACTORS
330
336
102
}
330
336
100
AcDbMLeaderStyle
170
     2
171
     1
172
     0
 90
        2
 40
0.0
 41
0.0
173
     1
 91
-1056964608
340
11
 92
       -2
290
     1
 42
2.0
291
     1
 43
8.0
  3
Standard
341
0
 44
4.0
300

342
17
174
     1
178
     6
175
     1
176
     0
 93
-1056964608
 45
4.0
292
     0
297
     0
 46
4.0
343
0
 94
-1056964608
 47
1.0
 49
1.0
140
1.0
293
     1
141
0.0
294
     1
177
     0
142
1.0
295
     0
296
     0
143
3.75
1001
ACAD_MLEADERVER
1070
     2
  0
MLINESTYLE
  5
1C
102
{ACAD_REACTORS
330
1B
102
}
330
1B
100
AcDbMlineStyle
  2
Standard
 70
     0
  3

 62
     0
 51
90.0
 52
90.0
 71
     2
 49
0.5
 62
   256
  6
BYLAYER
 49
-0.5
 62
   256
  6
BYLAYER
  0
ACDBPLACEHOLDER
  5
1D
102
{ACAD_REACTORS
330
1F
102
}
330
1F
  0
SCALE
  5
242
102
{ACAD_REACTORS
330
241
102
}
330
241
100
AcDbScale
 70
     0
300
1:1
140
1.0
141
1.0
290
     1
  0
SCALE
  5
243
102
{ACAD_REACTORS
330
241
102
}
330
241
100
AcDbScale
 70
     0
300
1:2
140
1.0
141
2.0
290
     0
  0
SCALE
  5
244
102
{ACAD_REACTORS
330
241
102
}
330
241
100
AcDbScale
 70
     0
300
1:4
140
1.0
141
4.0
290
     0
  0
SCALE
  5
245
102
{ACAD_REACTORS
330
241
102
}
330
241
100
AcDbScale
 70
     0
300
1:5
140
1.0
141
5.0
290
     0
  0
SCALE
  5
246
102
{ACAD_REACTORS
330
241
102
}
330
241
100
AcDbScale
 70
     0
300
1:8
140
1.0
141
8.0
290
     0
  0
SCALE
  5
247
102
{ACAD_REACTORS
330
241
102
}
330
241
100
AcDbScale
 70
     0
300
1:10
140
1.0
141
10.0
290
     0
  0
SCALE
  5
248
102
{ACAD_REACTORS
330
241
102
}
330
241
100
AcDbScale
 70
     0
300
1:16
140
1.0
141
16.0
290
     0
  0
SCALE
  5
249
102
{ACAD_REACTORS
330
241
102
}
330
241
100
AcDbScale
 70
     0
300
1:20
140
1.0
141
20.0
290
     0
  0
SCALE
  5
24A
102
{ACAD_REACTORS
330
241
102
}
330
241
100
AcDbScale
 70
     0
300
1:30
140
1.0
141
30.0
290
     0
  0
SCALE
  5
24B
102
{ACAD_REACTORS
330
241
102
}
330
241
100
AcDbScale
 70
     0
300
1:40
140
1.0
141
40.0
290
     0
  0
SCALE
  5
24C
102
{ACAD_REACTORS
330
241
102
}
330
241
100
AcDbScale
 70
     0
300
1:50
140
1.0
141
50.0
290
     0
  0
SCALE
  5
24D
102
{ACAD_REACTORS
330
241
102
}
330
241
100
AcDbScale
 70
     0
300
1:100
140
1.0
141
100.0
290
     0
  0
SCALE
  5
24E
102
{ACAD_REACTORS
330
241
102
}
330
241
100
AcDbScale
 70
     0
300
2:1
140
2.0
141
1.0
290
     0
  0
SCALE
  5
24F
102
{ACAD_REACTORS
330
241
102
}
330
241
100
AcDbScale
 70
     0
300
4:1
140
4.0
141
1.0
290
     0
  0
SCALE
  5
250
102
{ACAD_REACTORS
330
241
102
}
330
241
100
AcDbScale
 70
     0
300
8:1
140
8.0
141
1.0
290
     0
  0
SCALE
  5
251
102
{ACAD_REACTORS
330
241
102
}
330
241
100
AcDbScale
 70
     0
300
10:1
140
10.0
141
1.0
290
     0
  0
SCALE
  5
252
102
{ACAD_REACTORS
330
241
102
}
330
241
100
AcDbScale
 70
     0
300
100:1
140
100.0
141
1.0
290
     0
  0
SCALE
  5
253
102
{ACAD_REACTORS
330
241
102
}
330
241
100
AcDbScale
 70
     0
300
1/128" = 1'-0"
140
0.0078125
141
12.0
290
     0
  0
SCALE
  5
254
102
{ACAD_REACTORS
330
241
102
}
330
241
100
AcDbScale
 70
     0
300
1/64" = 1'-0"
140
0.015625
141
12.0
290
     0
  0
SCALE
  5
255
102
{ACAD_REACTORS
330
241
102
}
330
241
100
AcDbScale
 70
     0
300
1/32" = 1'-0"
140
0.03125
141
12.0
290
     0
  0
SCALE
  5
256
102
{ACAD_REACTORS
330
241
102
}
330
241
100
AcDbScale
 70
     0
300
1/16" = 1'-0"
140
0.0625
141
12.0
290
     0
  0
SCALE
  5
257
102
{ACAD_REACTORS
330
241
102
}
330
241
100
AcDbScale
 70
     0
300
3/32" = 1'-0"
140
0.09375
141
12.0
290
     0
  0
SCALE
  5
258
102
{ACAD_REACTORS
330
241
102
}
330
241
100
AcDbScale
 70
     0
300
1/8" = 1'-0"
140
0.125
141
12.0
290
     0
  0
SCALE
  5
259
102
{ACAD_REACTORS
330
241
102
}
330
241
100
AcDbScale
 70
     0
300
3/16" = 1'-0"
140
0.1875
141
12.0
290
     0
  0
SCALE
  5
25A
102
{ACAD_REACTORS
330
241
102
}
330
241
100
AcDbScale
 70
     0
300
1/4" = 1'-0"
140
0.25
141
12.0
290
     0
  0
SCALE
  5
25B
102
{ACAD_REACTORS
330
241
102
}
330
241
100
AcDbScale
 70
     0
300
3/8" = 1'-0"
140
0.375
141
12.0
290
     0
  0
SCALE
  5
25C
102
{ACAD_REACTORS
330
241
102
}
330
241
100
AcDbScale
 70
     0
300
1/2" = 1'-0"
140
0.5
141
12.0
290
     0
  0
SCALE
  5
25D
102
{ACAD_REACTORS
330
241
102
}
330
241
100
AcDbScale
 70
     0
300
3/4" = 1'-0"
140
0.75
141
12.0
290
     0
  0
SCALE
  5
25E
102
{ACAD_REACTORS
330
241
102
}
330
241
100
AcDbScale
 70
     0
300
1" = 1'-0"
140
1.0
141
12.0
290
     0
  0
SCALE
  5
25F
102
{ACAD_REACTORS
330
241
102
}
330
241
100
AcDbScale
 70
     0
300
1-1/2" = 1'-0"
140
1.5
141
12.0
290
     0
  0
SCALE
  5
260
102
{ACAD_REACTORS
330
241
102
}
330
241
100
AcDbScale
 70
     0
300
3" = 1'-0"
140
3.0
141
12.0
290
     0
  0
SCALE
  5
261
102
{ACAD_REACTORS
330
241
102
}
330
241
100
AcDbScale
 70
     0
300
6" = 1'-0"
140
6.0
141
12.0
290
     0
  0
SCALE
  5
262
102
{ACAD_REACTORS
330
241
102
}
330
241
100
AcDbScale
 70
     0
300
1'-0" = 1'-0"
140
12.0
141
12.0
290
     0
  0
TABLESTYLE
  5
279
102
{ACAD_REACTORS
330
278
102
}
102
{ACAD_XDICTIONARY
360
3020
102
}
330
278
100
AcDbTableStyle
  3
Standard
 70
     0
 71
     0
 40
0.06
 41
0.06
280
     0
281
     0
  7
Standard
140
4.5
170
     2
 62
     0
 63
   257
283
     0
 90
        4
 91
        0
  1

274
    -2
284
     1
 64
     0
275
    -2
285
     1
 65
     0
276
    -2
286
     1
 66
     0
277
    -2
287
     1
 67
     0
278
    -2
288
     1
 68
     0
279
    -2
289
     1
 69
     0
  7
Standard
140
6.0
170
     5
 62
     0
 63
   257
283
     0
 90
        4
 91
        0
  1

274
    -2
284
     1
 64
     0
275
    -2
285
     1
 65
     0
276
    -2
286
     1
 66
     0
277
    -2
287
     1
 67
     0
278
    -2
288
     1
 68
     0
279
    -2
289
     1
 69
     0
  7
Standard
140
4.5
170
     5
 62
     0
 63
   257
283
     0
 90
        4
 91
        0
  1

274
    -2
284
     1
 64
     0
275
    -2
285
     1
 65
     0
276
    -2
286
     1
 66
     0
277
    -2
287
     1
 67
     0
278
    -2
288
     1
 68
     0
279
    -2
289
     1
 69
     0
  0
VISUALSTYLE
  5
26C
102
{ACAD_REACTORS
330
267
102
}
330
267
100
AcDbVisualStyle
  2
2dWireframe
 70
     4
 71
     0
 72
     2
 73
     0
 90
        0
 40
-0.6
 41
-30.0
 62
     5
 63
     7
421
 16777215
 74
     1
 91
        4
 64
     7
 65
   257
 75
     1
175
     1
 42
1.0
 92
        0
 66
   257
 43
1.0
 76
     1
 77
     6
 78
     2
 67
     7
 79
     5
170
     0
171
     0
290
     0
174
     0
 93
        1
 44
0.0
173
     0
291
     0
 45
0.0
  0
VISUALSTYLE
  5
26E
102
{ACAD_REACTORS
330
267
102
}
330
267
100
AcDbVisualStyle
  2
3D Hidden
 70
     6
 71
     1
 72
     2
 73
     2
 90
        0
 40
-0.6
 41
-30.0
 62
     5
 63
     7
421
 16777215
 74
     2
 91
        2
 64
     7
 65
   257
 75
     2
175
     1
 42
40.0
 92
        0
 66
   257
 43
1.0
 76
     1
 77
     6
 78
     2
 67
     7
 79
     3
170
     0
171
     0
290
     0
174
     0
 93
        1
 44
0.0
173
     0
291
     0
 45
0.0
  0
VISUALSTYLE
  5
26D
102
{ACAD_REACTORS
330
267
102
}
330
267
100
AcDbVisualStyle
  2
3dWireframe
 70
     5
 71
     0
 72
     2
 73
     0
 90
        0
 40
-0.6
 41
-30.0
 62
     5
 63
     7
421
 16777215
 74
     1
 91
        4
 64
     7
 65
   257
 75
     1
175
     1
 42
1.0
 92
        0
 66
   257
 43
1.0
 76
     1
 77
     6
 78
     2
 67
     7
 79
     5
170
     0
171
     0
290
     0
174
     0
 93
        1
 44
0.0
173
     0
291
     0
 45
0.0
  0
VISUALSTYLE
  5
26F
102
{ACAD_REACTORS
330
267
102
}
330
267
100
AcDbVisualStyle
  2
Basic
 70
     7
 71
     1
 72
     0
 73
     1
 90
        0
 40
-0.6
 41
-30.0
 62
     5
 63
     7
421
 16777215
 74
     0
 91
        4
 64
     7
 65
   257
 75
     1
175
     1
 42
1.0
 92
        8
 66
     7
 43
1.0
 76
     1
 77
     6
 78
     2
 67
     7
 79
     5
170
     0
171
     0
290
     0
174
     0
 93
        1
 44
0.0
173
     0
291
     1
 45
0.0
  0
VISUALSTYLE
  5
273
102
{ACAD_REACTORS
330
267
102
}
330
267
100
AcDbVisualStyle
  2
Brighten
 70
    12
 71
     2
 72
     2
 73
     0
 90
        0
 40
-0.6
 41
-30.0
 62
     5
 63
     7
421
 16777215
 74
     1
 91
        4
 64
     7
 65
   257
 75
     1
175
     1
 42
1.0
 92
        8
 66
     7
 43
1.0
 76
     1
 77
     6
 78
     2
 67
     7
 79
     5
170
     0
171
     0
290
     0
174
     0
 93
        1
 44
50.0
173
     0
291
     1
 45
0.0
  0
VISUALSTYLE
  5
277
102
{ACAD_REACTORS
330
267
102
}
330
267
100
AcDbVisualStyle
  2
ColorChange
 70
    16
 71
     2
 72
     2
 73
     3
 90
        0
 40
-0.6
 41
-30.0
 62
     5
 63
     8
421
  8421504
 74
     1
 91
        4
 64
     7
 65
   257
 75
     1
175
     1
 42
1.0
 92
        8
 66
     8
424
  8421504
 43
1.0
 76
     1
 77
     6
 78
     2
 67
     7
 79
     5
170
     0
171
     0
290
     0
174
     0
 93
        1
 44
0.0
173
     0
291
     1
 45
0.0
  0
VISUALSTYLE
  5
271
102
{ACAD_REACTORS
330
267
102
}
330
267
100
AcDbVisualStyle
  2
Conceptual
 70
     9
 71
     3
 72
     2
 73
     0
 90
        0
 40
-0.6
 41
-30.0
 62
     5
 63
     7
421
 16777215
 74
     2
 91
        2
 64
     7
 65
   257
 75
     1
175
     1
 42
40.0
 92
        8
 66
     7
 43
1.0
 76
     1
 77
     6
 78
     2
 67
     7
 79
     3
170
     0
171
     0
290
     0
174
     0
 93
        1
 44
0.0
173
     0
291
     0
 45
0.0
  0
VISUALSTYLE
  5
272
102
{ACAD_REACTORS
330
267
102
}
330
267
100
AcDbVisualStyle
  2
Dim
 70
    11
 71
     2
 72
     2
 73
     0
 90
        0
 40
-0.6
 41
-30.0
 62
     5
 63
     7
421
 16777215
 74
     1
 91
        4
 64
     7
 65
   257
 75
     1
175
     1
 42
1.0
 92
        8
 66
     7
 43
1.0
 76
     1
 77
     6
 78
     2
 67
     7
 79
     5
170
     0
171
     0
290
     0
174
     0
 93
        1
 44
-50.0
173
     0
291
     1
 45
0.0
  0
VISUALSTYLE
  5
2155
102
{ACAD_REACTORS
330
267
102
}
330
267
100
AcDbVisualStyle
  2
EdgeColorOff
 70
    22
 71
     2
 72
     2
 73
     0
 90
        0
 40
0.6
 41
30.0
 62
     5
 63
     7
421
 16777215
 74
     1
 91
        4
 64
     7
 65
   257
 75
     1
175
     1
 42
1.0
 92
        8
 66
     7
 43
1.0
 76
     1
 77
     6
 78
     2
 67
     7
 79
     5
170
     0
171
     0
290
     0
174
     0
 93
        1
 44
0.0
173
     0
291
     1
 45
0.0
  0
VISUALSTYLE
  5
276
102
{ACAD_REACTORS
330
267
102
}
330
267
100
AcDbVisualStyle
  2
Facepattern
 70
    15
 71
     2
 72
     2
 73
     0
 90
        0
 40
-0.6
 41
-30.0
 62
     5
 63
     7
421
 16777215
 74
     1
 91
        4
 64
     7
 65
   257
 75
     1
175
     1
 42
1.0
 92
        8
 66
     7
 43
1.0
 76
     1
 77
     6
 78
     2
 67
     7
 79
     5
170
     0
171
     0
290
     0
174
     0
 93
        1
 44
0.0
173
     0
291
     1
 45
0.0
  0
VISUALSTYLE
  5
268
102
{ACAD_REACTORS
330
267
102
}
330
267
100
AcDbVisualStyle
  2
Flat
 70
     0
 71
     2
 72
     1
 73
     1
 90
        2
 40
-0.6
 41
30.0
 62
     5
 63
     7
421
 16777215
 74
     0
 91
        4
 64
     7
 65
   257
 75
     1
175
     1
 42
1.0
 92
        8
 66
     7
 43
1.0
 76
     1
 77
     6
 78
     2
 67
     7
 79
     5
170
     0
171
     0
290
     0
174
     0
 93
       13
 44
0.0
173
     0
291
     1
 45
0.0
  0
VISUALSTYLE
  5
269
102
{ACAD_REACTORS
330
267
102
}
330
267
100
AcDbVisualStyle
  2
FlatWithEdges
 70
     1
 71
     2
 72
     1
 73
     1
 90
        2
 40
-0.6
 41
30.0
 62
     5
 63
     7
421
 16777215
 74
     1
 91
        4
 64
     7
 65
   257
 75
     1
175
     1
 42
1.0
 92
        0
 66
   257
 43
1.0
 76
     1
 77
     6
 78
     2
 67
     7
 79
     5
170
     0
171
     0
290
     0
174
     0
 93
       13
 44
0.0
173
     0
291
     1
 45
0.0
  0
VISUALSTYLE
  5
26A
102
{ACAD_REACTORS
330
267
102
}
330
267
100
AcDbVisualStyle
  2
Gouraud
 70
     2
 71
     2
 72
     2
 73
     1
 90
        2
 40
-0.6
 41
30.0
 62
     5
 63
     7
421
 16777215
 74
     0
 91
        4
 64
     7
 65
   257
 75
     1
175
     1
 42
1.0
 92
        0
 66
     7
 43
1.0
 76
     1
 77
     6
 78
     2
 67
     7
 79
     5
170
     0
171
     0
290
     0
174
     0
 93
       13
 44
0.0
173
     0
291
     1
 45
0.0
  0
VISUALSTYLE
  5
26B
102
{ACAD_REACTORS
330
267
102
}
330
267
100
AcDbVisualStyle
  2
GouraudWithEdges
 70
     3
 71
     2
 72
     2
 73
     1
 90
        2
 40
-0.6
 41
30.0
 62
     5
 63
     7
421
 16777215
 74
     1
 91
        4
 64
     7
 65
   257
 75
     1
175
     1
 42
1.0
 92
        0
 66
   257
 43
1.0
 76
     1
 77
     6
 78
     2
 67
     7
 79
     5
170
     0
171
     0
290
     0
174
     0
 93
       13
 44
0.0
173
     0
291
     1
 45
0.0
  0
VISUALSTYLE
  5
2152
102
{ACAD_REACTORS
330
267
102
}
330
267
100
AcDbVisualStyle
  2
Hidden
 70
     6
 71
     1
 72
     2
 73
     2
 90
        0
 40
0.6
 41
30.0
 62
     5
 63
     7
421
 16777215
 74
     2
 91
        2
 64
     7
 65
   257
 75
     2
175
     1
 42
40.0
 92
        0
 66
   257
 43
1.0
 76
     1
 77
     6
 78
     2
 67
     7
 79
     3
170
     0
171
     0
290
     0
174
     0
 93
        1
 44
0.0
173
     0
291
     0
 45
0.0
  0
VISUALSTYLE
  5
2153
102
{ACAD_REACTORS
330
267
102
}
330
267
100
AcDbVisualStyle
  2
JitterOff
 70
    20
 71
     2
 72
     2
 73
     0
 90
        0
 40
0.6
 41
30.0
 62
     5
 63
     7
421
 16777215
 74
     1
 91
        4
 64
     7
 65
   257
 75
     1
175
     1
 42
1.0
 92
       10
 66
     7
 43
1.0
 76
     1
 77
     6
 78
     2
 67
     7
 79
     5
170
     0
171
     0
290
     0
174
     0
 93
        1
 44
0.0
173
     0
291
     1
 45
0.0
  0
VISUALSTYLE
  5
275
102
{ACAD_REACTORS
330
267
102
}
330
267
100
AcDbVisualStyle
  2
Linepattern
 70
    14
 71
     2
 72
     2
 73
     0
 90
        0
 40
-0.6
 41
-30.0
 62
     5
 63
     7
421
 16777215
 74
     1
 91
        4
 64
     7
 65
   257
 75
     7
175
     7
 42
1.0
 92
        8
 66
     7
 43
1.0
 76
     1
 77
     6
 78
     2
 67
     7
 79
     5
170
     0
171
     0
290
     0
174
     0
 93
        1
 44
0.0
173
     0
291
     1
 45
0.0
  0
VISUALSTYLE
  5
2154
102
{ACAD_REACTORS
330
267
102
}
330
267
100
AcDbVisualStyle
  2
OverhangOff
 70
    21
 71
     2
 72
     2
 73
     0
 90
        0
 40
0.6
 41
30.0
 62
     5
 63
     7
421
 16777215
 74
     1
 91
        4
 64
     7
 65
   257
 75
     1
175
     1
 42
1.0
 92
        9
 66
     7
 43
1.0
 76
     1
 77
     6
 78
     2
 67
     7
 79
     5
170
     0
171
     0
290
     0
174
     0
 93
        1
 44
0.0
173
     0
291
     1
 45
0.0
  0
VISUALSTYLE
  5
270
102
{ACAD_REACTORS
330
267
102
}
330
267
100
AcDbVisualStyle
  2
Realistic
 70
     8
 71
     2
 72
     2
 73
     0
 90
        0
 40
-0.6
 41
-30.0
 62
     5
 63
     7
421
 16777215
 74
     1
 91
        0
 64
     7
 65
   257
 75
     1
175
     1
 42
1.0
 92
        8
 66
     8
424
  7895160
 43
1.0
 76
     1
 77
     6
 78
     2
 67
     7
 79
     5
170
     0
171
     0
290
     0
174
     0
 93
       13
 44
0.0
173
     0
291
     0
 45
0.0
  0
VISUALSTYLE
  5
215A
102
{ACAD_REACTORS
330
267
102
}
330
267
100
AcDbVisualStyle
  2
Shaded
 70
    27
 71
     2
 72
     2
 73
     1
 90
        2
 40
0.6
 41
30.0
 62
     5
 63
     7
421
 16777215
 74
     0
 91
        4
 64
     7
 65
   257
 75
     1
175
     1
 42
1.0
 92
        8
 66
   257
 43
1.0
 76
     1
 77
     6
 78
     2
 67
     8
425
  7895160
 79
     3
170
     0
171
     0
290
     0
174
     0
 93
        5
 44
0.0
173
     0
291
     0
 45
0.0
  0
VISUALSTYLE
  5
2159
102
{ACAD_REACTORS
330
267
102
}
330
267
100
AcDbVisualStyle
  2
Shaded with edges
 70
    26
 71
     2
 72
     2
 73
     1
 90
        2
 40
0.6
 41
30.0
 62
     5
 63
     7
421
 16777215
 74
     1
 91
       10
 64
     7
 65
   257
 75
     2
175
     1
 42
1.0
 92
        8
 66
   257
 43
1.0
 76
     1
 77
     6
 78
     2
 67
     7
 79
     3
170
     0
171
     0
290
     0
174
     0
 93
        5
 44
0.0
173
     0
291
     0
 45
0.0
  0
VISUALSTYLE
  5
2156
102
{ACAD_REACTORS
330
267
102
}
330
267
100
AcDbVisualStyle
  2
Shades of Gray
 70
    23
 71
     2
 72
     2
 73
     3
 90
        0
 40
0.6
 41
30.0
 62
     5
 63
     7
421
 16777215
 74
     2
 91
        2
 64
     7
 65
     7
 75
     1
175
     1
 42
40.0
 92
        8
 66
     7
 43
1.0
 76
     1
 77
     6
 78
     2
 67
     7
 79
     3
170
     0
171
     0
290
     0
174
     0
 93
        1
 44
0.0
173
     0
291
     0
 45
0.0
  0
VISUALSTYLE
  5
2157
102
{ACAD_REACTORS
330
267
102
}
330
267
100
AcDbVisualStyle
  2
Sketchy
 70
    24
 71
     1
 72
     2
 73
     2
 90
        0
 40
0.6
 41
30.0
 62
     5
 63
     7
421
 16777215
 74
     2
 91
        2
 64
     7
 65
     7
 75
     1
175
     1
 42
40.0
 92
       11
 66
     7
 43
1.0
 76
     1
 77
     6
 78
     2
 67
     7
 79
     6
170
     0
171
     0
290
     0
174
     0
 93
        1
 44
0.0
173
     0
291
     0
 45
0.0
  0
VISUALSTYLE
  5
274
102
{ACAD_REACTORS
330
267
102
}
330
267
100
AcDbVisualStyle
  2
Thicken
 70
    13
 71
     2
 72
     2
 73
     0
 90
        0
 40
-0.6
 41
-30.0
 62
     5
 63
     7
421
 16777215
 74
     1
 91
        4
 64
     7
 65
   257
 75
     1
175
     1
 42
1.0
 92
       12
 66
     7
 43
1.0
 76
     1
 77
     6
 78
     2
 67
     7
 79
     5
170
     0
171
     0
290
     0
174
     0
 93
        1
 44
0.0
173
     0
291
     1
 45
0.0
  0
VISUALSTYLE
  5
2151
102
{ACAD_REACTORS
330
267
102
}
330
267
100
AcDbVisualStyle
  2
Wireframe
 70
     5
 71
     0
 72
     2
 73
     0
 90
        0
 40
0.6
 41
30.0
 62
     5
 63
     7
421
 16777215
 74
     1
 91
        4
 64
     7
 65
   257
 75
     1
175
     1
 42
1.0
 92
        0
 66
   257
 43
1.0
 76
     1
 77
     6
 78
     2
 67
     7
 79
     3
170
     0
171
     0
290
     0
174
     0
 93
        1
 44
0.0
173
     0
291
     0
 45
0.0
  0
VISUALSTYLE
  5
2158
102
{ACAD_REACTORS
330
267
102
}
330
267
100
AcDbVisualStyle
  2
X-Ray
 70
    25
 71
     2
 72
     2
 73
     1
 90
        1
 40
0.5
 41
30.0
 62
     5
 63
     7
421
 16777215
 74
     1
 91
        0
 64
     7
 65
   257
 75
     1
175
     1
 42
1.0
 92
        8
 66
     7
 43
1.0
 76
     1
 77
     6
 78
     2
 67
     7
 79
     3
170
     0
171
     0
290
     0
174
     0
 93
       13
 44
0.0
173
     0
291
     0
 45
0.0
  0
DICTIONARYVAR
  5
331
102
{ACAD_REACTORS
330
330
102
}
330
330
100
DictionaryVariables
280
     0
  1
1:1
  0
DICTIONARYVAR
  5
3017
102
{ACAD_REACTORS
330
330
102
}
330
330
100
DictionaryVariables
280
     0
  1
Standard
  0
DICTIONARYVAR
  5
335
102
{ACAD_REACTORS
330
330
102
}
330
330
100
DictionaryVariables
280
     0
  1
Standard
  0
DICTIONARYVAR
  5
2947
102
{ACAD_REACTORS
330
330
102
}
330
330
100
DictionaryVariables
280
     0
  1
0
  0
XRECORD
  5
7AA
102
{ACAD_REACTORS
330
2E2
102
}
330
2E2
100
AcDbXrecord
280
     1
 91
     1023
301

290
     0
302
MODEL
330
14
 90
        8
 62
     7
370
    -3
331
13
  1
Color_7
330
0
 90
        0
 62
     7
370
    -3
331
13
  1
Color_7
330
4B
 90
        8
 62
     7
370
    -3
331
13
  1
Color_7
330
0
 90
        8
 62
     7
370
    -3
331
13
  1
Color_7
330
4D
 90
        8
 62
     7
370
    -3
331
13
  1
Color_7
330
0
 90
        9
 62
     1
370
    -3
331
13
  1
Color_1
330
0
 90
        8
 62
     4
370
    -3
331
13
  1
Color_4
330
667
 90
        8
 62
     7
370
    -3
331
13
  1
Color_7
  0
DICTIONARY
  5
3020
330
279
100
AcDbDictionary
280
     1
281
     1
  3
ACAD_ROUNDTRIP_2008_TABLESTYLE_CELLSTYLEMAP
360
3021
  0
CELLSTYLEMAP
  5
3021
102
{ACAD_REACTORS
330
3020
102
}
330
3020
100
AcDbCellStyleMap
 90
        3
300
CELLSTYLE
  1
TABLEFORMAT_BEGIN
 90
        5
170
     1
 91
        0
 92
    32768
 62
   257
 93
        1
300
CONTENTFORMAT
  1
CONTENTFORMAT_BEGIN
 90
        0
 91
        0
 92
        4
 93
        0
300

 40
0.0
140
1.0
 94
        5
 62
     0
340
17
144
6.0
309
CONTENTFORMAT_END
171
     1
301
MARGIN
  1
CELLMARGIN_BEGIN
 40
0.06
 40
0.06
 40
0.06
 40
0.06
 40
0.18
 40
0.18
309
CELLMARGIN_END
 94
        6
 95
        1
302
GRIDFORMAT
  1
GRIDFORMAT_BEGIN
 90
        0
 91
        1
 62
     0
 92
       -2
340
0
 93
        0
 40
0.045
309
GRIDFORMAT_END
 95
        2
302
GRIDFORMAT
  1
GRIDFORMAT_BEGIN
 90
        0
 91
        1
 62
     0
 92
       -2
340
0
 93
        0
 40
0.045
309
GRIDFORMAT_END
 95
        4
302
GRIDFORMAT
  1
GRIDFORMAT_BEGIN
 90
        0
 91
        1
 62
     0
 92
       -2
340
0
 93
        0
 40
0.045
309
GRIDFORMAT_END
 95
        8
302
GRIDFORMAT
  1
GRIDFORMAT_BEGIN
 90
        0
 91
        1
 62
     0
 92
       -2
340
0
 93
        0
 40
0.045
309
GRIDFORMAT_END
 95
       16
302
GRIDFORMAT
  1
GRIDFORMAT_BEGIN
 90
        0
 91
        1
 62
     0
 92
       -2
340
0
 93
        0
 40
0.045
309
GRIDFORMAT_END
 95
       32
302
GRIDFORMAT
  1
GRIDFORMAT_BEGIN
 90
        0
 91
        1
 62
     0
 92
       -2
340
0
 93
        0
 40
0.045
309
GRIDFORMAT_END
309
TABLEFORMAT_END
  1
CELLSTYLE_BEGIN
 90
        1
 91
        1
300
_TITLE
309
CELLSTYLE_END
300
CELLSTYLE
  1
TABLEFORMAT_BEGIN
 90
        5
170
     1
 91
        0
 92
        0
 62
   257
 93
        1
300
CONTENTFORMAT
  1
CONTENTFORMAT_BEGIN
 90
        0
 91
        0
 92
        4
 93
        0
300

 40
0.0
140
1.0
 94
        5
 62
     0
340
17
144
4.5
309
CONTENTFORMAT_END
171
     1
301
MARGIN
  1
CELLMARGIN_BEGIN
 40
0.06
 40
0.06
 40
0.06
 40
0.06
 40
0.18
 40
0.18
309
CELLMARGIN_END
 94
        6
 95
        1
302
GRIDFORMAT
  1
GRIDFORMAT_BEGIN
 90
        0
 91
        1
 62
     0
 92
       -2
340
0
 93
        0
 40
0.045
309
GRIDFORMAT_END
 95
        2
302
GRIDFORMAT
  1
GRIDFORMAT_BEGIN
 90
        0
 91
        1
 62
     0
 92
       -2
340
0
 93
        0
 40
0.045
309
GRIDFORMAT_END
 95
        4
302
GRIDFORMAT
  1
GRIDFORMAT_BEGIN
 90
        0
 91
        1
 62
     0
 92
       -2
340
0
 93
        0
 40
0.045
309
GRIDFORMAT_END
 95
        8
302
GRIDFORMAT
  1
GRIDFORMAT_BEGIN
 90
        0
 91
        1
 62
     0
 92
       -2
340
0
 93
        0
 40
0.045
309
GRIDFORMAT_END
 95
       16
302
GRIDFORMAT
  1
GRIDFORMAT_BEGIN
 90
        0
 91
        1
 62
     0
 92
       -2
340
0
 93
        0
 40
0.045
309
GRIDFORMAT_END
 95
       32
302
GRIDFORMAT
  1
GRIDFORMAT_BEGIN
 90
        0
 91
        1
 62
     0
 92
       -2
340
0
 93
        0
 40
0.045
309
GRIDFORMAT_END
309
TABLEFORMAT_END
  1
CELLSTYLE_BEGIN
 90
        2
 91
        1
300
_HEADER
309
CELLSTYLE_END
300
CELLSTYLE
  1
TABLEFORMAT_BEGIN
 90
        5
170
     1
 91
        0
 92
        0
 62
   257
 93
        1
300
CONTENTFORMAT
  1
CONTENTFORMAT_BEGIN
 90
        0
 91
        0
 92
        4
 93
        0
300

 40
0.0
140
1.0
 94
        2
 62
     0
340
17
144
4.5
309
CONTENTFORMAT_END
171
     1
301
MARGIN
  1
CELLMARGIN_BEGIN
 40
0.06
 40
0.06
 40
0.06
 40
0.06
 40
0.18
 40
0.18
309
CELLMARGIN_END
 94
        6
 95
        1
302
GRIDFORMAT
  1
GRIDFORMAT_BEGIN
 90
        0
 91
        1
 62
     0
 92
       -2
340
0
 93
        0
 40
0.045
309
GRIDFORMAT_END
 95
        2
302
GRIDFORMAT
  1
GRIDFORMAT_BEGIN
 90
        0
 91
        1
 62
     0
 92
       -2
340
0
 93
        0
 40
0.045
309
GRIDFORMAT_END
 95
        4
302
GRIDFORMAT
  1
GRIDFORMAT_BEGIN
 90
        0
 91
        1
 62
     0
 92
       -2
340
0
 93
        0
 40
0.045
309
GRIDFORMAT_END
 95
        8
302
GRIDFORMAT
  1
GRIDFORMAT_BEGIN
 90
        0
 91
        1
 62
     0
 92
       -2
340
0
 93
        0
 40
0.045
309
GRIDFORMAT_END
 95
       16
302
GRIDFORMAT
  1
GRIDFORMAT_BEGIN
 90
        0
 91
        1
 62
     0
 92
       -2
340
0
 93
        0
 40
0.045
309
GRIDFORMAT_END
 95
       32
302
GRIDFORMAT
  1
GRIDFORMAT_BEGIN
 90
        0
 91
        1
 62
     0
 92
       -2
340
0
 93
        0
 40
0.045
309
GRIDFORMAT_END
309
TABLEFORMAT_END
  1
CELLSTYLE_BEGIN
 90
        3
 91
        2
300
_DATA
309
CELLSTYLE_END
  0
ENDSEC
  0
EOF
