  0
SECTION
  2
HEADER
  9
$ACADVER
  1
AC1021
  9
$ACADMAINTVER
 70
    25
  9
$DWGCODEPAGE
  3
ANSI_932
  9
$LASTSAVEDBY
  1
Shimosaki
  9
$INSBASE
 10
0.0
 20
0.0
 30
0.0
  9
$EXTMIN
 10
-1422.659595011638
 20
50.1075026128398
 30
0.0
  9
$EXTMAX
 10
-1142.659595011638
 20
249.7215254974809
 30
0.0
  9
$LIMMIN
 10
-1432.169548381066
 20
47.00148127514019
  9
$LIMMAX
 10
-1135.169548381066
 20
257.0014812751402
  9
$ORTHOMODE
 70
     0
  9
$REGENMODE
 70
     1
  9
$FILLMODE
 70
     1
  9
$QTEXTMODE
 70
     0
  9
$MIRRTEXT
 70
     1
  9
$LTSCALE
 40
1.0
  9
$ATTMODE
 70
     1
  9
$TEXTSIZE
 40
0.2
  9
$TRACEWID
 40
0.05
  9
$TEXTSTYLE
  7
STANDARD
  9
$CLAYER
  8
0
  9
$CELTYPE
  6
ByBlock
  9
$CECOLOR
 62
   256
  9
$CELTSCALE
 40
1.0
  9
$DISPSILH
 70
     0
  9
$DIMSCALE
 40
1.0
  9
$DIMASZ
 40
0.18
  9
$DIMEXO
 40
0.0625
  9
$DIMDLI
 40
0.38
  9
$DIMRND
 40
0.0
  9
$DIMDLE
 40
0.0
  9
$DIMEXE
 40
0.18
  9
$DIMTP
 40
0.0
  9
$DIMTM
 40
0.0
  9
$DIMTXT
 40
0.18
  9
$DIMCEN
 40
0.09
  9
$DIMTSZ
 40
0.0
  9
$DIMTOL
 70
     0
  9
$DIMLIM
 70
     0
  9
$DIMTIH
 70
     1
  9
$DIMTOH
 70
     1
  9
$DIMSE1
 70
     0
  9
$DIMSE2
 70
     0
  9
$DIMTAD
 70
     0
  9
$DIMZIN
 70
     0
  9
$DIMBLK
  1

  9
$DIMASO
 70
     1
  9
$DIMSHO
 70
     1
  9
$DIMPOST
  1

  9
$DIMAPOST
  1

  9
$DIMALT
 70
     0
  9
$DIMALTD
 70
     2
  9
$DIMALTF
 40
25.4
  9
$DIMLFAC
 40
1.0
  9
$DIMTOFL
 70
     0
  9
$DIMTVP
 40
0.0
  9
$DIMTIX
 70
     0
  9
$DIMSOXD
 70
     0
  9
$DIMSAH
 70
     0
  9
$DIMBLK1
  1

  9
$DIMBLK2
  1

  9
$DIMSTYLE
  2
Standard
  9
$DIMCLRD
 70
     0
  9
$DIMCLRE
 70
     0
  9
$DIMCLRT
 70
     0
  9
$DIMTFAC
 40
1.0
  9
$DIMGAP
 40
0.09
  9
$DIMJUST
 70
     0
  9
$DIMSD1
 70
     0
  9
$DIMSD2
 70
     0
  9
$DIMTOLJ
 70
     1
  9
$DIMTZIN
 70
     0
  9
$DIMALTZ
 70
     0
  9
$DIMALTTZ
 70
     0
  9
$DIMUPT
 70
     0
  9
$DIMDEC
 70
     4
  9
$DIMTDEC
 70
     4
  9
$DIMALTU
 70
     2
  9
$DIMALTTD
 70
     2
  9
$DIMTXSTY
  7
STANDARD
  9
$DIMAUNIT
 70
     0
  9
$DIMADEC
 70
     0
  9
$DIMALTRND
 40
0.0
  9
$DIMAZIN
 70
     0
  9
$DIMDSEP
 70
    46
  9
$DIMATFIT
 70
     3
  9
$DIMFRAC
 70
     0
  9
$DIMLDRBLK
  1

  9
$DIMLUNIT
 70
     2
  9
$DIMLWD
 70
    -2
  9
$DIMLWE
 70
    -2
  9
$DIMTMOVE
 70
     2
  9
$DIMFXL
 40
1.0
  9
$DIMFXLON
 70
     0
  9
$DIMJOGANG
 40
0.7853981633974483
  9
$DIMTFILL
 70
     0
  9
$DIMTFILLCLR
 70
     0
  9
$DIMARCSYM
 70
     0
  9
$DIMLTYPE
  6

  9
$DIMLTEX1
  6

  9
$DIMLTEX2
  6

  9
$LUNITS
 70
     2
  9
$LUPREC
 70
     4
  9
$SKETCHINC
 40
0.1
  9
$FILLETRAD
 40
0.5
  9
$AUNITS
 70
     0
  9
$AUPREC
 70
     0
  9
$MENU
  1
.
  9
$ELEVATION
 40
0.0
  9
$PELEVATION
 40
0.0
  9
$THICKNESS
 40
0.0
  9
$LIMCHECK
 70
     0
  9
$CHAMFERA
 40
0.0
  9
$CHAMFERB
 40
0.0
  9
$CHAMFERC
 40
0.0
  9
$CHAMFERD
 40
0.0
  9
$SKPOLY
 70
     0
  9
$TDCREATE
 40
2458107.703795197
  9
$TDUCREATE
 40
2458107.328795197
  9
$TDUPDATE
 40
2458107.710542303
  9
$TDUUPDATE
 40
2458107.335542303
  9
$TDINDWG
 40
0.000314537
  9
$TDUSRTIMER
 40
2458107.335508912
  9
$USRTIMER
 70
     1
  9
$ANGBASE
 50
0.0
  9
$ANGDIR
 70
     0
  9
$PDMODE
 70
     0
  9
$PDSIZE
 40
0.0
  9
$PLINEWID
 40
0.0
  9
$SPLFRAME
 70
     0
  9
$SPLINETYPE
 70
     6
  9
$SPLINESEGS
 70
     8
  9
$HANDSEED
  5
1D8
  9
$SURFTAB1
 70
     6
  9
$SURFTAB2
 70
     6
  9
$SURFTYPE
 70
     6
  9
$SURFU
 70
     6
  9
$SURFV
 70
     6
  9
$UCSBASE
  2

  9
$UCSNAME
  2

  9
$UCSORG
 10
0.0
 20
0.0
 30
0.0
  9
$UCSXDIR
 10
1.0
 20
0.0
 30
0.0
  9
$UCSYDIR
 10
0.0
 20
1.0
 30
0.0
  9
$UCSORTHOREF
  2

  9
$UCSORTHOVIEW
 70
     0
  9
$UCSORGTOP
 10
0.0
 20
0.0
 30
0.0
  9
$UCSORGBOTTOM
 10
0.0
 20
0.0
 30
0.0
  9
$UCSORGLEFT
 10
0.0
 20
0.0
 30
0.0
  9
$UCSORGRIGHT
 10
0.0
 20
0.0
 30
0.0
  9
$UCSORGFRONT
 10
0.0
 20
0.0
 30
0.0
  9
$UCSORGBACK
 10
0.0
 20
0.0
 30
0.0
  9
$PUCSBASE
  2

  9
$PUCSNAME
  2

  9
$PUCSORG
 10
0.0
 20
0.0
 30
0.0
  9
$PUCSXDIR
 10
1.0
 20
0.0
 30
0.0
  9
$PUCSYDIR
 10
0.0
 20
1.0
 30
0.0
  9
$PUCSORTHOREF
  2

  9
$PUCSORTHOVIEW
 70
     0
  9
$PUCSORGTOP
 10
0.0
 20
0.0
 30
0.0
  9
$PUCSORGBOTTOM
 10
0.0
 20
0.0
 30
0.0
  9
$PUCSORGLEFT
 10
0.0
 20
0.0
 30
0.0
  9
$PUCSORGRIGHT
 10
0.0
 20
0.0
 30
0.0
  9
$PUCSORGFRONT
 10
0.0
 20
0.0
 30
0.0
  9
$PUCSORGBACK
 10
0.0
 20
0.0
 30
0.0
  9
$USERI1
 70
     0
  9
$USERI2
 70
     0
  9
$USERI3
 70
     0
  9
$USERI4
 70
     0
  9
$USERI5
 70
     0
  9
$USERR1
 40
0.0
  9
$USERR2
 40
0.0
  9
$USERR3
 40
0.0
  9
$USERR4
 40
0.0
  9
$USERR5
 40
0.0
  9
$WORLDVIEW
 70
     1
  9
$SHADEDGE
 70
     3
  9
$SHADEDIF
 70
    70
  9
$TILEMODE
 70
     1
  9
$MAXACTVP
 70
    64
  9
$PINSBASE
 10
0.0
 20
0.0
 30
0.0
  9
$PLIMCHECK
 70
     0
  9
$PEXTMIN
 10
1.000000000000000E+20
 20
1.000000000000000E+20
 30
1.000000000000000E+20
  9
$PEXTMAX
 10
-1.000000000000000E+20
 20
-1.000000000000000E+20
 30
-1.000000000000000E+20
  9
$PLIMMIN
 10
0.0
 20
0.0
  9
$PLIMMAX
 10
0.0
 20
0.0
  9
$UNITMODE
 70
     0
  9
$VISRETAIN
 70
     1
  9
$PLINEGEN
 70
     0
  9
$PSLTSCALE
 70
     1
  9
$TREEDEPTH
 70
  3020
  9
$CMLSTYLE
  2
Standard
  9
$CMLJUST
 70
     0
  9
$CMLSCALE
 40
1.0
  9
$PROXYGRAPHICS
 70
     1
  9
$MEASUREMENT
 70
     0
  9
$CELWEIGHT
370
    -1
  9
$ENDCAPS
280
     0
  9
$JOINSTYLE
280
     0
  9
$LWDISPLAY
290
     0
  9
$INSUNITS
 70
     0
  9
$HYPERLINKBASE
  1

  9
$STYLESHEET
  1

  9
$XEDIT
290
     1
  9
$CEPSNTYPE
380
     0
  9
$PSTYLEMODE
290
     1
  9
$FINGERPRINTGUID
  2
{1A651791-9A74-4649-BCDA-86C3BCEC3C1D}
  9
$VERSIONGUID
  2
{FAEB1C32-E019-11D5-929B-00C0DF256EC4}
  9
$EXTNAMES
290
     1
  9
$PSVPSCALE
 40
0.0
  9
$OLESTARTUP
290
     0
  9
$SORTENTS
280
   127
  9
$INDEXCTL
280
     0
  9
$HIDETEXT
280
     1
  9
$XCLIPFRAME
290
     0
  9
$HALOGAP
280
     0
  9
$OBSCOLOR
 70
   257
  9
$OBSLTYPE
280
     0
  9
$INTERSECTIONDISPLAY
280
     0
  9
$INTERSECTIONCOLOR
 70
   257
  9
$DIMASSOC
280
     2
  9
$PROJECTNAME
  1

  9
$CAMERADISPLAY
290
     0
  9
$LENSLENGTH
 40
50.0
  9
$CAMERAHEIGHT
 40
0.0
  9
$STEPSPERSEC
 40
2.0
  9
$STEPSIZE
 40
6.0
  9
$3DDWFPREC
 40
2.0
  9
$PSOLWIDTH
 40
0.25
  9
$PSOLHEIGHT
 40
4.0
  9
$LOFTANG1
 40
1.570796326794897
  9
$LOFTANG2
 40
1.570796326794897
  9
$LOFTMAG1
 40
0.0
  9
$LOFTMAG2
 40
0.0
  9
$LOFTPARAM
 70
     7
  9
$LOFTNORMALS
280
     1
  9
$LATITUDE
 40
37.795
  9
$LONGITUDE
 40
-122.394
  9
$NORTHDIRECTION
 40
0.0
  9
$TIMEZONE
 70
 -8000
  9
$LIGHTGLYPHDISPLAY
280
     1
  9
$TILEMODELIGHTSYNCH
280
     1
  9
$SOLIDHIST
280
     0
  9
$SHOWHIST
280
     1
  9
$DWFFRAME
280
     2
  9
$DGNFRAME
280
     2
  9
$REALWORLDSCALE
290
     1
  9
$INTERFERECOLOR
 62
   256
  9
$CSHADOW
280
     0
  9
$SHADOWPLANELOCATION
 40
0.0
  0
ENDSEC
  0
SECTION
  2
CLASSES
  0
CLASS
  1
ACDBDICTIONARYWDFLT
  2
AcDbDictionaryWithDefault
  3
ObjectDBX Classes
 90
        0
 91
        6
280
     0
281
     0
  0
CLASS
  1
SCALE
  2
AcDbScale
  3
ObjectDBX Classes
 90
     1153
 91
        6
280
     0
281
     0
  0
CLASS
  1
VISUALSTYLE
  2
AcDbVisualStyle
  3
ObjectDBX Classes
 90
     4095
 91
        6
280
     0
281
     0
  0
CLASS
  1
MATERIAL
  2
AcDbMaterial
  3
ObjectDBX Classes
 90
     1153
 91
        6
280
     0
281
     0
  0
CLASS
  1
TABLESTYLE
  2
AcDbTableStyle
  3
ObjectDBX Classes
 90
     4095
 91
        6
280
     0
281
     0
  0
CLASS
  1
MLEADERSTYLE
  2
AcDbMLeaderStyle
  3
ACDB_MLEADERSTYLE_CLASS
 90
     4095
 91
        6
280
     0
281
     0
  0
CLASS
  1
SUN
  2
AcDbSun
  3
SCENEOE
 90
     1153
 91
        6
280
     0
281
     0
  0
CLASS
  1
RASTERVARIABLES
  2
AcDbRasterVariables
  3
ISM
 90
        0
 91
        6
280
     0
281
     0
  0
CLASS
  1
DICTIONARYVAR
  2
AcDbDictionaryVar
  3
ObjectDBX Classes
 90
        0
 91
        6
280
     0
281
     0
  0
CLASS
  1
CELLSTYLEMAP
  2
AcDbCellStyleMap
  3
ObjectDBX Classes
 90
     1152
 91
        6
280
     0
281
     0
  0
ENDSEC
  0
SECTION
  2
TABLES
  0
TABLE
  2
VPORT
  5
8
330
0
100
AcDbSymbolTable
 70
     1
  0
VPORT
  5
124
330
8
100
AcDbSymbolTableRecord
100
AcDbViewportTableRecord
  2
*Active
 70
     0
 10
0.0
 20
0.0
 11
1.0
 21
1.0
 12
-1282.659595011638
 22
149.9145140551603
 13
0.0
 23
0.0
 14
0.5
 24
0.5
 15
0.5
 25
0.5
 16
0.0
 26
0.0
 36
1.0
 17
0.0
 27
0.0
 37
0.0
 40
203.6063033423339
 41
2.396092362344583
 42
50.0
 43
0.0
 44
0.0
 50
0.0
 51
0.0
 71
    16
 72
   100
 73
     1
 74
     3
 75
     0
 76
     0
 77
     0
 78
     0
281
     0
 65
     1
110
0.0
120
0.0
130
0.0
111
1.0
121
0.0
131
0.0
112
0.0
122
1.0
132
0.0
 79
     0
146
0.0
348
150
 60
     3
 61
     5
292
     1
282
     1
141
0.0
142
0.0
 63
   250
361
16D
  0
ENDTAB
  0
TABLE
  2
LTYPE
  5
5
330
0
100
AcDbSymbolTable
 70
    45
  0
LTYPE
  5
14
330
5
100
AcDbSymbolTableRecord
100
AcDbLinetypeTableRecord
  2
ByBlock
 70
     0
  3

 72
    65
 73
     0
 40
0.0
  0
LTYPE
  5
15
330
5
100
AcDbSymbolTableRecord
100
AcDbLinetypeTableRecord
  2
ByLayer
 70
     0
  3

 72
    65
 73
     0
 40
0.0
  0
LTYPE
  5
16
330
5
100
AcDbSymbolTableRecord
100
AcDbLinetypeTableRecord
  2
CONTINUOUS
 70
     0
  3
実線
 72
    65
 73
     0
 40
0.0
  0
LTYPE
  5
21
330
5
100
AcDbSymbolTableRecord
100
AcDbLinetypeTableRecord
  2
DASHED1
 70
     0
  3
--  --  --  --  --  --  --  --  
 72
    65
 73
     2
 40
2.5
 49
1.25
 74
     0
 49
-1.25
 74
     0
  0
LTYPE
  5
22
330
5
100
AcDbSymbolTableRecord
100
AcDbLinetypeTableRecord
  2
DASHED2
 70
     0
  3
----    ----    ----    ----    
 72
    65
 73
     2
 40
5.0
 49
2.5
 74
     0
 49
-2.5
 74
     0
  0
LTYPE
  5
23
330
5
100
AcDbSymbolTableRecord
100
AcDbLinetypeTableRecord
  2
DASHED3
 70
     0
  3
------  ------  ------  ------  
 72
    65
 73
     2
 40
5.0
 49
3.75
 74
     0
 49
-1.25
 74
     0
  0
LTYPE
  5
24
330
5
100
AcDbSymbolTableRecord
100
AcDbLinetypeTableRecord
  2
CENTER1
 70
     0
  3
----- - ----- - ----- - ----- - 
 72
    65
 73
     4
 40
10.0
 49
6.25
 74
     0
 49
-1.25
 74
     0
 49
1.25
 74
     0
 49
-1.25
 74
     0
  0
LTYPE
  5
25
330
5
100
AcDbSymbolTableRecord
100
AcDbLinetypeTableRecord
  2
CENTER2
 70
     0
  3
----------  --  ----------  --  
 72
    65
 73
     4
 40
20.0
 49
12.5
 74
     0
 49
-2.5
 74
     0
 49
2.5
 74
     0
 49
-2.5
 74
     0
  0
LTYPE
  5
26
330
5
100
AcDbSymbolTableRecord
100
AcDbLinetypeTableRecord
  2
PHANTOM1
 70
     0
  3
--- - - --- - - --- - - --- - - 
 72
    65
 73
     6
 40
9.5
 49
3.25
 74
     0
 49
-1.25
 74
     0
 49
1.25
 74
     0
 49
-1.25
 74
     0
 49
1.25
 74
     0
 49
-1.25
 74
     0
  0
LTYPE
  5
27
330
5
100
AcDbSymbolTableRecord
100
AcDbLinetypeTableRecord
  2
PHANTOM2
 70
     0
  3
--------  -  -  --------  -  -  
 72
    65
 73
     6
 40
20.0
 49
10.0
 74
     0
 49
-2.5
 74
     0
 49
1.25
 74
     0
 49
-2.5
 74
     0
 49
1.25
 74
     0
 49
-2.5
 74
     0
  0
LTYPE
  5
28
330
5
100
AcDbSymbolTableRecord
100
AcDbLinetypeTableRecord
  2
DOT
 70
     0
  3
-   -   -   -   -   -   -   -   
 72
    65
 73
     2
 40
2.5
 49
0.625
 74
     0
 49
-1.875
 74
     0
  0
LTYPE
  5
29
330
5
100
AcDbSymbolTableRecord
100
AcDbLinetypeTableRecord
  2
DUMMY
 70
     0
  3
ダミー
 72
    65
 73
     0
 40
0.0
  0
LTYPE
  5
2A
330
5
100
AcDbSymbolTableRecord
100
AcDbLinetypeTableRecord
  2
RAND1
 70
     0
  3
ランダム線1
 72
    65
 73
     4
 40
10.0
 49
1.0
 74
     0
 49
-2.0
 74
     0
 49
3.0
 74
     0
 49
-4.0
 74
     0
  0
LTYPE
  5
2B
330
5
100
AcDbSymbolTableRecord
100
AcDbLinetypeTableRecord
  2
RAND2
 70
     0
  3
ランダム線2
 72
    65
 73
     4
 40
14.0
 49
2.0
 74
     0
 49
-3.0
 74
     0
 49
4.0
 74
     0
 49
-5.0
 74
     0
  0
LTYPE
  5
2C
330
5
100
AcDbSymbolTableRecord
100
AcDbLinetypeTableRecord
  2
RAND3
 70
     0
  3
ランダム線3
 72
    65
 73
     4
 40
18.0
 49
3.0
 74
     0
 49
-4.0
 74
     0
 49
5.0
 74
     0
 49
-6.0
 74
     0
  0
LTYPE
  5
2D
330
5
100
AcDbSymbolTableRecord
100
AcDbLinetypeTableRecord
  2
RAND4
 70
     0
  3
ランダム線4
 72
    65
 73
     4
 40
22.0
 49
4.0
 74
     0
 49
-5.0
 74
     0
 49
6.0
 74
     0
 49
-7.0
 74
     0
  0
LTYPE
  5
2E
330
5
100
AcDbSymbolTableRecord
100
AcDbLinetypeTableRecord
  2
RAND5
 70
     0
  3
ランダム線5
 72
    65
 73
     4
 40
26.0
 49
5.0
 74
     0
 49
-6.0
 74
     0
 49
7.0
 74
     0
 49
-8.0
 74
     0
  0
LTYPE
  5
2F
330
5
100
AcDbSymbolTableRecord
100
AcDbLinetypeTableRecord
  2
LONG1
 70
     0
  3
----------  --  ----------  --  
 72
    65
 73
     4
 40
40.0
 49
32.5
 74
     0
 49
-2.5
 74
     0
 49
2.5
 74
     0
 49
-2.5
 74
     0
  0
LTYPE
  5
30
330
5
100
AcDbSymbolTableRecord
100
AcDbLinetypeTableRecord
  2
LONG2
 70
     0
  3
--------  -  -  --------  -  -  
 72
    65
 73
     6
 40
40.0
 49
30.0
 74
     0
 49
-2.5
 74
     0
 49
1.25
 74
     0
 49
-2.5
 74
     0
 49
1.25
 74
     0
 49
-2.5
 74
     0
  0
LTYPE
  5
31
330
5
100
AcDbSymbolTableRecord
100
AcDbLinetypeTableRecord
  2
LONG3
 70
     0
  3
+++++++++++++++..+++++++++++++++
 72
    65
 73
     2
 40
40.0
 49
37.5
 74
     0
 49
-2.5
 74
     0
  0
LTYPE
  5
32
330
5
100
AcDbSymbolTableRecord
100
AcDbLinetypeTableRecord
  2
LONG4
 70
     0
  3
+++++++++++++++..+++++++++++++++
 72
    65
 73
     2
 40
80.0
 49
75.0
 74
     0
 49
-5.0
 74
     0
  0
LTYPE
  5
33
330
5
100
AcDbSymbolTableRecord
100
AcDbLinetypeTableRecord
  2
LONG5
 70
     0
  3
----------  --  ----------  --  
 72
    65
 73
     4
 40
60.0
 49
37.5
 74
     0
 49
-7.5
 74
     0
 49
7.5
 74
     0
 49
-7.5
 74
     0
  0
LTYPE
  5
34
330
5
100
AcDbSymbolTableRecord
100
AcDbLinetypeTableRecord
  2
dashed
 70
     0
  3
-------   -------------   ------
 72
    65
 73
     2
 40
7.5
 49
6.0
 74
     0
 49
-1.5
 74
     0
  0
LTYPE
  5
35
330
5
100
AcDbSymbolTableRecord
100
AcDbLinetypeTableRecord
  2
dashed_spaced
 70
     0
  3
----        --------        ----
 72
    65
 73
     2
 40
12.0
 49
6.0
 74
     0
 49
-6.0
 74
     0
  0
LTYPE
  5
36
330
5
100
AcDbSymbolTableRecord
100
AcDbLinetypeTableRecord
  2
long_dashed_dotted
 70
     0
  3
------------- --- --------------
 72
    65
 73
     4
 40
15.25
 49
12.0
 74
     0
 49
-1.5
 74
     0
 49
0.25
 74
     0
 49
-1.5
 74
     0
  0
LTYPE
  5
37
330
5
100
AcDbSymbolTableRecord
100
AcDbLinetypeTableRecord
  2
long_dashed_double-dotted
 70
     0
  3
----------- --- --- ------------
 72
    65
 73
     6
 40
17.0
 49
12.0
 74
     0
 49
-1.5
 74
     0
 49
0.25
 74
     0
 49
-1.5
 74
     0
 49
0.25
 74
     0
 49
-1.5
 74
     0
  0
LTYPE
  5
38
330
5
100
AcDbSymbolTableRecord
100
AcDbLinetypeTableRecord
  2
long_dashed_triplicate-dotted
 70
     0
  3
--------- --- --- --- ----------
 72
    65
 73
     8
 40
18.75
 49
12.0
 74
     0
 49
-1.5
 74
     0
 49
0.25
 74
     0
 49
-1.5
 74
     0
 49
0.25
 74
     0
 49
-1.5
 74
     0
 49
0.25
 74
     0
 49
-1.5
 74
     0
  0
LTYPE
  5
39
330
5
100
AcDbSymbolTableRecord
100
AcDbLinetypeTableRecord
  2
dotted
 70
     0
  3
   -       -       -       -    
 72
    65
 73
     2
 40
1.75
 49
0.25
 74
     0
 49
-1.5
 74
     0
  0
LTYPE
  5
3A
330
5
100
AcDbSymbolTableRecord
100
AcDbLinetypeTableRecord
  2
chain
 70
     0
  3
-------------- -- --------------
 72
    65
 73
     4
 40
18.5
 49
12.0
 74
     0
 49
-1.5
 74
     0
 49
3.5
 74
     0
 49
-1.5
 74
     0
  0
LTYPE
  5
3B
330
5
100
AcDbSymbolTableRecord
100
AcDbLinetypeTableRecord
  2
chain_double_dash
 70
     0
  3
------------ -- -- -------------
 72
    65
 73
     6
 40
23.5
 49
12.0
 74
     0
 49
-1.5
 74
     0
 49
3.5
 74
     0
 49
-1.5
 74
     0
 49
3.5
 74
     0
 49
-1.5
 74
     0
  0
LTYPE
  5
3C
330
5
100
AcDbSymbolTableRecord
100
AcDbLinetypeTableRecord
  2
dashed_dotted
 70
     0
  3
-----------     -     ----------
 72
    65
 73
     4
 40
9.25
 49
6.0
 74
     0
 49
-1.5
 74
     0
 49
0.25
 74
     0
 49
-1.5
 74
     0
  0
LTYPE
  5
3D
330
5
100
AcDbSymbolTableRecord
100
AcDbLinetypeTableRecord
  2
double-dashed_dotted
 70
     0
  3
------   -----------   -   -----
 72
    65
 73
     6
 40
16.75
 49
6.0
 74
     0
 49
-1.5
 74
     0
 49
6.0
 74
     0
 49
-1.5
 74
     0
 49
0.25
 74
     0
 49
-1.5
 74
     0
  0
LTYPE
  5
3E
330
5
100
AcDbSymbolTableRecord
100
AcDbLinetypeTableRecord
  2
dashed_double-dotted
 70
     0
  3
---------    -    -    ---------
 72
    65
 73
     6
 40
11.0
 49
6.0
 74
     0
 49
-1.5
 74
     0
 49
0.25
 74
     0
 49
-1.5
 74
     0
 49
0.25
 74
     0
 49
-1.5
 74
     0
  0
LTYPE
  5
3F
330
5
100
AcDbSymbolTableRecord
100
AcDbLinetypeTableRecord
  2
double-dashed_double-dotted
 70
     0
  3
-----   ---------   -   -   ----
 72
    65
 73
     8
 40
18.5
 49
6.0
 74
     0
 49
-1.5
 74
     0
 49
6.0
 74
     0
 49
-1.5
 74
     0
 49
0.25
 74
     0
 49
-1.5
 74
     0
 49
0.25
 74
     0
 49
-1.5
 74
     0
  0
LTYPE
  5
40
330
5
100
AcDbSymbolTableRecord
100
AcDbLinetypeTableRecord
  2
dashed_triplicate-dotted
 70
     0
  3
-------    -    -    -    ------
 72
    65
 73
     8
 40
12.75
 49
6.0
 74
     0
 49
-1.5
 74
     0
 49
0.25
 74
     0
 49
-1.5
 74
     0
 49
0.25
 74
     0
 49
-1.5
 74
     0
 49
0.25
 74
     0
 49
-1.5
 74
     0
  0
LTYPE
  5
41
330
5
100
AcDbSymbolTableRecord
100
AcDbLinetypeTableRecord
  2
double-dashed_triplicate-dotted
 70
     0
  3
-----  ---------  -  -  -  -----
 72
    65
 73
    10
 40
20.25
 49
6.0
 74
     0
 49
-1.5
 74
     0
 49
6.0
 74
     0
 49
-1.5
 74
     0
 49
0.25
 74
     0
 49
-1.5
 74
     0
 49
0.25
 74
     0
 49
-1.5
 74
     0
 49
0.25
 74
     0
 49
-1.5
 74
     0
  0
LTYPE
  5
42
330
5
100
AcDbSymbolTableRecord
100
AcDbLinetypeTableRecord
  2
undefined
 70
     0
  3
--------------------------------
 72
    65
 73
     0
 40
0.0
  0
LTYPE
  5
43
330
5
100
AcDbSymbolTableRecord
100
AcDbLinetypeTableRecord
  2
STYLE_01
 70
     0
  3
----        --------        ----
 72
    65
 73
     2
 40
0.4166399999999998
 49
0.2082799999999999
 74
     0
 49
-0.2083599999999999
 74
     0
  0
LTYPE
  5
44
330
5
100
AcDbSymbolTableRecord
100
AcDbLinetypeTableRecord
  2
STYLE_02
 70
     0
  3
------     -----------     -----
 72
    65
 73
     2
 40
0.6944250000000001
 49
0.48607
 74
     0
 49
-0.2083550000000001
 74
     0
  0
LTYPE
  5
45
330
5
100
AcDbSymbolTableRecord
100
AcDbLinetypeTableRecord
  2
STYLE_03
 70
     0
  3
-------   -------------   ------
 72
    65
 73
     2
 40
1.25
 49
1.04164
 74
     0
 49
-0.2083599999999999
 74
     0
  0
LTYPE
  5
46
330
5
100
AcDbSymbolTableRecord
100
AcDbLinetypeTableRecord
  2
STYLE_04
 70
     0
  3
-------  --------------  -------
 72
    65
 73
     2
 40
1.52771
 49
1.319425
 74
     0
 49
-0.208285
 74
     0
  0
LTYPE
  5
47
330
5
100
AcDbSymbolTableRecord
100
AcDbLinetypeTableRecord
  2
STYLE_05
 70
     0
  3
---           -----           --
 72
    65
 73
     2
 40
0.20828
 49
0.069425
 74
     0
 49
-0.138855
 74
     0
  0
LTYPE
  5
48
330
5
100
AcDbSymbolTableRecord
100
AcDbLinetypeTableRecord
  2
STYLE_06
 70
     0
  3
----------      --    ----------
 72
    65
 73
     4
 40
1.04164
 49
0.625
 74
     0
 49
-0.2082799999999999
 74
     0
 49
0.06943
 74
     0
 49
-0.13893
 74
     0
  0
LTYPE
  5
49
330
5
100
AcDbSymbolTableRecord
100
AcDbLinetypeTableRecord
  2
STYLE_07
 70
     0
  3
-----    -----------    -  -----
 72
    65
 73
     6
 40
1.875
 49
0.625
 74
     0
 49
-0.2082799999999999
 74
     0
 49
0.6250000000000001
 74
     0
 49
-0.2083599999999999
 74
     0
 49
0.06943
 74
     0
 49
-0.1389299999999998
 74
     0
  0
LTYPE
  5
4A
330
5
100
AcDbSymbolTableRecord
100
AcDbLinetypeTableRecord
  2
STYLE_08
 70
     0
  3
--------     --    --    -------
 72
    65
 73
     6
 40
1.25
 49
0.625
 74
     0
 49
-0.2082799999999999
 74
     0
 49
0.06943
 74
     0
 49
-0.13893
 74
     0
 49
0.0694299999999997
 74
     0
 49
-0.13893
 74
     0
  0
LTYPE
  5
4B
330
5
100
AcDbSymbolTableRecord
100
AcDbLinetypeTableRecord
  2
STYLE_09
 70
     0
  3
------------  ----  ------------
 72
    65
 73
     4
 40
5.0
 49
3.75
 74
     0
 49
-0.2777849999999997
 74
     0
 49
0.6944300000000003
 74
     0
 49
-0.2777849999999997
 74
     0
  0
LTYPE
  5
4C
330
5
100
AcDbSymbolTableRecord
100
AcDbLinetypeTableRecord
  2
STYLE_10
 70
     0
  3
----------- ---- ---  ----------
 72
    65
 73
     6
 40
5.9375
 49
3.75
 74
     0
 49
-0.2777849999999997
 74
     0
 49
0.6944300000000003
 74
     0
 49
-0.2777849999999997
 74
     0
 49
0.625
 74
     0
 49
-0.3125
 74
     0
  0
ENDTAB
  0
TABLE
  2
LAYER
  5
2
102
{ACAD_XDICTIONARY
360
1A3
102
}
330
0
100
AcDbSymbolTable
 70
     6
  0
LAYER
  5
10
330
2
100
AcDbSymbolTableRecord
100
AcDbLayerTableRecord
  2
0
 70
     0
 62
     7
  6
CONTINUOUS
370
    -3
390
F
347
167
  0
LAYER
  5
4F
330
2
100
AcDbSymbolTableRecord
100
AcDbLayerTableRecord
  2
_0-0_0
 70
     0
 62
     7
  6
CONTINUOUS
370
    -3
390
F
347
167
  0
LAYER
  5
50
330
2
100
AcDbSymbolTableRecord
100
AcDbLayerTableRecord
  2
_0-1_1_5
 70
     0
 62
     7
  6
CONTINUOUS
370
    -3
390
F
347
167
  0
LAYER
  5
51
330
2
100
AcDbSymbolTableRecord
100
AcDbLayerTableRecord
  2
_0-2_ADD_LINE
 70
     0
 62
     7
  6
CONTINUOUS
370
    -3
390
F
347
167
  0
LAYER
  5
52
330
2
100
AcDbSymbolTableRecord
100
AcDbLayerTableRecord
  2
_0-3_
 70
     0
 62
     7
  6
CONTINUOUS
370
    -3
390
F
347
167
  0
LAYER
  5
53
330
2
100
AcDbSymbolTableRecord
100
AcDbLayerTableRecord
  2
ADD_LINE
 70
     0
 62
     7
  6
CONTINUOUS
370
    -3
390
F
347
167
  0
ENDTAB
  0
TABLE
  2
STYLE
  5
3
330
0
100
AcDbSymbolTable
 70
     3
  0
STYLE
  5
11
330
3
100
AcDbSymbolTableRecord
100
AcDbTextStyleTableRecord
  2
STANDARD
 70
     0
 40
0.0
 41
1.0
 50
0.0
 71
     0
 42
0.2
  3
txt
  4
bigfont.shx
  0
STYLE
  5
4E
330
3
100
AcDbSymbolTableRecord
100
AcDbTextStyleTableRecord
  2
TATEGAKI
 70
     4
 40
0.0
 41
1.0
 50
0.0
 71
     0
 42
1.0
  3
txt
  4
bigfont.shx
  0
STYLE
  5
181
330
3
100
AcDbSymbolTableRecord
100
AcDbTextStyleTableRecord
  2
ＭＳ ゴシック
 70
     0
 40
0.0
 41
1.0
 50
0.0
 71
     0
 42
0.2
  3
msgothic.ttc
  4
ＭＳ ゴシック
1001
ACAD
1000
ＭＳ ゴシック
1071
        0
  0
ENDTAB
  0
TABLE
  2
VIEW
  5
6
330
0
100
AcDbSymbolTable
 70
     0
  0
ENDTAB
  0
TABLE
  2
UCS
  5
7
330
0
100
AcDbSymbolTable
 70
     0
  0
ENDTAB
  0
TABLE
  2
APPID
  5
9
330
0
100
AcDbSymbolTable
 70
     2
  0
APPID
  5
12
330
9
100
AcDbSymbolTableRecord
100
AcDbRegAppTableRecord
  2
ACAD
 70
     0
  0
APPID
  5
173
330
9
100
AcDbSymbolTableRecord
100
AcDbRegAppTableRecord
  2
ACAD_MLEADERVER
 70
     0
  0
ENDTAB
  0
TABLE
  2
DIMSTYLE
  5
A
330
0
100
AcDbSymbolTable
 70
     1
100
AcDbDimStyleTable
  0
DIMSTYLE
105
54
330
A
100
AcDbSymbolTableRecord
100
AcDbDimStyleTableRecord
  2
Standard
 70
     0
178
     0
340
11
  0
ENDTAB
  0
TABLE
  2
BLOCK_RECORD
  5
1
330
0
100
AcDbSymbolTable
 70
     2
  0
BLOCK_RECORD
  5
1D
330
1
100
AcDbSymbolTableRecord
100
AcDbBlockTableRecord
  2
*Model_Space
340
1E
 70
     0
280
     1
281
     0
  0
BLOCK_RECORD
  5
1B
330
1
100
AcDbSymbolTableRecord
100
AcDbBlockTableRecord
  2
*Paper_Space
340
1C
 70
     0
280
     1
281
     0
  0
ENDTAB
  0
ENDSEC
  0
SECTION
  2
BLOCKS
  0
BLOCK
  5
147
330
1D
100
AcDbEntity
  8
0
100
AcDbBlockBegin
  2
*Model_Space
 70
     0
 10
0.0
 20
0.0
 30
0.0
  3
*Model_Space
  1
*Model_Space
  0
ENDBLK
  5
148
330
1D
100
AcDbEntity
  8
0
100
AcDbBlockEnd
  0
BLOCK
  5
149
330
1B
100
AcDbEntity
 67
     1
  8
0
100
AcDbBlockBegin
  2
*Paper_Space
 70
     0
 10
0.0
 20
0.0
 30
0.0
  3
*Paper_Space
  1
*Paper_Space
  0
ENDBLK
  5
14A
330
1B
100
AcDbEntity
 67
     1
  8
0
100
AcDbBlockEnd
  0
ENDSEC
  0
SECTION
  2
ENTITIES
  0
LINE
  5
59
330
1D
100
AcDbEntity
  8
_0-3_
  6
Continuous
 62
     7
100
AcDbLine
 10
-1142.659595011638
 20
66.72152549748083
 30
0.0
 11
-1329.50680756928
 21
66.72152549748083
 31
0.0
  0
LINE
  5
5A
330
1D
100
AcDbEntity
  8
_0-3_
  6
Continuous
 62
     7
100
AcDbLine
 10
-1142.659595011638
 20
60.72152549748082
 30
0.0
 11
-1329.50680756928
 21
60.72152549748082
 31
0.0
  0
LINE
  5
5B
330
1D
100
AcDbEntity
  8
_0-3_
  6
Continuous
 62
     7
100
AcDbLine
 10
-1329.50680756928
 20
54.72152549748081
 30
0.0
 11
-1329.50680756928
 21
72.72152549748083
 31
0.0
  0
TEXT
  5
5C
330
1D
100
AcDbEntity
  8
_0-3_
 62
     4
100
AcDbText
 10
-1328.112834846091
 20
69.56758430125996
 30
0.0
 40
2.0
  1
品名
  7
ＭＳ ゴシック
100
AcDbText
  0
TEXT
  5
5D
330
1D
100
AcDbEntity
  8
_0-3_
 62
     4
100
AcDbText
 10
-1328.112834846091
 20
63.6382858532946
 30
0.0
 40
2.0
  1
仕上げ
  7
ＭＳ ゴシック
100
AcDbText
  0
TEXT
  5
5E
330
1D
100
AcDbEntity
  8
_0-3_
 62
     4
100
AcDbText
 10
-1328.112834846091
 20
57.39691906596264
 30
0.0
 40
2.0
  1
材質
  7
ＭＳ ゴシック
100
AcDbText
  0
TEXT
  5
5F
330
1D
100
AcDbEntity
  8
_0-3_
 62
     7
100
AcDbText
 10
-1319.327192447142
 20
55.95371272710431
 30
0.0
 40
3.1
  1
ステンレススチール
  7
ＭＳ ゴシック
100
AcDbText
  0
TEXT
  5
60
330
1D
100
AcDbEntity
  8
_0-3_
 62
     4
100
AcDbText
 10
-1234.937349459922
 20
69.6054044194436
 30
0.0
 40
2.0
  1
品番
  7
ＭＳ ゴシック
100
AcDbText
  0
LINE
  5
61
330
1D
100
AcDbEntity
  8
_0-3_
  6
Continuous
 62
     7
100
AcDbLine
 10
-1235.992928351638
 20
54.7215254974808
 30
0.0
 11
-1235.992928351638
 21
72.72152549748083
 31
0.0
  0
LINE
  5
62
330
1D
100
AcDbEntity
  8
_0-3_
  6
Continuous
 62
     7
100
AcDbLine
 10
-1142.659595011638
 20
72.72152549748083
 30
0.0
 11
-1329.50680756928
 21
72.72152549748083
 31
0.0
  0
TEXT
  5
63
330
1D
100
AcDbEntity
  8
_0-3_
 62
     4
100
AcDbText
 10
-1234.949565907776
 20
63.65310190449799
 30
0.0
 40
2.0
  1
縮尺
  7
ＭＳ ゴシック
100
AcDbText
  0
TEXT
  5
64
330
1D
100
AcDbEntity
  8
_0-3_
 62
     7
100
AcDbText
 10
-1422.629602920072
 20
50.0825026128398
 30
0.0
 40
2.5
  1
120718SH
  7
ＭＳ ゴシック
100
AcDbText
  0
LINE
  5
65
330
1D
100
AcDbEntity
  8
_0-3_
  6
Continuous
 62
     7
100
AcDbLine
 10
-1422.659595011638
 20
249.7215254974809
 30
0.0
 11
-1422.659595011638
 21
54.72152549748081
 31
0.0
  0
LINE
  5
66
330
1D
100
AcDbEntity
  8
_0-3_
  6
Continuous
 62
     7
100
AcDbLine
 10
-1422.659595011638
 20
54.72152549748081
 30
0.0
 11
-1142.659595011638
 21
54.7215254974808
 31
0.0
  0
TEXT
  5
67
330
1D
100
AcDbEntity
  8
_0-3_
 62
     7
100
AcDbText
 10
-1225.486140579553
 20
61.75888673498823
 30
0.0
 40
3.1
  1
1/1
  7
ＭＳ ゴシック
100
AcDbText
  0
TEXT
  5
68
330
1D
100
AcDbEntity
  8
_0-3_
 62
     7
100
AcDbText
 10
-1319.327192447142
 20
68.1579599997126
 30
0.0
 40
3.1
  1
ファニチャーハンドル
  7
ＭＳ ゴシック
100
AcDbText
  0
LINE
  5
69
330
1D
100
AcDbEntity
  8
_0-3_
  6
Continuous
 62
     7
100
AcDbLine
 10
-1142.659595011638
 20
54.7215254974808
 30
0.0
 11
-1142.659595011638
 21
249.7215254974809
 31
0.0
  0
LINE
  5
6A
330
1D
100
AcDbEntity
  8
_0-3_
  6
Continuous
 62
     7
100
AcDbLine
 10
-1142.659595011638
 20
249.7215254974809
 30
0.0
 11
-1422.659595011638
 21
249.7215254974809
 31
0.0
  0
POINT
  5
6B
330
1D
100
AcDbEntity
  8
_0-2_ADD_LINE
 62
     7
100
AcDbPoint
 10
-1252.202885769013
 20
207.30446275437
 30
0.0
  0
LINE
  5
6C
330
1D
100
AcDbEntity
  8
_0-2_ADD_LINE
  6
Continuous
 62
     7
100
AcDbLine
 10
-1252.202885769013
 20
207.30446275437
 30
0.0
 11
-1252.202885769013
 21
193.5956705120769
 31
0.0
  0
LINE
  5
6D
330
1D
100
AcDbEntity
  8
_0-1_1_5
  6
Continuous
 62
     7
100
AcDbLine
 10
-1380.202885769013
 20
207.30446275437
 30
0.0
 11
-1252.202885769013
 21
207.30446275437
 31
0.0
  0
TEXT
  5
6E
330
1D
100
AcDbEntity
  8
_0-1_1_5
 62
     4
100
AcDbText
 10
-1318.077885769013
 20
207.80446275437
 30
0.0
 40
2.5
  1
128
  7
ＭＳ ゴシック
100
AcDbText
  0
POINT
  5
6F
330
1D
100
AcDbEntity
  8
_0-2_ADD_LINE
 62
     7
100
AcDbPoint
 10
-1385.202885769013
 20
212.586578401434
 30
0.0
  0
POINT
  5
70
330
1D
100
AcDbEntity
  8
_0-2_ADD_LINE
 62
     7
100
AcDbPoint
 10
-1247.202885769013
 20
212.586578401434
 30
0.0
  0
LINE
  5
71
330
1D
100
AcDbEntity
  8
_0-2_ADD_LINE
  6
Continuous
 62
     7
100
AcDbLine
 10
-1385.202885769013
 20
212.586578401434
 30
0.0
 11
-1385.202885769013
 21
193.5956705120769
 31
0.0
  0
LINE
  5
72
330
1D
100
AcDbEntity
  8
_0-2_ADD_LINE
  6
Continuous
 62
     7
100
AcDbLine
 10
-1247.202885769013
 20
212.586578401434
 30
0.0
 11
-1247.202885769013
 21
193.5956705120769
 31
0.0
  0
LINE
  5
73
330
1D
100
AcDbEntity
  8
_0-1_1_5
  6
Continuous
 62
     7
100
AcDbLine
 10
-1385.202885769013
 20
212.586578401434
 30
0.0
 11
-1247.202885769013
 21
212.586578401434
 31
0.0
  0
TEXT
  5
74
330
1D
100
AcDbEntity
  8
_0-1_1_5
 62
     4
100
AcDbText
 10
-1318.077885769013
 20
213.086578401434
 30
0.0
 40
2.5
  1
138
  7
ＭＳ ゴシック
100
AcDbText
  0
LINE
  5
75
330
1D
100
AcDbEntity
  8
_0-2_ADD_LINE
  6
Continuous
 62
     7
100
AcDbLine
 10
-1177.998753193154
 20
189.091085877798
 30
0.0
 11
-1166.644048815326
 21
177.7363814999701
 31
0.0
  0
LINE
  5
76
330
1D
100
AcDbEntity
  8
_0-2_ADD_LINE
  6
Continuous
 62
     7
100
AcDbLine
 10
-1166.644048815326
 20
177.7363814999701
 30
0.0
 11
-1158.941566310229
 21
177.7363814999701
 31
0.0
  0
TEXT
  5
77
330
1D
100
AcDbEntity
  8
_0-2_ADD_LINE
 62
     7
100
AcDbText
 10
-1164.027973407526
 20
178.3123803484204
 30
0.0
 40
3.1
  1
M4
  7
ＭＳ ゴシック
100
AcDbText
  0
POINT
  5
78
330
1D
100
AcDbEntity
  8
_0-2_ADD_LINE
 62
     7
100
AcDbPoint
 10
-1380.202885769013
 20
207.30446275437
 30
0.0
  0
LINE
  5
79
330
1D
100
AcDbEntity
  8
_0-2_ADD_LINE
  6
Continuous
 62
     7
100
AcDbLine
 10
-1380.202885769013
 20
207.30446275437
 30
0.0
 11
-1380.202885769013
 21
193.5956705120769
 31
0.0
  0
LINE
  5
7A
330
1D
100
AcDbEntity
  8
_0-1_1_5
  6
Continuous
 62
     7
100
AcDbLine
 10
-1178.005351878379
 20
199.0956705120769
 30
0.0
 11
-1208.005351878379
 21
199.0956705120769
 31
0.0
  0
LINE
  5
7B
330
1D
100
AcDbEntity
  8
_0-1_1_5
  6
Continuous
 62
     7
100
AcDbLine
 10
-1178.005351878379
 20
199.0956705120769
 30
0.0
 11
-1178.005351878379
 21
179.0956705120769
 31
0.0
  0
LINE
  5
7C
330
1D
100
AcDbEntity
  8
_0-1_1_5
  6
Continuous
 62
     7
100
AcDbLine
 10
-1178.005351878379
 20
179.0956705120769
 30
0.0
 11
-1208.005351878379
 21
179.0956705120769
 31
0.0
  0
LINE
  5
7D
330
1D
100
AcDbEntity
  8
_0-1_1_5
  6
DASHED1
 62
     7
100
AcDbLine
 10
-1380.202885769013
 20
179.0956705120769
 30
0.0
 11
-1380.202885769013
 21
179.0956705120769
 31
0.0
  0
LINE
  5
7E
330
1D
100
AcDbEntity
  8
_0-1_1_5
  6
DASHED1
 62
     7
100
AcDbLine
 10
-1380.202885769013
 20
179.0956705120769
 30
0.0
 11
-1379.334644880678
 21
179.2475929819549
 31
0.0
  0
LINE
  5
7F
330
1D
100
AcDbEntity
  8
_0-1_1_5
  6
DASHED1
 62
     7
100
AcDbLine
 10
-1379.334644880678
 20
179.2475929819549
 30
0.0
 11
-1378.492785052384
 21
179.6987443042179
 31
0.0
  0
LINE
  5
80
330
1D
100
AcDbEntity
  8
_0-1_1_5
  6
DASHED1
 62
     7
100
AcDbLine
 10
-1378.492785052384
 20
179.6987443042179
 30
0.0
 11
-1377.702885769013
 21
180.4354164742325
 31
0.0
  0
LINE
  5
81
330
1D
100
AcDbEntity
  8
_0-1_1_5
  6
DASHED1
 62
     7
100
AcDbLine
 10
-1377.702885769013
 20
180.4354164742325
 30
0.0
 11
-1376.98894772058
 21
181.4352260808872
 31
0.0
  0
LINE
  5
82
330
1D
100
AcDbEntity
  8
_0-1_1_5
  6
DASHED1
 62
     7
100
AcDbLine
 10
-1376.98894772058
 20
181.4352260808872
 30
0.0
 11
-1376.372663553418
 21
182.6677944152115
 31
0.0
  0
LINE
  5
83
330
1D
100
AcDbEntity
  8
_0-1_1_5
  6
DASHED1
 62
     7
100
AcDbLine
 10
-1376.372663553418
 20
182.6677944152115
 30
0.0
 11
-1375.87275875009
 21
184.0956705120769
 31
0.0
  0
LINE
  5
84
330
1D
100
AcDbEntity
  8
_0-1_1_5
  6
DASHED1
 62
     7
100
AcDbLine
 10
-1375.87275875009
 20
184.0956705120769
 30
0.0
 11
-1375.504422665083
 21
185.6754690788202
 31
0.0
  0
LINE
  5
85
330
1D
100
AcDbEntity
  8
_0-1_1_5
  6
DASHED1
 62
     7
100
AcDbLine
 10
-1375.504422665083
 20
185.6754690788202
 30
0.0
 11
-1375.278847003952
 21
187.3591887354076
 31
0.0
  0
LINE
  5
86
330
1D
100
AcDbEntity
  8
_0-1_1_5
  6
DASHED1
 62
     7
100
AcDbLine
 10
-1375.278847003952
 20
187.3591887354076
 30
0.0
 11
-1375.202885769013
 21
189.0956705120769
 31
0.0
  0
LINE
  5
87
330
1D
100
AcDbEntity
  8
_0-1_1_5
  6
DASHED1
 62
     7
100
AcDbLine
 10
-1375.202885769013
 20
189.0956705120769
 30
0.0
 11
-1375.278847003952
 21
190.8321522887462
 31
0.0
  0
LINE
  5
88
330
1D
100
AcDbEntity
  8
_0-1_1_5
  6
DASHED1
 62
     7
100
AcDbLine
 10
-1375.278847003952
 20
190.8321522887462
 30
0.0
 11
-1375.504422665083
 21
192.5158719453336
 31
0.0
  0
LINE
  5
89
330
1D
100
AcDbEntity
  8
_0-1_1_5
  6
DASHED1
 62
     7
100
AcDbLine
 10
-1375.504422665083
 20
192.5158719453336
 30
0.0
 11
-1375.87275875009
 21
194.0956705120769
 31
0.0
  0
LINE
  5
8A
330
1D
100
AcDbEntity
  8
_0-1_1_5
  6
DASHED1
 62
     7
100
AcDbLine
 10
-1375.87275875009
 20
194.0956705120769
 30
0.0
 11
-1376.372663553418
 21
195.5235466089423
 31
0.0
  0
LINE
  5
8B
330
1D
100
AcDbEntity
  8
_0-1_1_5
  6
DASHED1
 62
     7
100
AcDbLine
 10
-1376.372663553418
 20
195.5235466089423
 30
0.0
 11
-1376.98894772058
 21
196.7561149432667
 31
0.0
  0
LINE
  5
8C
330
1D
100
AcDbEntity
  8
_0-1_1_5
  6
DASHED1
 62
     7
100
AcDbLine
 10
-1376.98894772058
 20
196.7561149432667
 30
0.0
 11
-1377.702885769013
 21
197.7559245499213
 31
0.0
  0
LINE
  5
8D
330
1D
100
AcDbEntity
  8
_0-1_1_5
  6
DASHED1
 62
     7
100
AcDbLine
 10
-1377.702885769013
 20
197.7559245499213
 30
0.0
 11
-1378.492785052384
 21
198.492596719936
 31
0.0
  0
LINE
  5
8E
330
1D
100
AcDbEntity
  8
_0-1_1_5
  6
DASHED1
 62
     7
100
AcDbLine
 10
-1378.492785052384
 20
198.492596719936
 30
0.0
 11
-1379.334644880678
 21
198.943748042199
 31
0.0
  0
LINE
  5
8F
330
1D
100
AcDbEntity
  8
_0-1_1_5
  6
DASHED1
 62
     7
100
AcDbLine
 10
-1379.334644880678
 20
198.943748042199
 30
0.0
 11
-1380.202885769013
 21
199.0956705120769
 31
0.0
  0
LINE
  5
90
330
1D
100
AcDbEntity
  8
_0-1_1_5
  6
DASHED1
 62
     7
100
AcDbLine
 10
-1380.202885769013
 20
199.0956705120769
 30
0.0
 11
-1380.202885769013
 21
199.0956705120769
 31
0.0
  0
LINE
  5
91
330
1D
100
AcDbEntity
  8
_0-1_1_5
  6
Continuous
 62
     7
100
AcDbLine
 10
-1380.202885769013
 20
199.0956705120769
 30
0.0
 11
-1380.202885769013
 21
199.0956705120769
 31
0.0
  0
LINE
  5
92
330
1D
100
AcDbEntity
  8
_0-1_1_5
  6
Continuous
 62
     7
100
AcDbLine
 10
-1380.202885769013
 20
199.0956705120769
 30
0.0
 11
-1381.071126657347
 21
198.943748042199
 31
0.0
  0
LINE
  5
93
330
1D
100
AcDbEntity
  8
_0-1_1_5
  6
Continuous
 62
     7
100
AcDbLine
 10
-1381.071126657347
 20
198.943748042199
 30
0.0
 11
-1381.912986485641
 21
198.492596719936
 31
0.0
  0
LINE
  5
94
330
1D
100
AcDbEntity
  8
_0-1_1_5
  6
Continuous
 62
     7
100
AcDbLine
 10
-1381.912986485641
 20
198.492596719936
 30
0.0
 11
-1382.702885769013
 21
197.7559245499213
 31
0.0
  0
LINE
  5
95
330
1D
100
AcDbEntity
  8
_0-1_1_5
  6
Continuous
 62
     7
100
AcDbLine
 10
-1382.702885769013
 20
197.7559245499213
 30
0.0
 11
-1383.416823817445
 21
196.7561149432667
 31
0.0
  0
LINE
  5
96
330
1D
100
AcDbEntity
  8
_0-1_1_5
  6
Continuous
 62
     7
100
AcDbLine
 10
-1383.416823817445
 20
196.7561149432667
 30
0.0
 11
-1384.033107984608
 21
195.5235466089423
 31
0.0
  0
LINE
  5
97
330
1D
100
AcDbEntity
  8
_0-1_1_5
  6
Continuous
 62
     7
100
AcDbLine
 10
-1384.033107984608
 20
195.5235466089423
 30
0.0
 11
-1384.533012787935
 21
194.0956705120769
 31
0.0
  0
LINE
  5
98
330
1D
100
AcDbEntity
  8
_0-1_1_5
  6
Continuous
 62
     7
100
AcDbLine
 10
-1384.533012787935
 20
194.0956705120769
 30
0.0
 11
-1384.901348872942
 21
192.5158719453336
 31
0.0
  0
LINE
  5
99
330
1D
100
AcDbEntity
  8
_0-1_1_5
  6
Continuous
 62
     7
100
AcDbLine
 10
-1384.901348872942
 20
192.5158719453336
 30
0.0
 11
-1385.126924534074
 21
190.8321522887462
 31
0.0
  0
LINE
  5
9A
330
1D
100
AcDbEntity
  8
_0-1_1_5
  6
Continuous
 62
     7
100
AcDbLine
 10
-1385.126924534074
 20
190.8321522887462
 30
0.0
 11
-1385.202885769013
 21
189.0956705120769
 31
0.0
  0
LINE
  5
9B
330
1D
100
AcDbEntity
  8
_0-1_1_5
  6
Continuous
 62
     7
100
AcDbLine
 10
-1385.202885769013
 20
189.0956705120769
 30
0.0
 11
-1385.126924534074
 21
187.3591887354076
 31
0.0
  0
LINE
  5
9C
330
1D
100
AcDbEntity
  8
_0-1_1_5
  6
Continuous
 62
     7
100
AcDbLine
 10
-1385.126924534074
 20
187.3591887354076
 30
0.0
 11
-1384.901348872942
 21
185.6754690788202
 31
0.0
  0
LINE
  5
9D
330
1D
100
AcDbEntity
  8
_0-1_1_5
  6
Continuous
 62
     7
100
AcDbLine
 10
-1384.901348872942
 20
185.6754690788202
 30
0.0
 11
-1384.533012787935
 21
184.0956705120769
 31
0.0
  0
LINE
  5
9E
330
1D
100
AcDbEntity
  8
_0-1_1_5
  6
Continuous
 62
     7
100
AcDbLine
 10
-1384.533012787935
 20
184.0956705120769
 30
0.0
 11
-1384.033107984608
 21
182.6677944152115
 31
0.0
  0
LINE
  5
9F
330
1D
100
AcDbEntity
  8
_0-1_1_5
  6
Continuous
 62
     7
100
AcDbLine
 10
-1384.033107984608
 20
182.6677944152115
 30
0.0
 11
-1383.416823817445
 21
181.4352260808872
 31
0.0
  0
LINE
  5
A0
330
1D
100
AcDbEntity
  8
_0-1_1_5
  6
Continuous
 62
     7
100
AcDbLine
 10
-1383.416823817445
 20
181.4352260808872
 30
0.0
 11
-1382.702885769013
 21
180.4354164742326
 31
0.0
  0
LINE
  5
A1
330
1D
100
AcDbEntity
  8
_0-1_1_5
  6
Continuous
 62
     7
100
AcDbLine
 10
-1382.702885769013
 20
180.4354164742326
 30
0.0
 11
-1381.912986485641
 21
179.6987443042179
 31
0.0
  0
LINE
  5
A2
330
1D
100
AcDbEntity
  8
_0-1_1_5
  6
Continuous
 62
     7
100
AcDbLine
 10
-1381.912986485641
 20
179.6987443042179
 30
0.0
 11
-1381.071126657347
 21
179.2475929819549
 31
0.0
  0
LINE
  5
A3
330
1D
100
AcDbEntity
  8
_0-1_1_5
  6
Continuous
 62
     7
100
AcDbLine
 10
-1381.071126657347
 20
179.2475929819549
 30
0.0
 11
-1380.202885769013
 21
179.0956705120769
 31
0.0
  0
LINE
  5
A4
330
1D
100
AcDbEntity
  8
_0-1_1_5
  6
Continuous
 62
     7
100
AcDbLine
 10
-1380.202885769013
 20
179.0956705120769
 30
0.0
 11
-1380.202885769013
 21
179.0956705120769
 31
0.0
  0
LINE
  5
A5
330
1D
100
AcDbEntity
  8
_0-1_1_5
  6
Continuous
 62
     7
100
AcDbLine
 10
-1380.202885769013
 20
199.0956705120769
 30
0.0
 11
-1252.202885769013
 21
199.0956705120769
 31
0.0
  0
LINE
  5
A6
330
1D
100
AcDbEntity
  8
_0-1_1_5
  6
Continuous
 62
     7
100
AcDbLine
 10
-1380.202885769013
 20
179.0956705120769
 30
0.0
 11
-1252.202885769013
 21
179.0956705120769
 31
0.0
  0
LINE
  5
A7
330
1D
100
AcDbEntity
  8
_0-1_1_5
  6
Continuous
 62
     7
100
AcDbLine
 10
-1252.202885769013
 20
179.0956705120769
 30
0.0
 11
-1252.202885769013
 21
179.0956705120769
 31
0.0
  0
LINE
  5
A8
330
1D
100
AcDbEntity
  8
_0-1_1_5
  6
Continuous
 62
     7
100
AcDbLine
 10
-1252.202885769013
 20
179.0956705120769
 30
0.0
 11
-1251.334644880678
 21
179.2475929819549
 31
0.0
  0
LINE
  5
A9
330
1D
100
AcDbEntity
  8
_0-1_1_5
  6
Continuous
 62
     7
100
AcDbLine
 10
-1251.334644880678
 20
179.2475929819549
 30
0.0
 11
-1250.492785052384
 21
179.6987443042179
 31
0.0
  0
LINE
  5
AA
330
1D
100
AcDbEntity
  8
_0-1_1_5
  6
Continuous
 62
     7
100
AcDbLine
 10
-1250.492785052384
 20
179.6987443042179
 30
0.0
 11
-1249.702885769013
 21
180.4354164742325
 31
0.0
  0
LINE
  5
AB
330
1D
100
AcDbEntity
  8
_0-1_1_5
  6
Continuous
 62
     7
100
AcDbLine
 10
-1249.702885769013
 20
180.4354164742325
 30
0.0
 11
-1248.98894772058
 21
181.4352260808872
 31
0.0
  0
LINE
  5
AC
330
1D
100
AcDbEntity
  8
_0-1_1_5
  6
Continuous
 62
     7
100
AcDbLine
 10
-1248.98894772058
 20
181.4352260808872
 30
0.0
 11
-1248.372663553418
 21
182.6677944152115
 31
0.0
  0
LINE
  5
AD
330
1D
100
AcDbEntity
  8
_0-1_1_5
  6
Continuous
 62
     7
100
AcDbLine
 10
-1248.372663553418
 20
182.6677944152115
 30
0.0
 11
-1247.87275875009
 21
184.0956705120769
 31
0.0
  0
LINE
  5
AE
330
1D
100
AcDbEntity
  8
_0-1_1_5
  6
Continuous
 62
     7
100
AcDbLine
 10
-1247.87275875009
 20
184.0956705120769
 30
0.0
 11
-1247.504422665083
 21
185.6754690788202
 31
0.0
  0
LINE
  5
AF
330
1D
100
AcDbEntity
  8
_0-1_1_5
  6
Continuous
 62
     7
100
AcDbLine
 10
-1247.504422665083
 20
185.6754690788202
 30
0.0
 11
-1247.278847003952
 21
187.3591887354076
 31
0.0
  0
LINE
  5
B0
330
1D
100
AcDbEntity
  8
_0-1_1_5
  6
Continuous
 62
     7
100
AcDbLine
 10
-1247.278847003952
 20
187.3591887354076
 30
0.0
 11
-1247.202885769013
 21
189.0956705120769
 31
0.0
  0
LINE
  5
B1
330
1D
100
AcDbEntity
  8
_0-1_1_5
  6
Continuous
 62
     7
100
AcDbLine
 10
-1247.202885769013
 20
189.0956705120769
 30
0.0
 11
-1247.278847003952
 21
190.8321522887462
 31
0.0
  0
LINE
  5
B2
330
1D
100
AcDbEntity
  8
_0-1_1_5
  6
Continuous
 62
     7
100
AcDbLine
 10
-1247.278847003952
 20
190.8321522887462
 30
0.0
 11
-1247.504422665083
 21
192.5158719453336
 31
0.0
  0
LINE
  5
B3
330
1D
100
AcDbEntity
  8
_0-1_1_5
  6
Continuous
 62
     7
100
AcDbLine
 10
-1247.504422665083
 20
192.5158719453336
 30
0.0
 11
-1247.87275875009
 21
194.0956705120769
 31
0.0
  0
LINE
  5
B4
330
1D
100
AcDbEntity
  8
_0-1_1_5
  6
Continuous
 62
     7
100
AcDbLine
 10
-1247.87275875009
 20
194.0956705120769
 30
0.0
 11
-1248.372663553418
 21
195.5235466089423
 31
0.0
  0
LINE
  5
B5
330
1D
100
AcDbEntity
  8
_0-1_1_5
  6
Continuous
 62
     7
100
AcDbLine
 10
-1248.372663553418
 20
195.5235466089423
 30
0.0
 11
-1248.98894772058
 21
196.7561149432667
 31
0.0
  0
LINE
  5
B6
330
1D
100
AcDbEntity
  8
_0-1_1_5
  6
Continuous
 62
     7
100
AcDbLine
 10
-1248.98894772058
 20
196.7561149432667
 30
0.0
 11
-1249.702885769013
 21
197.7559245499213
 31
0.0
  0
LINE
  5
B7
330
1D
100
AcDbEntity
  8
_0-1_1_5
  6
Continuous
 62
     7
100
AcDbLine
 10
-1249.702885769013
 20
197.7559245499213
 30
0.0
 11
-1250.492785052384
 21
198.492596719936
 31
0.0
  0
LINE
  5
B8
330
1D
100
AcDbEntity
  8
_0-1_1_5
  6
Continuous
 62
     7
100
AcDbLine
 10
-1250.492785052384
 20
198.492596719936
 30
0.0
 11
-1251.334644880678
 21
198.943748042199
 31
0.0
  0
LINE
  5
B9
330
1D
100
AcDbEntity
  8
_0-1_1_5
  6
Continuous
 62
     7
100
AcDbLine
 10
-1251.334644880678
 20
198.943748042199
 30
0.0
 11
-1252.202885769013
 21
199.0956705120769
 31
0.0
  0
LINE
  5
BA
330
1D
100
AcDbEntity
  8
_0-1_1_5
  6
Continuous
 62
     7
100
AcDbLine
 10
-1252.202885769013
 20
199.0956705120769
 30
0.0
 11
-1252.202885769013
 21
199.0956705120769
 31
0.0
  0
LINE
  5
BB
330
1D
100
AcDbEntity
  8
_0-1_1_5
  6
DASHED1
 62
     7
100
AcDbLine
 10
-1252.202885769013
 20
199.0956705120769
 30
0.0
 11
-1252.202885769013
 21
199.0956705120769
 31
0.0
  0
LINE
  5
BC
330
1D
100
AcDbEntity
  8
_0-1_1_5
  6
DASHED1
 62
     7
100
AcDbLine
 10
-1252.202885769013
 20
199.0956705120769
 30
0.0
 11
-1253.071126657347
 21
198.943748042199
 31
0.0
  0
LINE
  5
BD
330
1D
100
AcDbEntity
  8
_0-1_1_5
  6
DASHED1
 62
     7
100
AcDbLine
 10
-1253.071126657347
 20
198.943748042199
 30
0.0
 11
-1253.912986485641
 21
198.492596719936
 31
0.0
  0
LINE
  5
BE
330
1D
100
AcDbEntity
  8
_0-1_1_5
  6
DASHED1
 62
     7
100
AcDbLine
 10
-1253.912986485641
 20
198.492596719936
 30
0.0
 11
-1254.702885769013
 21
197.7559245499213
 31
0.0
  0
LINE
  5
BF
330
1D
100
AcDbEntity
  8
_0-1_1_5
  6
DASHED1
 62
     7
100
AcDbLine
 10
-1254.702885769013
 20
197.7559245499213
 30
0.0
 11
-1255.416823817445
 21
196.7561149432667
 31
0.0
  0
LINE
  5
C0
330
1D
100
AcDbEntity
  8
_0-1_1_5
  6
DASHED1
 62
     7
100
AcDbLine
 10
-1255.416823817445
 20
196.7561149432667
 30
0.0
 11
-1256.033107984608
 21
195.5235466089423
 31
0.0
  0
LINE
  5
C1
330
1D
100
AcDbEntity
  8
_0-1_1_5
  6
DASHED1
 62
     7
100
AcDbLine
 10
-1256.033107984608
 20
195.5235466089423
 30
0.0
 11
-1256.533012787935
 21
194.0956705120769
 31
0.0
  0
LINE
  5
C2
330
1D
100
AcDbEntity
  8
_0-1_1_5
  6
DASHED1
 62
     7
100
AcDbLine
 10
-1256.533012787935
 20
194.0956705120769
 30
0.0
 11
-1256.901348872942
 21
192.5158719453336
 31
0.0
  0
LINE
  5
C3
330
1D
100
AcDbEntity
  8
_0-1_1_5
  6
DASHED1
 62
     7
100
AcDbLine
 10
-1256.901348872942
 20
192.5158719453336
 30
0.0
 11
-1257.126924534074
 21
190.8321522887462
 31
0.0
  0
LINE
  5
C4
330
1D
100
AcDbEntity
  8
_0-1_1_5
  6
DASHED1
 62
     7
100
AcDbLine
 10
-1257.126924534074
 20
190.8321522887462
 30
0.0
 11
-1257.202885769013
 21
189.0956705120769
 31
0.0
  0
LINE
  5
C5
330
1D
100
AcDbEntity
  8
_0-1_1_5
  6
DASHED1
 62
     7
100
AcDbLine
 10
-1257.202885769013
 20
189.0956705120769
 30
0.0
 11
-1257.126924534074
 21
187.3591887354076
 31
0.0
  0
LINE
  5
C6
330
1D
100
AcDbEntity
  8
_0-1_1_5
  6
DASHED1
 62
     7
100
AcDbLine
 10
-1257.126924534074
 20
187.3591887354076
 30
0.0
 11
-1256.901348872942
 21
185.6754690788202
 31
0.0
  0
LINE
  5
C7
330
1D
100
AcDbEntity
  8
_0-1_1_5
  6
DASHED1
 62
     7
100
AcDbLine
 10
-1256.901348872942
 20
185.6754690788202
 30
0.0
 11
-1256.533012787935
 21
184.0956705120769
 31
0.0
  0
LINE
  5
C8
330
1D
100
AcDbEntity
  8
_0-1_1_5
  6
DASHED1
 62
     7
100
AcDbLine
 10
-1256.533012787935
 20
184.0956705120769
 30
0.0
 11
-1256.033107984608
 21
182.6677944152115
 31
0.0
  0
LINE
  5
C9
330
1D
100
AcDbEntity
  8
_0-1_1_5
  6
DASHED1
 62
     7
100
AcDbLine
 10
-1256.033107984608
 20
182.6677944152115
 30
0.0
 11
-1255.416823817445
 21
181.4352260808872
 31
0.0
  0
LINE
  5
CA
330
1D
100
AcDbEntity
  8
_0-1_1_5
  6
DASHED1
 62
     7
100
AcDbLine
 10
-1255.416823817445
 20
181.4352260808872
 30
0.0
 11
-1254.702885769013
 21
180.4354164742326
 31
0.0
  0
LINE
  5
CB
330
1D
100
AcDbEntity
  8
_0-1_1_5
  6
DASHED1
 62
     7
100
AcDbLine
 10
-1254.702885769013
 20
180.4354164742326
 30
0.0
 11
-1253.912986485641
 21
179.6987443042179
 31
0.0
  0
LINE
  5
CC
330
1D
100
AcDbEntity
  8
_0-1_1_5
  6
DASHED1
 62
     7
100
AcDbLine
 10
-1253.912986485641
 20
179.6987443042179
 30
0.0
 11
-1253.071126657347
 21
179.2475929819549
 31
0.0
  0
LINE
  5
CD
330
1D
100
AcDbEntity
  8
_0-1_1_5
  6
DASHED1
 62
     7
100
AcDbLine
 10
-1253.071126657347
 20
179.2475929819549
 30
0.0
 11
-1252.202885769013
 21
179.0956705120769
 31
0.0
  0
LINE
  5
CE
330
1D
100
AcDbEntity
  8
_0-1_1_5
  6
DASHED1
 62
     7
100
AcDbLine
 10
-1252.202885769013
 20
179.0956705120769
 30
0.0
 11
-1252.202885769013
 21
179.0956705120769
 31
0.0
  0
LINE
  5
CF
330
1D
100
AcDbEntity
  8
_0-1_1_5
  6
DASHED1
 62
     7
100
AcDbLine
 10
-1208.005351878379
 20
179.0956705120769
 30
0.0
 11
-1208.005351878379
 21
179.0956705120769
 31
0.0
  0
LINE
  5
D0
330
1D
100
AcDbEntity
  8
_0-1_1_5
  6
DASHED1
 62
     7
100
AcDbLine
 10
-1208.005351878379
 20
179.0956705120769
 30
0.0
 11
-1207.137110990045
 21
179.2475929819549
 31
0.0
  0
LINE
  5
D1
330
1D
100
AcDbEntity
  8
_0-1_1_5
  6
DASHED1
 62
     7
100
AcDbLine
 10
-1207.137110990045
 20
179.2475929819549
 30
0.0
 11
-1206.295251161751
 21
179.6987443042179
 31
0.0
  0
LINE
  5
D2
330
1D
100
AcDbEntity
  8
_0-1_1_5
  6
DASHED1
 62
     7
100
AcDbLine
 10
-1206.295251161751
 20
179.6987443042179
 30
0.0
 11
-1205.505351878379
 21
180.4354164742325
 31
0.0
  0
LINE
  5
D3
330
1D
100
AcDbEntity
  8
_0-1_1_5
  6
DASHED1
 62
     7
100
AcDbLine
 10
-1205.505351878379
 20
180.4354164742325
 30
0.0
 11
-1204.791413829947
 21
181.4352260808872
 31
0.0
  0
LINE
  5
D4
330
1D
100
AcDbEntity
  8
_0-1_1_5
  6
DASHED1
 62
     7
100
AcDbLine
 10
-1204.791413829947
 20
181.4352260808872
 30
0.0
 11
-1204.175129662784
 21
182.6677944152115
 31
0.0
  0
LINE
  5
D5
330
1D
100
AcDbEntity
  8
_0-1_1_5
  6
DASHED1
 62
     7
100
AcDbLine
 10
-1204.175129662784
 20
182.6677944152115
 30
0.0
 11
-1203.675224859457
 21
184.0956705120769
 31
0.0
  0
LINE
  5
D6
330
1D
100
AcDbEntity
  8
_0-1_1_5
  6
DASHED1
 62
     7
100
AcDbLine
 10
-1203.675224859457
 20
184.0956705120769
 30
0.0
 11
-1203.30688877445
 21
185.6754690788202
 31
0.0
  0
LINE
  5
D7
330
1D
100
AcDbEntity
  8
_0-1_1_5
  6
DASHED1
 62
     7
100
AcDbLine
 10
-1203.30688877445
 20
185.6754690788202
 30
0.0
 11
-1203.081313113318
 21
187.3591887354076
 31
0.0
  0
LINE
  5
D8
330
1D
100
AcDbEntity
  8
_0-1_1_5
  6
DASHED1
 62
     7
100
AcDbLine
 10
-1203.081313113318
 20
187.3591887354076
 30
0.0
 11
-1203.005351878379
 21
189.0956705120769
 31
0.0
  0
LINE
  5
D9
330
1D
100
AcDbEntity
  8
_0-1_1_5
  6
DASHED1
 62
     7
100
AcDbLine
 10
-1203.005351878379
 20
189.0956705120769
 30
0.0
 11
-1203.081313113318
 21
190.8321522887462
 31
0.0
  0
LINE
  5
DA
330
1D
100
AcDbEntity
  8
_0-1_1_5
  6
DASHED1
 62
     7
100
AcDbLine
 10
-1203.081313113318
 20
190.8321522887462
 30
0.0
 11
-1203.30688877445
 21
192.5158719453336
 31
0.0
  0
LINE
  5
DB
330
1D
100
AcDbEntity
  8
_0-1_1_5
  6
DASHED1
 62
     7
100
AcDbLine
 10
-1203.30688877445
 20
192.5158719453336
 30
0.0
 11
-1203.675224859457
 21
194.0956705120769
 31
0.0
  0
LINE
  5
DC
330
1D
100
AcDbEntity
  8
_0-1_1_5
  6
DASHED1
 62
     7
100
AcDbLine
 10
-1203.675224859457
 20
194.0956705120769
 30
0.0
 11
-1204.175129662784
 21
195.5235466089423
 31
0.0
  0
LINE
  5
DD
330
1D
100
AcDbEntity
  8
_0-1_1_5
  6
DASHED1
 62
     7
100
AcDbLine
 10
-1204.175129662784
 20
195.5235466089423
 30
0.0
 11
-1204.791413829947
 21
196.7561149432667
 31
0.0
  0
LINE
  5
DE
330
1D
100
AcDbEntity
  8
_0-1_1_5
  6
DASHED1
 62
     7
100
AcDbLine
 10
-1204.791413829947
 20
196.7561149432667
 30
0.0
 11
-1205.505351878379
 21
197.7559245499213
 31
0.0
  0
LINE
  5
DF
330
1D
100
AcDbEntity
  8
_0-1_1_5
  6
DASHED1
 62
     7
100
AcDbLine
 10
-1205.505351878379
 20
197.7559245499213
 30
0.0
 11
-1206.295251161751
 21
198.492596719936
 31
0.0
  0
LINE
  5
E0
330
1D
100
AcDbEntity
  8
_0-1_1_5
  6
DASHED1
 62
     7
100
AcDbLine
 10
-1206.295251161751
 20
198.492596719936
 30
0.0
 11
-1207.137110990045
 21
198.943748042199
 31
0.0
  0
LINE
  5
E1
330
1D
100
AcDbEntity
  8
_0-1_1_5
  6
DASHED1
 62
     7
100
AcDbLine
 10
-1207.137110990045
 20
198.943748042199
 30
0.0
 11
-1208.005351878379
 21
199.0956705120769
 31
0.0
  0
LINE
  5
E2
330
1D
100
AcDbEntity
  8
_0-1_1_5
  6
DASHED1
 62
     7
100
AcDbLine
 10
-1208.005351878379
 20
199.0956705120769
 30
0.0
 11
-1208.005351878379
 21
199.0956705120769
 31
0.0
  0
LINE
  5
E3
330
1D
100
AcDbEntity
  8
_0-1_1_5
  6
Continuous
 62
     7
100
AcDbLine
 10
-1208.005351878379
 20
199.0956705120769
 30
0.0
 11
-1208.005351878379
 21
199.0956705120769
 31
0.0
  0
LINE
  5
E4
330
1D
100
AcDbEntity
  8
_0-1_1_5
  6
Continuous
 62
     7
100
AcDbLine
 10
-1208.005351878379
 20
199.0956705120769
 30
0.0
 11
-1208.873592766714
 21
198.943748042199
 31
0.0
  0
LINE
  5
E5
330
1D
100
AcDbEntity
  8
_0-1_1_5
  6
Continuous
 62
     7
100
AcDbLine
 10
-1208.873592766714
 20
198.943748042199
 30
0.0
 11
-1209.715452595008
 21
198.492596719936
 31
0.0
  0
LINE
  5
E6
330
1D
100
AcDbEntity
  8
_0-1_1_5
  6
Continuous
 62
     7
100
AcDbLine
 10
-1209.715452595008
 20
198.492596719936
 30
0.0
 11
-1210.505351878379
 21
197.7559245499213
 31
0.0
  0
LINE
  5
E7
330
1D
100
AcDbEntity
  8
_0-1_1_5
  6
Continuous
 62
     7
100
AcDbLine
 10
-1210.505351878379
 20
197.7559245499213
 30
0.0
 11
-1211.219289926812
 21
196.7561149432667
 31
0.0
  0
LINE
  5
E8
330
1D
100
AcDbEntity
  8
_0-1_1_5
  6
Continuous
 62
     7
100
AcDbLine
 10
-1211.219289926812
 20
196.7561149432667
 30
0.0
 11
-1211.835574093974
 21
195.5235466089423
 31
0.0
  0
LINE
  5
E9
330
1D
100
AcDbEntity
  8
_0-1_1_5
  6
Continuous
 62
     7
100
AcDbLine
 10
-1211.835574093974
 20
195.5235466089423
 30
0.0
 11
-1212.335478897302
 21
194.0956705120769
 31
0.0
  0
LINE
  5
EA
330
1D
100
AcDbEntity
  8
_0-1_1_5
  6
Continuous
 62
     7
100
AcDbLine
 10
-1212.335478897302
 20
194.0956705120769
 30
0.0
 11
-1212.703814982309
 21
192.5158719453336
 31
0.0
  0
LINE
  5
EB
330
1D
100
AcDbEntity
  8
_0-1_1_5
  6
Continuous
 62
     7
100
AcDbLine
 10
-1212.703814982309
 20
192.5158719453336
 30
0.0
 11
-1212.92939064344
 21
190.8321522887462
 31
0.0
  0
LINE
  5
EC
330
1D
100
AcDbEntity
  8
_0-1_1_5
  6
Continuous
 62
     7
100
AcDbLine
 10
-1212.92939064344
 20
190.8321522887462
 30
0.0
 11
-1213.005351878379
 21
189.0956705120769
 31
0.0
  0
LINE
  5
ED
330
1D
100
AcDbEntity
  8
_0-1_1_5
  6
Continuous
 62
     7
100
AcDbLine
 10
-1213.005351878379
 20
189.0956705120769
 30
0.0
 11
-1212.92939064344
 21
187.3591887354076
 31
0.0
  0
LINE
  5
EE
330
1D
100
AcDbEntity
  8
_0-1_1_5
  6
Continuous
 62
     7
100
AcDbLine
 10
-1212.92939064344
 20
187.3591887354076
 30
0.0
 11
-1212.703814982309
 21
185.6754690788202
 31
0.0
  0
LINE
  5
EF
330
1D
100
AcDbEntity
  8
_0-1_1_5
  6
Continuous
 62
     7
100
AcDbLine
 10
-1212.703814982309
 20
185.6754690788202
 30
0.0
 11
-1212.335478897302
 21
184.0956705120769
 31
0.0
  0
LINE
  5
F0
330
1D
100
AcDbEntity
  8
_0-1_1_5
  6
Continuous
 62
     7
100
AcDbLine
 10
-1212.335478897302
 20
184.0956705120769
 30
0.0
 11
-1211.835574093974
 21
182.6677944152115
 31
0.0
  0
LINE
  5
F1
330
1D
100
AcDbEntity
  8
_0-1_1_5
  6
Continuous
 62
     7
100
AcDbLine
 10
-1211.835574093974
 20
182.6677944152115
 30
0.0
 11
-1211.219289926812
 21
181.4352260808872
 31
0.0
  0
LINE
  5
F2
330
1D
100
AcDbEntity
  8
_0-1_1_5
  6
Continuous
 62
     7
100
AcDbLine
 10
-1211.219289926812
 20
181.4352260808872
 30
0.0
 11
-1210.505351878379
 21
180.4354164742326
 31
0.0
  0
LINE
  5
F3
330
1D
100
AcDbEntity
  8
_0-1_1_5
  6
Continuous
 62
     7
100
AcDbLine
 10
-1210.505351878379
 20
180.4354164742326
 30
0.0
 11
-1209.715452595008
 21
179.6987443042179
 31
0.0
  0
LINE
  5
F4
330
1D
100
AcDbEntity
  8
_0-1_1_5
  6
Continuous
 62
     7
100
AcDbLine
 10
-1209.715452595008
 20
179.6987443042179
 30
0.0
 11
-1208.873592766714
 21
179.2475929819549
 31
0.0
  0
LINE
  5
F5
330
1D
100
AcDbEntity
  8
_0-1_1_5
  6
Continuous
 62
     7
100
AcDbLine
 10
-1208.873592766714
 20
179.2475929819549
 30
0.0
 11
-1208.005351878379
 21
179.0956705120769
 31
0.0
  0
LINE
  5
F6
330
1D
100
AcDbEntity
  8
_0-1_1_5
  6
Continuous
 62
     7
100
AcDbLine
 10
-1208.005351878379
 20
179.0956705120769
 30
0.0
 11
-1208.005351878379
 21
179.0956705120769
 31
0.0
  0
LINE
  5
F7
330
1D
100
AcDbEntity
  8
_0-1_1_5
  6
CENTER2
 62
     7
100
AcDbLine
 10
-1176.005351878379
 20
189.0956705120769
 30
0.0
 11
-1188.005351878379
 21
189.0956705120769
 31
0.0
  0
LINE
  5
F8
330
1D
100
AcDbEntity
  8
_0-1_1_5
  6
CENTER2
 62
     7
100
AcDbLine
 10
-1382.702885769013
 20
189.0956705120769
 30
0.0
 11
-1377.702885769013
 21
189.0956705120769
 31
0.0
  0
LINE
  5
F9
330
1D
100
AcDbEntity
  8
_0-1_1_5
  6
CENTER2
 62
     7
100
AcDbLine
 10
-1254.702885769013
 20
189.0956705120769
 30
0.0
 11
-1249.702885769013
 21
189.0956705120769
 31
0.0
  0
LINE
  5
FA
330
1D
100
AcDbEntity
  8
_0-1_1_5
  6
CENTER2
 62
     7
100
AcDbLine
 10
-1380.202885769013
 20
191.5956705120769
 30
0.0
 11
-1380.202885769013
 21
186.5956705120769
 31
0.0
  0
LINE
  5
FB
330
1D
100
AcDbEntity
  8
_0-1_1_5
  6
CENTER2
 62
     7
100
AcDbLine
 10
-1252.202885769013
 20
191.5956705120769
 30
0.0
 11
-1252.202885769013
 21
186.5956705120769
 31
0.0
  0
POINT
  5
FC
330
1D
100
AcDbEntity
  8
_0-2_ADD_LINE
 62
     7
100
AcDbPoint
 10
-1213.005351878379
 20
207.2408153729117
 30
0.0
  0
POINT
  5
FD
330
1D
100
AcDbEntity
  8
_0-2_ADD_LINE
 62
     7
100
AcDbPoint
 10
-1203.005351878379
 20
207.2408153729117
 30
0.0
  0
LINE
  5
FE
330
1D
100
AcDbEntity
  8
_0-2_ADD_LINE
  6
Continuous
 62
     7
100
AcDbLine
 10
-1213.005351878379
 20
207.2408153729117
 30
0.0
 11
-1213.005351878379
 21
201.0956705120769
 31
0.0
  0
LINE
  5
FF
330
1D
100
AcDbEntity
  8
_0-2_ADD_LINE
  6
Continuous
 62
     7
100
AcDbLine
 10
-1203.005351878379
 20
207.2408153729117
 30
0.0
 11
-1203.005351878379
 21
201.0956705120769
 31
0.0
  0
LINE
  5
100
330
1D
100
AcDbEntity
  8
_0-3_
  6
Continuous
 62
     7
100
AcDbLine
 10
-1213.005351878379
 20
207.2408153729117
 30
0.0
 11
-1203.005351878379
 21
207.2408153729117
 31
0.0
  0
TEXT
  5
101
330
1D
100
AcDbEntity
  8
_0-3_
 62
     4
100
AcDbText
 10
-1209.255351878379
 20
207.7408153729117
 30
0.0
 40
2.5
  1
10
  7
ＭＳ ゴシック
100
AcDbText
  0
TEXT
  5
102
330
1D
100
AcDbEntity
  8
_0-3_
 62
     7
100
AcDbText
 10
-1225.486140579553
 20
56.11477887561069
 30
0.0
 40
3.1
  1
大洋金物株式会社  ティーエフプラス事業部
  7
ＭＳ ゴシック
100
AcDbText
  0
POINT
  5
103
330
1D
100
AcDbEntity
  8
_0-2_ADD_LINE
 62
     7
100
AcDbPoint
 10
-1222.997187613701
 20
199.0956705120769
 30
0.0
  0
POINT
  5
104
330
1D
100
AcDbEntity
  8
_0-2_ADD_LINE
 62
     7
100
AcDbPoint
 10
-1222.997187613701
 20
179.0956705120769
 30
0.0
  0
LINE
  5
105
330
1D
100
AcDbEntity
  8
_0-2_ADD_LINE
  6
Continuous
 62
     7
100
AcDbLine
 10
-1222.997187613701
 20
199.0956705120769
 30
0.0
 11
-1210.005351878379
 21
199.0956705120769
 31
0.0
  0
LINE
  5
106
330
1D
100
AcDbEntity
  8
_0-2_ADD_LINE
  6
Continuous
 62
     7
100
AcDbLine
 10
-1222.997187613701
 20
179.0956705120769
 30
0.0
 11
-1210.005351878379
 21
179.0956705120769
 31
0.0
  0
LINE
  5
107
330
1D
100
AcDbEntity
  8
_0-3_
  6
Continuous
 62
     7
100
AcDbLine
 10
-1222.997187613701
 20
199.0956705120769
 30
0.0
 11
-1222.997187613701
 21
179.0956705120769
 31
0.0
  0
TEXT
  5
108
330
1D
100
AcDbEntity
  8
_0-3_
 62
     4
100
AcDbText
 10
-1223.497187613701
 20
187.8456705120769
 30
0.0
 40
2.5
  1
20
 50
90.0
  7
ＭＳ ゴシック
100
AcDbText
  0
TEXT
  5
109
330
1D
100
AcDbEntity
  8
_0-2_ADD_LINE
 62
     7
100
AcDbText
 10
-1211.563815599769
 20
110.7949322376008
 30
0.0
 40
3.1
  1
対応ドア厚  10-22mm
  7
ＭＳ ゴシック
100
AcDbText
  0
TEXT
  5
10A
330
1D
100
AcDbEntity
  8
_0-3_
 62
     7
100
AcDbText
 10
-1319.327192447142
 20
62.00435813135219
 30
0.0
 40
3.1
  1
サテン/ポリッシュ/ブラック/ホワイト
  7
ＭＳ ゴシック
100
AcDbText
  0
LINE
  5
10B
330
1D
100
AcDbEntity
  8
_0-1_1_5
  6
Continuous
 62
     7
100
AcDbLine
 10
-1247.202885769013
 20
110.8376067522922
 30
0.0
 11
-1247.202885769013
 21
145.8376067522922
 31
0.0
  0
LINE
  5
10C
330
1D
100
AcDbEntity
  8
_0-1_1_5
  6
Continuous
 62
     7
100
AcDbLine
 10
-1385.202885769013
 20
110.8376067522922
 30
0.0
 11
-1385.202885769013
 21
145.8376067522922
 31
0.0
  0
LINE
  5
10D
330
1D
100
AcDbEntity
  8
_0-1_1_5
  6
Continuous
 62
     7
100
AcDbLine
 10
-1385.202885769013
 20
110.8376067522922
 30
0.0
 11
-1375.202885769013
 21
120.8376067522922
 31
0.0
  0
LINE
  5
10E
330
1D
100
AcDbEntity
  8
_0-1_1_5
  6
Continuous
 62
     7
100
AcDbLine
 10
-1257.202885769013
 20
120.8376067522922
 30
0.0
 11
-1247.202885769013
 21
110.8376067522922
 31
0.0
  0
LINE
  5
10F
330
1D
100
AcDbEntity
  8
_0-1_1_5
  6
Continuous
 62
     7
100
AcDbLine
 10
-1385.202885769013
 20
110.8376067522922
 30
0.0
 11
-1247.202885769013
 21
110.8376067522922
 31
0.0
  0
LINE
  5
110
330
1D
100
AcDbEntity
  8
_0-1_1_5
  6
Continuous
 62
     7
100
AcDbLine
 10
-1375.202885769013
 20
120.8376067522922
 30
0.0
 11
-1257.202885769013
 21
120.8376067522922
 31
0.0
  0
LINE
  5
111
330
1D
100
AcDbEntity
  8
_0-1_1_5
  6
Continuous
 62
     7
100
AcDbLine
 10
-1257.202885769013
 20
120.8376067522922
 30
0.0
 11
-1257.202885769013
 21
145.8376067522922
 31
0.0
  0
LINE
  5
112
330
1D
100
AcDbEntity
  8
_0-1_1_5
  6
Continuous
 62
     7
100
AcDbLine
 10
-1385.202885769013
 20
145.8376067522922
 30
0.0
 11
-1375.202885769013
 21
145.8376067522922
 31
0.0
  0
LINE
  5
113
330
1D
100
AcDbEntity
  8
_0-1_1_5
  6
Continuous
 62
     7
100
AcDbLine
 10
-1375.202885769013
 20
120.8376067522922
 30
0.0
 11
-1375.202885769013
 21
145.8376067522922
 31
0.0
  0
LINE
  5
114
330
1D
100
AcDbEntity
  8
_0-1_1_5
  6
Continuous
 62
     7
100
AcDbLine
 10
-1257.202885769013
 20
145.8376067522922
 30
0.0
 11
-1247.202885769013
 21
145.8376067522922
 31
0.0
  0
LINE
  5
115
330
1D
100
AcDbEntity
  8
_0-1_1_5
  6
CENTER2
 62
     7
100
AcDbLine
 10
-1380.202885769013
 20
135.8376067522922
 30
0.0
 11
-1380.202885769013
 21
147.8376067522922
 31
0.0
  0
LINE
  5
116
330
1D
100
AcDbEntity
  8
_0-1_1_5
  6
CENTER2
 62
     7
100
AcDbLine
 10
-1252.202885769013
 20
135.8376067522922
 30
0.0
 11
-1252.202885769013
 21
147.8376067522922
 31
0.0
  0
POINT
  5
117
330
1D
100
AcDbEntity
  8
_0-2_ADD_LINE
 62
     7
100
AcDbPoint
 10
-1237.233541579003
 20
110.8376067522922
 30
0.0
  0
POINT
  5
118
330
1D
100
AcDbEntity
  8
_0-2_ADD_LINE
 62
     7
100
AcDbPoint
 10
-1237.233541579003
 20
145.8376067522922
 30
0.0
  0
LINE
  5
119
330
1D
100
AcDbEntity
  8
_0-2_ADD_LINE
  6
Continuous
 62
     7
100
AcDbLine
 10
-1237.233541579003
 20
110.8376067522922
 30
0.0
 11
-1245.202885769013
 21
110.8376067522922
 31
0.0
  0
LINE
  5
11A
330
1D
100
AcDbEntity
  8
_0-2_ADD_LINE
  6
Continuous
 62
     7
100
AcDbLine
 10
-1237.233541579003
 20
145.8376067522922
 30
0.0
 11
-1245.202885769013
 21
145.8376067522922
 31
0.0
  0
LINE
  5
11B
330
1D
100
AcDbEntity
  8
_0-2_ADD_LINE
  6
Continuous
 62
     7
100
AcDbLine
 10
-1237.233541579003
 20
110.8376067522922
 30
0.0
 11
-1237.233541579003
 21
145.8376067522922
 31
0.0
  0
TEXT
  5
11C
330
1D
100
AcDbEntity
  8
_0-2_ADD_LINE
 62
     4
100
AcDbText
 10
-1237.733541579003
 20
127.0876067522922
 30
0.0
 40
2.5
  1
35
 50
90.0
  7
ＭＳ ゴシック
100
AcDbText
  0
POINT
  5
11D
330
1D
100
AcDbEntity
  8
_0-2_ADD_LINE
 62
     7
100
AcDbPoint
 10
-1385.202885769013
 20
152.0952503637246
 30
0.0
  0
POINT
  5
11E
330
1D
100
AcDbEntity
  8
_0-2_ADD_LINE
 62
     7
100
AcDbPoint
 10
-1375.202885769013
 20
152.0952503637246
 30
0.0
  0
LINE
  5
11F
330
1D
100
AcDbEntity
  8
_0-2_ADD_LINE
  6
Continuous
 62
     7
100
AcDbLine
 10
-1385.202885769013
 20
152.0952503637246
 30
0.0
 11
-1385.202885769013
 21
147.6781795586809
 31
0.0
  0
LINE
  5
120
330
1D
100
AcDbEntity
  8
_0-2_ADD_LINE
  6
Continuous
 62
     7
100
AcDbLine
 10
-1375.202885769013
 20
152.0952503637246
 30
0.0
 11
-1375.202885769013
 21
147.6781795586809
 31
0.0
  0
LINE
  5
121
330
1D
100
AcDbEntity
  8
_0-2_ADD_LINE
  6
Continuous
 62
     7
100
AcDbLine
 10
-1385.202885769013
 20
152.0952503637246
 30
0.0
 11
-1375.202885769013
 21
152.0952503637246
 31
0.0
  0
TEXT
  5
122
330
1D
100
AcDbEntity
  8
_0-2_ADD_LINE
 62
     4
100
AcDbText
 10
-1381.452885769013
 20
152.5952503637246
 30
0.0
 40
2.5
  1
10
  7
ＭＳ ゴシック
100
AcDbText
  0
TEXT
  5
123
330
1D
100
AcDbEntity
  8
_0-3_
 62
     7
100
AcDbText
 10
-1225.486140579553
 20
67.85625030730063
 30
0.0
 40
3.1
  1
TFP21-4012
  7
ＭＳ ゴシック
100
AcDbText
  0
MTEXT
  5
1CE
330
1D
100
AcDbEntity
  8
0
  6
ByBlock
100
AcDbMText
 10
-1225.378842022274
 20
97.08115246519348
 30
0.0
 40
3.0
 41
53.50348938316051
 46
18.138
 71
     1
 72
     5
  1
{TFP21-4012-002 サテン\PTFP21-4012-003 ポリッシュ\PTFP21-4012-00B ブラック\PTFP21-4012-00W ホワイト}
  7
ＭＳ ゴシック
 73
     1
 44
1.0
1001
ACAD
1000
ACAD_MTEXT_DEFINED_HEIGHT_BEGIN
1070
    46
1040
18.138
1000
ACAD_MTEXT_DEFINED_HEIGHT_END
  0
ENDSEC
  0
SECTION
  2
OBJECTS
  0
DICTIONARY
  5
C
330
0
100
AcDbDictionary
281
     1
  3
ACAD_COLOR
350
183
  3
ACAD_DETAILVIEWSTYLE
350
178
  3
ACAD_GROUP
350
D
  3
ACAD_IMAGE_VARS
350
16E
  3
ACAD_LAYOUT
350
1A
  3
ACAD_MATERIAL
350
164
  3
ACAD_MLEADERSTYLE
350
16A
  3
ACAD_MLINESTYLE
350
17
  3
ACAD_PLOTSETTINGS
350
19
  3
ACAD_PLOTSTYLENAME
350
E
  3
ACAD_SCALELIST
350
125
  3
ACAD_SECTIONVIEWSTYLE
350
179
  3
ACAD_TABLESTYLE
350
168
  3
ACAD_VISUALSTYLE
350
14B
  3
ACDB_RECOMPOSE_DATA
350
1D7
  3
AcDbVariableDictionary
350
16F
  3
APPDATA
350
16C
  0
SUN
  5
16D
330
124
100
AcDbSun
 90
        1
290
     0
 63
     7
421
 16777215
 40
1.0
291
     1
 91
  2455826
 92
 54000000
292
     0
 70
     2
 71
   256
280
     1
  0
DICTIONARY
  5
1A3
330
2
100
AcDbDictionary
280
     1
281
     1
  3
ACAD_LAYERSTATES
360
1A4
  0
DICTIONARY
  5
183
102
{ACAD_REACTORS
330
C
102
}
330
C
100
AcDbDictionary
281
     1
  0
DICTIONARY
  5
178
102
{ACAD_REACTORS
330
C
102
}
330
C
100
AcDbDictionary
281
     1
  0
DICTIONARY
  5
D
102
{ACAD_REACTORS
330
C
102
}
330
C
100
AcDbDictionary
281
     1
  0
RASTERVARIABLES
  5
16E
102
{ACAD_REACTORS
330
C
102
}
330
C
100
AcDbRasterVariables
 90
        0
 70
     1
 71
     1
 72
     0
  0
DICTIONARY
  5
1A
102
{ACAD_REACTORS
330
C
102
}
330
C
100
AcDbDictionary
281
     1
  3
Model
350
1E
  3
シート 1
350
1C
  0
DICTIONARY
  5
164
102
{ACAD_REACTORS
330
C
102
}
330
C
100
AcDbDictionary
281
     1
  3
ByBlock
350
166
  3
ByLayer
350
165
  3
Global
350
167
  0
DICTIONARY
  5
16A
102
{ACAD_REACTORS
330
C
102
}
330
C
100
AcDbDictionary
281
     1
  3
Standard
350
16B
  0
DICTIONARY
  5
17
102
{ACAD_REACTORS
330
C
102
}
330
C
100
AcDbDictionary
281
     1
  3
Standard
350
18
  0
DICTIONARY
  5
19
102
{ACAD_REACTORS
330
C
102
}
330
C
100
AcDbDictionary
281
     1
  0
ACDBDICTIONARYWDFLT
  5
E
102
{ACAD_REACTORS
330
C
102
}
330
C
100
AcDbDictionary
281
     1
  3
Normal
350
F
100
AcDbDictionaryWithDefault
340
F
  0
DICTIONARY
  5
125
102
{ACAD_REACTORS
330
C
102
}
330
C
100
AcDbDictionary
281
     1
  3
*A1
350
189
  3
A0
350
126
  3
A1
350
127
  3
A2
350
128
  3
A3
350
129
  3
A4
350
12A
  3
A5
350
12B
  3
A6
350
12C
  3
A7
350
12D
  3
A8
350
12E
  3
A9
350
12F
  3
B0
350
130
  3
B1
350
131
  3
B2
350
132
  3
B3
350
133
  3
B4
350
134
  3
B5
350
135
  3
B6
350
136
  3
B7
350
137
  3
B8
350
138
  3
B9
350
139
  3
C0
350
13A
  3
C1
350
13B
  3
C2
350
13C
  3
C3
350
13D
  3
C4
350
13E
  3
C5
350
13F
  3
C6
350
140
  3
C7
350
141
  3
C8
350
142
  3
C9
350
143
  3
D0
350
144
  3
D1
350
145
  3
D2
350
146
  0
DICTIONARY
  5
179
102
{ACAD_REACTORS
330
C
102
}
330
C
100
AcDbDictionary
281
     1
  0
DICTIONARY
  5
168
102
{ACAD_REACTORS
330
C
102
}
330
C
100
AcDbDictionary
281
     1
  3
Standard
350
169
  0
DICTIONARY
  5
14B
102
{ACAD_REACTORS
330
C
102
}
330
C
100
AcDbDictionary
281
     1
  3
2dWireframe
350
150
  3
Basic
350
153
  3
Brighten
350
157
  3
ColorChange
350
15B
  3
Conceptual
350
155
  3
Dim
350
156
  3
EdgeColorOff
350
15E
  3
Facepattern
350
15A
  3
Flat
350
14C
  3
FlatWithEdges
350
14D
  3
Gouraud
350
14E
  3
GouraudWithEdges
350
14F
  3
Hidden
350
152
  3
JitterOff
350
15C
  3
Linepattern
350
159
  3
OverhangOff
350
15D
  3
Realistic
350
154
  3
Shaded
350
163
  3
Shaded with edges
350
162
  3
Shades of Gray
350
15F
  3
Sketchy
350
160
  3
Thicken
350
158
  3
Wireframe
350
151
  3
X-Ray
350
161
  0
XRECORD
  5
1D7
102
{ACAD_REACTORS
330
C
102
}
330
C
100
AcDbXrecord
280
     1
 90
        1
330
169
  0
DICTIONARY
  5
16F
102
{ACAD_REACTORS
330
C
102
}
330
C
100
AcDbDictionary
281
     1
  3
CANNOSCALE
350
170
  3
CMLEADERSTYLE
350
176
  3
CTABLESTYLE
350
175
  3
MSLTSCALE
350
177
  3
XCLIPFRAME
350
17D
  0
DICTIONARY
  5
16C
102
{ACAD_REACTORS
330
C
102
}
330
C
100
AcDbDictionary
281
     1
  0
DICTIONARY
  5
1A4
102
{ACAD_REACTORS
330
1A3
102
}
330
1A3
100
AcDbDictionary
281
     1
  0
LAYOUT
  5
1E
102
{ACAD_REACTORS
330
1A
102
}
330
1A
100
AcDbPlotSettings
  1

  2
none_device
  4
Letter_(8.50_x_11.00_Inches)
  6

 40
6.35
 41
6.35
 42
6.35
 43
6.35
 44
215.9
 45
279.4
 46
0.0
 47
0.0
 48
0.0
 49
0.0
140
0.0
141
0.0
142
1.0
143
1.0
 70
  1712
 72
     0
 73
     0
 74
     0
  7

 75
     0
 76
     0
 77
     2
 78
   300
147
1.0
148
0.0
149
0.0
100
AcDbLayout
  1
Model
 70
     1
 71
     0
 10
-1432.169548381066
 20
47.00148127514019
 11
-1135.169548381066
 21
257.0014812751402
 12
0.0
 22
0.0
 32
0.0
 14
-1422.659595011638
 24
50.1075026128398
 34
0.0
 15
-1142.659595011638
 25
249.7215254974809
 35
0.0
146
0.0
 13
0.0
 23
0.0
 33
0.0
 16
1.0
 26
0.0
 36
0.0
 17
0.0
 27
1.0
 37
0.0
 76
     0
330
1D
331
124
  0
LAYOUT
  5
1C
102
{ACAD_REACTORS
330
1A
102
}
330
1A
100
AcDbPlotSettings
  1

  2
none_device
  4

  6

 40
0.0
 41
0.0
 42
0.0
 43
0.0
 44
0.0
 45
0.0
 46
0.0
 47
0.0
 48
0.0
 49
0.0
140
0.0
141
0.0
142
1.0
143
1.0
 70
   688
 72
     0
 73
     0
 74
     5
  7

 75
    16
 76
     0
 77
     2
 78
   300
147
1.0
148
0.0
149
0.0
100
AcDbLayout
  1
シート 1
 70
     1
 71
     1
 10
0.0
 20
0.0
 11
0.0
 21
0.0
 12
0.0
 22
0.0
 32
0.0
 14
1.000000000000000E+20
 24
1.000000000000000E+20
 34
1.000000000000000E+20
 15
-1.000000000000000E+20
 25
-1.000000000000000E+20
 35
-1.000000000000000E+20
146
0.0
 13
0.0
 23
0.0
 33
0.0
 16
1.0
 26
0.0
 36
0.0
 17
0.0
 27
1.0
 37
0.0
 76
     0
330
1B
  0
MATERIAL
  5
166
102
{ACAD_REACTORS
330
164
102
}
330
164
100
AcDbMaterial
  1
ByBlock
 72
     1
 94
      127
  0
MATERIAL
  5
165
102
{ACAD_REACTORS
330
164
102
}
330
164
100
AcDbMaterial
  1
ByLayer
 72
     1
 94
      127
  0
MATERIAL
  5
167
102
{ACAD_REACTORS
330
164
102
}
330
164
100
AcDbMaterial
  1
Global
 72
     1
 94
      127
  0
MLEADERSTYLE
  5
16B
102
{ACAD_REACTORS
330
16A
102
}
330
16A
100
AcDbMLeaderStyle
170
     2
171
     1
172
     0
 90
        2
 40
0.0
 41
0.0
173
     1
 91
-1056964608
340
14
 92
       -2
290
     1
 42
0.09
291
     1
 43
0.36
  3
Standard
341
0
 44
0.18
300

342
11
174
     1
178
     6
175
     1
176
     0
 93
-1056964608
 45
0.18
292
     0
297
     0
 46
0.18
343
0
 94
-1056964608
 47
1.0
 49
1.0
140
1.0
293
     1
141
0.0
294
     1
177
     0
142
1.0
295
     0
296
     0
143
0.125
1001
ACAD_MLEADERVER
1070
     2
  0
MLINESTYLE
  5
18
102
{ACAD_REACTORS
330
17
102
}
330
17
100
AcDbMlineStyle
  2
Standard
 70
     0
  3

 62
   256
 51
90.0
 52
90.0
 71
     2
 49
0.5
 62
   256
  6
BYLAYER
 49
-0.5
 62
   256
  6
BYLAYER
  0
ACDBPLACEHOLDER
  5
F
102
{ACAD_REACTORS
330
E
102
}
330
E
  0
SCALE
  5
189
102
{ACAD_REACTORS
330
125
102
}
330
125
100
AcDbScale
 70
     0
300
1:1_XREF_XREF
140
1.0
141
1.0
290
     0
  0
SCALE
  5
126
102
{ACAD_REACTORS
330
125
102
}
330
125
100
AcDbScale
 70
     0
300
1:1
140
1.0
141
1.0
290
     1
  0
SCALE
  5
127
102
{ACAD_REACTORS
330
125
102
}
330
125
100
AcDbScale
 70
     0
300
1:2
140
1.0
141
2.0
290
     0
  0
SCALE
  5
128
102
{ACAD_REACTORS
330
125
102
}
330
125
100
AcDbScale
 70
     0
300
1:4
140
1.0
141
4.0
290
     0
  0
SCALE
  5
129
102
{ACAD_REACTORS
330
125
102
}
330
125
100
AcDbScale
 70
     0
300
1:5
140
1.0
141
5.0
290
     0
  0
SCALE
  5
12A
102
{ACAD_REACTORS
330
125
102
}
330
125
100
AcDbScale
 70
     0
300
1:8
140
1.0
141
8.0
290
     0
  0
SCALE
  5
12B
102
{ACAD_REACTORS
330
125
102
}
330
125
100
AcDbScale
 70
     0
300
1:10
140
1.0
141
10.0
290
     0
  0
SCALE
  5
12C
102
{ACAD_REACTORS
330
125
102
}
330
125
100
AcDbScale
 70
     0
300
1:16
140
1.0
141
16.0
290
     0
  0
SCALE
  5
12D
102
{ACAD_REACTORS
330
125
102
}
330
125
100
AcDbScale
 70
     0
300
1:20
140
1.0
141
20.0
290
     0
  0
SCALE
  5
12E
102
{ACAD_REACTORS
330
125
102
}
330
125
100
AcDbScale
 70
     0
300
1:30
140
1.0
141
30.0
290
     0
  0
SCALE
  5
12F
102
{ACAD_REACTORS
330
125
102
}
330
125
100
AcDbScale
 70
     0
300
1:40
140
1.0
141
40.0
290
     0
  0
SCALE
  5
130
102
{ACAD_REACTORS
330
125
102
}
330
125
100
AcDbScale
 70
     0
300
1:50
140
1.0
141
50.0
290
     0
  0
SCALE
  5
131
102
{ACAD_REACTORS
330
125
102
}
330
125
100
AcDbScale
 70
     0
300
1:100
140
1.0
141
100.0
290
     0
  0
SCALE
  5
132
102
{ACAD_REACTORS
330
125
102
}
330
125
100
AcDbScale
 70
     0
300
2:1
140
2.0
141
1.0
290
     0
  0
SCALE
  5
133
102
{ACAD_REACTORS
330
125
102
}
330
125
100
AcDbScale
 70
     0
300
4:1
140
4.0
141
1.0
290
     0
  0
SCALE
  5
134
102
{ACAD_REACTORS
330
125
102
}
330
125
100
AcDbScale
 70
     0
300
8:1
140
8.0
141
1.0
290
     0
  0
SCALE
  5
135
102
{ACAD_REACTORS
330
125
102
}
330
125
100
AcDbScale
 70
     0
300
10:1
140
10.0
141
1.0
290
     0
  0
SCALE
  5
136
102
{ACAD_REACTORS
330
125
102
}
330
125
100
AcDbScale
 70
     0
300
100:1
140
100.0
141
1.0
290
     0
  0
SCALE
  5
137
102
{ACAD_REACTORS
330
125
102
}
330
125
100
AcDbScale
 70
     0
300
1/128" = 1'-0"
140
0.0078125
141
12.0
290
     0
  0
SCALE
  5
138
102
{ACAD_REACTORS
330
125
102
}
330
125
100
AcDbScale
 70
     0
300
1/64" = 1'-0"
140
0.015625
141
12.0
290
     0
  0
SCALE
  5
139
102
{ACAD_REACTORS
330
125
102
}
330
125
100
AcDbScale
 70
     0
300
1/32" = 1'-0"
140
0.03125
141
12.0
290
     0
  0
SCALE
  5
13A
102
{ACAD_REACTORS
330
125
102
}
330
125
100
AcDbScale
 70
     0
300
1/16" = 1'-0"
140
0.0625
141
12.0
290
     0
  0
SCALE
  5
13B
102
{ACAD_REACTORS
330
125
102
}
330
125
100
AcDbScale
 70
     0
300
3/32" = 1'-0"
140
0.09375
141
12.0
290
     0
  0
SCALE
  5
13C
102
{ACAD_REACTORS
330
125
102
}
330
125
100
AcDbScale
 70
     0
300
1/8" = 1'-0"
140
0.125
141
12.0
290
     0
  0
SCALE
  5
13D
102
{ACAD_REACTORS
330
125
102
}
330
125
100
AcDbScale
 70
     0
300
3/16" = 1'-0"
140
0.1875
141
12.0
290
     0
  0
SCALE
  5
13E
102
{ACAD_REACTORS
330
125
102
}
330
125
100
AcDbScale
 70
     0
300
1/4" = 1'-0"
140
0.25
141
12.0
290
     0
  0
SCALE
  5
13F
102
{ACAD_REACTORS
330
125
102
}
330
125
100
AcDbScale
 70
     0
300
3/8" = 1'-0"
140
0.375
141
12.0
290
     0
  0
SCALE
  5
140
102
{ACAD_REACTORS
330
125
102
}
330
125
100
AcDbScale
 70
     0
300
1/2" = 1'-0"
140
0.5
141
12.0
290
     0
  0
SCALE
  5
141
102
{ACAD_REACTORS
330
125
102
}
330
125
100
AcDbScale
 70
     0
300
3/4" = 1'-0"
140
0.75
141
12.0
290
     0
  0
SCALE
  5
142
102
{ACAD_REACTORS
330
125
102
}
330
125
100
AcDbScale
 70
     0
300
1" = 1'-0"
140
1.0
141
12.0
290
     0
  0
SCALE
  5
143
102
{ACAD_REACTORS
330
125
102
}
330
125
100
AcDbScale
 70
     0
300
1-1/2" = 1'-0"
140
1.5
141
12.0
290
     0
  0
SCALE
  5
144
102
{ACAD_REACTORS
330
125
102
}
330
125
100
AcDbScale
 70
     0
300
3" = 1'-0"
140
3.0
141
12.0
290
     0
  0
SCALE
  5
145
102
{ACAD_REACTORS
330
125
102
}
330
125
100
AcDbScale
 70
     0
300
6" = 1'-0"
140
6.0
141
12.0
290
     0
  0
SCALE
  5
146
102
{ACAD_REACTORS
330
125
102
}
330
125
100
AcDbScale
 70
     0
300
1'-0" = 1'-0"
140
12.0
141
12.0
290
     0
  0
TABLESTYLE
  5
169
102
{ACAD_REACTORS
330
168
102
}
102
{ACAD_XDICTIONARY
360
1D5
102
}
330
168
100
AcDbTableStyle
  3
Standard
 70
     0
 71
     0
 40
0.06
 41
0.06
280
     0
281
     0
  7
STANDARD
140
0.18
170
     2
 62
     0
 63
   257
283
     0
 90
        4
 91
        0
  1

274
    -2
284
     1
 64
     0
275
    -2
285
     1
 65
     0
276
    -2
286
     1
 66
     0
277
    -2
287
     1
 67
     0
278
    -2
288
     1
 68
     0
279
    -2
289
     1
 69
     0
  7
STANDARD
140
0.25
170
     5
 62
     0
 63
   257
283
     0
 90
        4
 91
        0
  1

274
    -2
284
     1
 64
     0
275
    -2
285
     1
 65
     0
276
    -2
286
     1
 66
     0
277
    -2
287
     1
 67
     0
278
    -2
288
     1
 68
     0
279
    -2
289
     1
 69
     0
  7
STANDARD
140
0.18
170
     5
 62
     0
 63
   257
283
     0
 90
        4
 91
        0
  1

274
    -2
284
     1
 64
     0
275
    -2
285
     1
 65
     0
276
    -2
286
     1
 66
     0
277
    -2
287
     1
 67
     0
278
    -2
288
     1
 68
     0
279
    -2
289
     1
 69
     0
  0
VISUALSTYLE
  5
150
102
{ACAD_REACTORS
330
14B
102
}
330
14B
100
AcDbVisualStyle
  2
2dWireframe
 70
     4
 71
     0
 72
     2
 73
     0
 90
        0
 40
0.6
 41
30.0
 62
     5
 63
     7
421
 16777215
 74
     1
 91
        4
 64
     7
 65
   257
 75
     1
175
     1
 42
1.0
 92
        0
 66
   257
 43
1.0
 76
     1
 77
     6
 78
     2
 67
     7
 79
     5
170
     0
171
     0
290
     0
174
     0
 93
        1
 44
0.0
173
     0
291
     0
 45
0.0
  0
VISUALSTYLE
  5
153
102
{ACAD_REACTORS
330
14B
102
}
330
14B
100
AcDbVisualStyle
  2
Basic
 70
     7
 71
     1
 72
     0
 73
     1
 90
        0
 40
0.6
 41
30.0
 62
     5
 63
     7
421
 16777215
 74
     0
 91
        4
 64
     7
 65
   257
 75
     1
175
     1
 42
1.0
 92
        8
 66
     7
 43
1.0
 76
     1
 77
     6
 78
     2
 67
     7
 79
     5
170
     0
171
     0
290
     0
174
     0
 93
        1
 44
0.0
173
     0
291
     1
 45
0.0
  0
VISUALSTYLE
  5
157
102
{ACAD_REACTORS
330
14B
102
}
330
14B
100
AcDbVisualStyle
  2
Brighten
 70
    12
 71
     2
 72
     2
 73
     0
 90
        0
 40
0.6
 41
30.0
 62
     5
 63
     7
421
 16777215
 74
     1
 91
        4
 64
     7
 65
   257
 75
     1
175
     1
 42
1.0
 92
        8
 66
     7
 43
1.0
 76
     1
 77
     6
 78
     2
 67
     7
 79
     5
170
     0
171
     0
290
     0
174
     0
 93
        1
 44
50.0
173
     0
291
     1
 45
0.0
  0
VISUALSTYLE
  5
15B
102
{ACAD_REACTORS
330
14B
102
}
330
14B
100
AcDbVisualStyle
  2
ColorChange
 70
    16
 71
     2
 72
     2
 73
     3
 90
        0
 40
0.6
 41
30.0
 62
     5
 63
     8
421
  8421504
 74
     1
 91
        4
 64
     7
 65
   257
 75
     1
175
     1
 42
1.0
 92
        8
 66
     8
424
  8421504
 43
1.0
 76
     1
 77
     6
 78
     2
 67
     7
 79
     5
170
     0
171
     0
290
     0
174
     0
 93
        1
 44
0.0
173
     0
291
     1
 45
0.0
  0
VISUALSTYLE
  5
155
102
{ACAD_REACTORS
330
14B
102
}
330
14B
100
AcDbVisualStyle
  2
Conceptual
 70
     9
 71
     3
 72
     2
 73
     0
 90
        0
 40
0.6
 41
30.0
 62
     5
 63
     7
421
 16777215
 74
     2
 91
        2
 64
     7
 65
   257
 75
     1
175
     1
 42
179.0
 92
        8
 66
     7
 43
1.0
 76
     1
 77
     6
 78
     2
 67
     7
 79
     3
170
     0
171
     0
290
     0
174
     0
 93
        1
 44
0.0
173
     0
291
     0
 45
0.0
  0
VISUALSTYLE
  5
156
102
{ACAD_REACTORS
330
14B
102
}
330
14B
100
AcDbVisualStyle
  2
Dim
 70
    11
 71
     2
 72
     2
 73
     0
 90
        0
 40
0.6
 41
30.0
 62
     5
 63
     7
421
 16777215
 74
     1
 91
        4
 64
     7
 65
   257
 75
     1
175
     1
 42
1.0
 92
        8
 66
     7
 43
1.0
 76
     1
 77
     6
 78
     2
 67
     7
 79
     5
170
     0
171
     0
290
     0
174
     0
 93
        1
 44
-50.0
173
     0
291
     1
 45
0.0
  0
VISUALSTYLE
  5
15E
102
{ACAD_REACTORS
330
14B
102
}
330
14B
100
AcDbVisualStyle
  2
EdgeColorOff
 70
    22
 71
     2
 72
     2
 73
     0
 90
        0
 40
0.6
 41
30.0
 62
     5
 63
     7
421
 16777215
 74
     1
 91
        4
 64
     7
 65
   257
 75
     1
175
     1
 42
1.0
 92
        8
 66
     7
 43
1.0
 76
     1
 77
     6
 78
     2
 67
     7
 79
     5
170
     0
171
     0
290
     0
174
     0
 93
        1
 44
0.0
173
     0
291
     1
 45
0.0
  0
VISUALSTYLE
  5
15A
102
{ACAD_REACTORS
330
14B
102
}
330
14B
100
AcDbVisualStyle
  2
Facepattern
 70
    15
 71
     2
 72
     2
 73
     0
 90
        0
 40
0.6
 41
30.0
 62
     5
 63
     7
421
 16777215
 74
     1
 91
        4
 64
     7
 65
   257
 75
     1
175
     1
 42
1.0
 92
        8
 66
     7
 43
1.0
 76
     1
 77
     6
 78
     2
 67
     7
 79
     5
170
     0
171
     0
290
     0
174
     0
 93
        1
 44
0.0
173
     0
291
     1
 45
0.0
  0
VISUALSTYLE
  5
14C
102
{ACAD_REACTORS
330
14B
102
}
330
14B
100
AcDbVisualStyle
  2
Flat
 70
     0
 71
     2
 72
     1
 73
     1
 90
        2
 40
0.6
 41
30.0
 62
     5
 63
     7
421
 16777215
 74
     0
 91
        0
 64
     7
 65
   257
 75
     1
175
     1
 42
1.0
 92
        8
 66
     7
 43
1.0
 76
     1
 77
     6
 78
     2
 67
     7
 79
     5
170
     0
171
     0
290
     0
174
     0
 93
       13
 44
0.0
173
     0
291
     1
 45
0.0
  0
VISUALSTYLE
  5
14D
102
{ACAD_REACTORS
330
14B
102
}
330
14B
100
AcDbVisualStyle
  2
FlatWithEdges
 70
     1
 71
     2
 72
     1
 73
     1
 90
        2
 40
0.6
 41
30.0
 62
     5
 63
     7
421
 16777215
 74
     1
 91
        0
 64
     7
 65
   257
 75
     1
175
     1
 42
1.0
 92
        0
 66
   257
 43
1.0
 76
     1
 77
     6
 78
     2
 67
     7
 79
     5
170
     0
171
     0
290
     0
174
     0
 93
       13
 44
0.0
173
     0
291
     1
 45
0.0
  0
VISUALSTYLE
  5
14E
102
{ACAD_REACTORS
330
14B
102
}
330
14B
100
AcDbVisualStyle
  2
Gouraud
 70
     2
 71
     2
 72
     2
 73
     1
 90
        2
 40
0.6
 41
30.0
 62
     5
 63
     7
421
 16777215
 74
     0
 91
        0
 64
     7
 65
   257
 75
     1
175
     1
 42
1.0
 92
        0
 66
     7
 43
1.0
 76
     1
 77
     6
 78
     2
 67
     7
 79
     5
170
     0
171
     0
290
     0
174
     0
 93
       13
 44
0.0
173
     0
291
     1
 45
0.0
  0
VISUALSTYLE
  5
14F
102
{ACAD_REACTORS
330
14B
102
}
330
14B
100
AcDbVisualStyle
  2
GouraudWithEdges
 70
     3
 71
     2
 72
     2
 73
     1
 90
        2
 40
0.6
 41
30.0
 62
     5
 63
     7
421
 16777215
 74
     1
 91
        0
 64
     7
 65
   257
 75
     1
175
     1
 42
1.0
 92
        0
 66
   257
 43
1.0
 76
     1
 77
     6
 78
     2
 67
     7
 79
     5
170
     0
171
     0
290
     0
174
     0
 93
       13
 44
0.0
173
     0
291
     1
 45
0.0
  0
VISUALSTYLE
  5
152
102
{ACAD_REACTORS
330
14B
102
}
330
14B
100
AcDbVisualStyle
  2
Hidden
 70
     6
 71
     1
 72
     2
 73
     2
 90
        0
 40
0.6
 41
30.0
 62
     5
 63
     7
421
 16777215
 74
     2
 91
        2
 64
     7
 65
   257
 75
     2
175
     1
 42
40.0
 92
        0
 66
   257
 43
1.0
 76
     1
 77
     6
 78
     2
 67
     7
 79
     3
170
     0
171
     0
290
     0
174
     0
 93
        1
 44
0.0
173
     0
291
     0
 45
0.0
  0
VISUALSTYLE
  5
15C
102
{ACAD_REACTORS
330
14B
102
}
330
14B
100
AcDbVisualStyle
  2
JitterOff
 70
    20
 71
     2
 72
     2
 73
     0
 90
        0
 40
0.6
 41
30.0
 62
     5
 63
     7
421
 16777215
 74
     1
 91
        4
 64
     7
 65
   257
 75
     1
175
     1
 42
1.0
 92
       10
 66
     7
 43
1.0
 76
     1
 77
     6
 78
     2
 67
     7
 79
     5
170
     0
171
     0
290
     0
174
     0
 93
        1
 44
0.0
173
     0
291
     1
 45
0.0
  0
VISUALSTYLE
  5
159
102
{ACAD_REACTORS
330
14B
102
}
330
14B
100
AcDbVisualStyle
  2
Linepattern
 70
    14
 71
     2
 72
     2
 73
     0
 90
        0
 40
0.6
 41
30.0
 62
     5
 63
     7
421
 16777215
 74
     1
 91
        4
 64
     7
 65
   257
 75
     7
175
     7
 42
1.0
 92
        8
 66
     7
 43
1.0
 76
     1
 77
     6
 78
     2
 67
     7
 79
     5
170
     0
171
     0
290
     0
174
     0
 93
        1
 44
0.0
173
     0
291
     1
 45
0.0
  0
VISUALSTYLE
  5
15D
102
{ACAD_REACTORS
330
14B
102
}
330
14B
100
AcDbVisualStyle
  2
OverhangOff
 70
    21
 71
     2
 72
     2
 73
     0
 90
        0
 40
0.6
 41
30.0
 62
     5
 63
     7
421
 16777215
 74
     1
 91
        4
 64
     7
 65
   257
 75
     1
175
     1
 42
1.0
 92
        9
 66
     7
 43
1.0
 76
     1
 77
     6
 78
     2
 67
     7
 79
     5
170
     0
171
     0
290
     0
174
     0
 93
        1
 44
0.0
173
     0
291
     1
 45
0.0
  0
VISUALSTYLE
  5
154
102
{ACAD_REACTORS
330
14B
102
}
330
14B
100
AcDbVisualStyle
  2
Realistic
 70
     8
 71
     2
 72
     3
 73
     0
 90
        2
 40
0.6
 41
30.0
 62
     5
 63
     7
421
 16777215
 74
     0
 91
        0
 64
     7
 65
   257
 75
     1
175
     1
 42
1.0
 92
        8
 66
   257
 43
1.0
 76
     1
 77
     6
 78
     2
 67
     7
 79
     3
170
     0
171
     0
290
     0
174
     0
 93
       13
 44
0.0
173
     0
291
     0
 45
0.0
  0
VISUALSTYLE
  5
163
102
{ACAD_REACTORS
330
14B
102
}
330
14B
100
AcDbVisualStyle
  2
Shaded
 70
    27
 71
     2
 72
     2
 73
     1
 90
        2
 40
0.6
 41
30.0
 62
     5
 63
     7
421
 16777215
 74
     0
 91
        4
 64
     7
 65
   257
 75
     1
175
     1
 42
1.0
 92
        8
 66
   257
 43
1.0
 76
     1
 77
     6
 78
     2
 67
     8
425
  7895160
 79
     3
170
     0
171
     0
290
     0
174
     0
 93
        5
 44
0.0
173
     0
291
     0
 45
0.0
  0
VISUALSTYLE
  5
162
102
{ACAD_REACTORS
330
14B
102
}
330
14B
100
AcDbVisualStyle
  2
Shaded with edges
 70
    26
 71
     2
 72
     2
 73
     1
 90
        2
 40
0.6
 41
30.0
 62
     5
 63
     7
421
 16777215
 74
     1
 91
       10
 64
     7
 65
   257
 75
     2
175
     1
 42
1.0
 92
        8
 66
   257
 43
1.0
 76
     1
 77
     6
 78
     2
 67
     7
 79
     3
170
     0
171
     0
290
     0
174
     0
 93
        5
 44
0.0
173
     0
291
     0
 45
0.0
  0
VISUALSTYLE
  5
15F
102
{ACAD_REACTORS
330
14B
102
}
330
14B
100
AcDbVisualStyle
  2
Shades of Gray
 70
    23
 71
     2
 72
     2
 73
     3
 90
        0
 40
0.6
 41
30.0
 62
     5
 63
     7
421
 16777215
 74
     2
 91
        2
 64
     7
 65
     7
 75
     1
175
     1
 42
40.0
 92
        8
 66
     7
 43
1.0
 76
     1
 77
     6
 78
     2
 67
     7
 79
     3
170
     0
171
     0
290
     0
174
     0
 93
        1
 44
0.0
173
     0
291
     0
 45
0.0
  0
VISUALSTYLE
  5
160
102
{ACAD_REACTORS
330
14B
102
}
330
14B
100
AcDbVisualStyle
  2
Sketchy
 70
    24
 71
     1
 72
     2
 73
     2
 90
        0
 40
0.6
 41
30.0
 62
     5
 63
     7
421
 16777215
 74
     2
 91
        2
 64
     7
 65
     7
 75
     1
175
     1
 42
40.0
 92
       11
 66
     7
 43
1.0
 76
     1
 77
     6
 78
     2
 67
     7
 79
     6
170
     0
171
     0
290
     0
174
     0
 93
        1
 44
0.0
173
     0
291
     0
 45
0.0
  0
VISUALSTYLE
  5
158
102
{ACAD_REACTORS
330
14B
102
}
330
14B
100
AcDbVisualStyle
  2
Thicken
 70
    13
 71
     2
 72
     2
 73
     0
 90
        0
 40
0.6
 41
30.0
 62
     5
 63
     7
421
 16777215
 74
     1
 91
        4
 64
     7
 65
   257
 75
     1
175
     1
 42
1.0
 92
       12
 66
     7
 43
1.0
 76
     1
 77
     6
 78
     2
 67
     7
 79
     5
170
     0
171
     0
290
     0
174
     0
 93
        1
 44
0.0
173
     0
291
     1
 45
0.0
  0
VISUALSTYLE
  5
151
102
{ACAD_REACTORS
330
14B
102
}
330
14B
100
AcDbVisualStyle
  2
Wireframe
 70
     5
 71
     0
 72
     2
 73
     0
 90
        0
 40
0.6
 41
30.0
 62
     5
 63
     7
421
 16777215
 74
     1
 91
        4
 64
     7
 65
   257
 75
     1
175
     1
 42
1.0
 92
        0
 66
   257
 43
1.0
 76
     1
 77
     6
 78
     2
 67
     7
 79
     3
170
     0
171
     0
290
     0
174
     0
 93
        1
 44
0.0
173
     0
291
     0
 45
0.0
  0
VISUALSTYLE
  5
161
102
{ACAD_REACTORS
330
14B
102
}
330
14B
100
AcDbVisualStyle
  2
X-Ray
 70
    25
 71
     2
 72
     2
 73
     1
 90
        1
 40
0.5
 41
30.0
 62
     5
 63
     7
421
 16777215
 74
     1
 91
        0
 64
     7
 65
   257
 75
     1
175
     1
 42
1.0
 92
        8
 66
     7
 43
1.0
 76
     1
 77
     6
 78
     2
 67
     7
 79
     3
170
     0
171
     0
290
     0
174
     0
 93
       13
 44
0.0
173
     0
291
     0
 45
0.0
  0
DICTIONARYVAR
  5
170
102
{ACAD_REACTORS
330
16F
102
}
330
16F
100
DictionaryVariables
280
     0
  1
1:1
  0
DICTIONARYVAR
  5
176
102
{ACAD_REACTORS
330
16F
102
}
330
16F
100
DictionaryVariables
280
     0
  1
Standard
  0
DICTIONARYVAR
  5
175
102
{ACAD_REACTORS
330
16F
102
}
330
16F
100
DictionaryVariables
280
     0
  1
Standard
  0
DICTIONARYVAR
  5
177
102
{ACAD_REACTORS
330
16F
102
}
330
16F
100
DictionaryVariables
280
     0
  1
0
  0
DICTIONARYVAR
  5
17D
102
{ACAD_REACTORS
330
16F
102
}
330
16F
100
DictionaryVariables
280
     0
  1
0
  0
DICTIONARY
  5
1D5
330
169
100
AcDbDictionary
280
     1
281
     1
  3
ACAD_ROUNDTRIP_2008_TABLESTYLE_CELLSTYLEMAP
360
1D6
  0
CELLSTYLEMAP
  5
1D6
102
{ACAD_REACTORS
330
1D5
102
}
330
1D5
100
AcDbCellStyleMap
 90
        3
300
CELLSTYLE
  1
TABLEFORMAT_BEGIN
 90
        5
170
     1
 91
        0
 92
    32768
 62
   257
 93
        1
300
CONTENTFORMAT
  1
CONTENTFORMAT_BEGIN
 90
        0
 91
        0
 92
        4
 93
        0
300

 40
0.0
140
1.0
 94
        5
 62
     0
340
11
144
0.25
309
CONTENTFORMAT_END
171
     1
301
MARGIN
  1
CELLMARGIN_BEGIN
 40
0.06
 40
0.06
 40
0.06
 40
0.06
 40
0.06
 40
0.06
309
CELLMARGIN_END
 94
        6
 95
        1
302
GRIDFORMAT
  1
GRIDFORMAT_BEGIN
 90
        0
 91
        1
 62
     0
 92
       -2
340
14
 93
        0
 40
0.045
309
GRIDFORMAT_END
 95
        2
302
GRIDFORMAT
  1
GRIDFORMAT_BEGIN
 90
        0
 91
        1
 62
     0
 92
       -2
340
14
 93
        0
 40
0.045
309
GRIDFORMAT_END
 95
        4
302
GRIDFORMAT
  1
GRIDFORMAT_BEGIN
 90
        0
 91
        1
 62
     0
 92
       -2
340
14
 93
        0
 40
0.045
309
GRIDFORMAT_END
 95
        8
302
GRIDFORMAT
  1
GRIDFORMAT_BEGIN
 90
        0
 91
        1
 62
     0
 92
       -2
340
14
 93
        0
 40
0.045
309
GRIDFORMAT_END
 95
       16
302
GRIDFORMAT
  1
GRIDFORMAT_BEGIN
 90
        0
 91
        1
 62
     0
 92
       -2
340
14
 93
        0
 40
0.045
309
GRIDFORMAT_END
 95
       32
302
GRIDFORMAT
  1
GRIDFORMAT_BEGIN
 90
        0
 91
        1
 62
     0
 92
       -2
340
14
 93
        0
 40
0.045
309
GRIDFORMAT_END
309
TABLEFORMAT_END
  1
CELLSTYLE_BEGIN
 90
        1
 91
        1
300
_TITLE
309
CELLSTYLE_END
300
CELLSTYLE
  1
TABLEFORMAT_BEGIN
 90
        5
170
     1
 91
        0
 92
        0
 62
   257
 93
        1
300
CONTENTFORMAT
  1
CONTENTFORMAT_BEGIN
 90
        0
 91
        0
 92
        4
 93
        0
300

 40
0.0
140
1.0
 94
        5
 62
     0
340
11
144
0.18
309
CONTENTFORMAT_END
171
     1
301
MARGIN
  1
CELLMARGIN_BEGIN
 40
0.06
 40
0.06
 40
0.06
 40
0.06
 40
0.06
 40
0.06
309
CELLMARGIN_END
 94
        6
 95
        1
302
GRIDFORMAT
  1
GRIDFORMAT_BEGIN
 90
        0
 91
        1
 62
     0
 92
       -2
340
14
 93
        0
 40
0.045
309
GRIDFORMAT_END
 95
        2
302
GRIDFORMAT
  1
GRIDFORMAT_BEGIN
 90
        0
 91
        1
 62
     0
 92
       -2
340
14
 93
        0
 40
0.045
309
GRIDFORMAT_END
 95
        4
302
GRIDFORMAT
  1
GRIDFORMAT_BEGIN
 90
        0
 91
        1
 62
     0
 92
       -2
340
14
 93
        0
 40
0.045
309
GRIDFORMAT_END
 95
        8
302
GRIDFORMAT
  1
GRIDFORMAT_BEGIN
 90
        0
 91
        1
 62
     0
 92
       -2
340
14
 93
        0
 40
0.045
309
GRIDFORMAT_END
 95
       16
302
GRIDFORMAT
  1
GRIDFORMAT_BEGIN
 90
        0
 91
        1
 62
     0
 92
       -2
340
14
 93
        0
 40
0.045
309
GRIDFORMAT_END
 95
       32
302
GRIDFORMAT
  1
GRIDFORMAT_BEGIN
 90
        0
 91
        1
 62
     0
 92
       -2
340
14
 93
        0
 40
0.045
309
GRIDFORMAT_END
309
TABLEFORMAT_END
  1
CELLSTYLE_BEGIN
 90
        2
 91
        1
300
_HEADER
309
CELLSTYLE_END
300
CELLSTYLE
  1
TABLEFORMAT_BEGIN
 90
        5
170
     1
 91
        0
 92
        0
 62
   257
 93
        1
300
CONTENTFORMAT
  1
CONTENTFORMAT_BEGIN
 90
        0
 91
        0
 92
        4
 93
        0
300

 40
0.0
140
1.0
 94
        2
 62
     0
340
11
144
0.18
309
CONTENTFORMAT_END
171
     1
301
MARGIN
  1
CELLMARGIN_BEGIN
 40
0.06
 40
0.06
 40
0.06
 40
0.06
 40
0.06
 40
0.06
309
CELLMARGIN_END
 94
        6
 95
        1
302
GRIDFORMAT
  1
GRIDFORMAT_BEGIN
 90
        0
 91
        1
 62
     0
 92
       -2
340
14
 93
        0
 40
0.045
309
GRIDFORMAT_END
 95
        2
302
GRIDFORMAT
  1
GRIDFORMAT_BEGIN
 90
        0
 91
        1
 62
     0
 92
       -2
340
14
 93
        0
 40
0.045
309
GRIDFORMAT_END
 95
        4
302
GRIDFORMAT
  1
GRIDFORMAT_BEGIN
 90
        0
 91
        1
 62
     0
 92
       -2
340
14
 93
        0
 40
0.045
309
GRIDFORMAT_END
 95
        8
302
GRIDFORMAT
  1
GRIDFORMAT_BEGIN
 90
        0
 91
        1
 62
     0
 92
       -2
340
14
 93
        0
 40
0.045
309
GRIDFORMAT_END
 95
       16
302
GRIDFORMAT
  1
GRIDFORMAT_BEGIN
 90
        0
 91
        1
 62
     0
 92
       -2
340
14
 93
        0
 40
0.045
309
GRIDFORMAT_END
 95
       32
302
GRIDFORMAT
  1
GRIDFORMAT_BEGIN
 90
        0
 91
        1
 62
     0
 92
       -2
340
14
 93
        0
 40
0.045
309
GRIDFORMAT_END
309
TABLEFORMAT_END
  1
CELLSTYLE_BEGIN
 90
        3
 91
        2
300
_DATA
309
CELLSTYLE_END
  0
ENDSEC
  0
EOF
