  0
SECTION
  2
HEADER
  9
$ACADVER
  1
AC1009
  9
$INSBASE
 10
0
 20
0
 30
0
  9
$EXTMIN
 10
0
 20
0
  9
$EXTMAX
 10
1485
 20
1050
  9
$LIMMIN
 10
0
 20
0
  9
$LIMMAX
 10
1485
 20
1050
  9
$LTSCALE
 40
5
  0
ENDSEC
  0
SECTION
  2
TABLES
  0
TABLE
  2
LTYPE
 70
     9
  0
LTYPE
  2
CONTINUOUS
 70
    64
  3
実線
 72
    65
 73
     0
 40
0.0
  0
LTYPE
  2
DASHED1
 70
    64
  3
--  --  --  --  --  --  --  --  
 72
    65
 73
     2
 40
2.5
 49
1.25
 49
-1.25
  0
LTYPE
  2
DASHED2
 70
    64
  3
----    ----    ----    ----    
 72
    65
 73
     2
 40
5.0
 49
2.5
 49
-2.5
  0
LTYPE
  2
DASHED3
 70
    64
  3
------  ------  ------  ------  
 72
    65
 73
     2
 40
5.0
 49
3.75
 49
-1.25
  0
LTYPE
  2
CENTER1
 70
    64
  3
----- - ----- - ----- - ----- - 
 72
    65
 73
     4
 40
10.0
 49
6.25
 49
-1.25
 49
1.25
 49
-1.25
  0
LTYPE
  2
CENTER2
 70
    64
  3
----------  --  ----------  --  
 72
    65
 73
     4
 40
20.0
 49
12.5
 49
-2.5
 49
2.5
 49
-2.5
  0
LTYPE
  2
PHANTOM1
 70
    64
  3
--- - - --- - - --- - - --- - - 
 72
    65
 73
     6
 40
10.0
 49
3.25
 49
-1.25
 49
1.25
 49
-1.25
 49
1.25
 49
-1.25
  0
LTYPE
  2
PHANTOM2
 70
    64
  3
--------  -  -  --------  -  -  
 72
    65
 73
     6
 40
20.0
 49
10.0
 49
-2.5
 49
1.25
 49
-2.5
 49
1.25
 49
-2.5
  0
LTYPE
  2
DOT
 70
    64
  3
-   -   -   -   -   -   -   -   
 72
    65
 73
     2
 40
2.5
 49
0.625
 49
-1.875
  0
LTYPE
  2
DUMMY
 70
    64
  3
ダミー
 72
    65
 73
     0
 40
0.0
  0
LTYPE
  2
RAND1
 70
    64
  3
ランダム線1
 72
    65
 73
     4
 40
10.0
 49
1.0
 49
-2.0
 49
3.0
 49
-4.0
  0
LTYPE
  2
RAND2
 70
    64
  3
ランダム線2
 72
    65
 73
     4
 40
14.0
 49
2.0
 49
-3.0
 49
4.0
 49
-5.0
  0
LTYPE
  2
RAND3
 70
    64
  3
ランダム線3
 72
    65
 73
     4
 40
18.0
 49
3.0
 49
-4.0
 49
5.0
 49
-6.0
  0
LTYPE
  2
RAND4
 70
    64
  3
ランダム線4
 72
    65
 73
     4
 40
22.0
 49
4.0
 49
-5.0
 49
6.0
 49
-7.0
  0
LTYPE
  2
RAND5
 70
    64
  3
ランダム線5
 72
    65
 73
     4
 40
26.0
 49
5.0
 49
-6.0
 49
7.0
 49
-8.0
  0
LTYPE
  2
LONG1
 70
    64
  3
----------  --  ----------  --  
 72
    65
 73
     4
 40
40.0
 49
32.5
 49
-2.5
 49
2.5
 49
-2.5
  0
LTYPE
  2
LONG2
 70
    64
  3
--------  -  -  --------  -  -  
 72
    65
 73
     6
 40
40.0
 49
30.0
 49
-2.5
 49
1.25
 49
-2.5
 49
1.25
 49
-2.5
  0
LTYPE
  2
LONG3
 70
    64
  3
+++++++++++++++..+++++++++++++++
 72
    65
 73
     2
 40
40.0
 49
37.5
 49
-2.5
  0
LTYPE
  2
LONG4
 70
    64
  3
+++++++++++++++..+++++++++++++++
 72
    65
 73
     2
 40
80.0
 49
75.0
 49
-5.0
  0
LTYPE
  2
LONG5
 70
    64
  3
----------  --  ----------  --  
 72
    65
 73
     4
 40
60.0
 49
37.5
 49
-7.5
 49
7.5
 49
-7.5
  0
LTYPE
  2
dashed
 70
   64
  3
-------   -------------   ------
 72
   65
 73
    2
 40
7.5
 49
6
 49
-1.5
  0
LTYPE
  2
dashed_spaced
 70
   64
  3
----        --------        ----
 72
   65
 73
    2
 40
12
 49
6
 49
-6
  0
LTYPE
  2
long_dashed_dotted
 70
   64
  3
------------- --- --------------
 72
   65
 73
    4
 40
15.25
 49
12
 49
-1.5
 49
0.25
 49
-1.5
  0
LTYPE
  2
long_dashed_double-dotted
 70
   64
  3
----------- --- --- ------------
 72
   65
 73
    6
 40
17
 49
12
 49
-1.5
 49
0.25
 49
-1.5
 49
0.25
 49
-1.5
  0
LTYPE
  2
long_dashed_triplicate-dotted
 70
   64
  3
--------- --- --- --- ----------
 72
   65
 73
    8
 40
18.75
 49
12
 49
-1.5
 49
0.25
 49
-1.5
 49
0.25
 49
-1.5
 49
0.25
 49
-1.5
  0
LTYPE
  2
dotted
 70
   64
  3
   -       -       -       -    
 72
   65
 73
    2
 40
1.75
 49
0.25
 49
-1.5
  0
LTYPE
  2
chain
 70
   64
  3
-------------- -- --------------
 72
   65
 73
    4
 40
18.5
 49
12
 49
-1.5
 49
3.5
 49
-1.5
  0
LTYPE
  2
chain_double_dash
 70
   64
  3
------------ -- -- -------------
 72
   65
 73
    6
 40
23.5
 49
12
 49
-1.5
 49
3.5
 49
-1.5
 49
3.5
 49
-1.5
  0
LTYPE
  2
dashed_dotted
 70
   64
  3
-----------     -     ----------
 72
   65
 73
    4
 40
9.25
 49
6
 49
-1.5
 49
0.25
 49
-1.5
  0
LTYPE
  2
double-dashed_dotted
 70
   64
  3
------   -----------   -   -----
 72
   65
 73
    6
 40
16.75
 49
6
 49
-1.5
 49
6
 49
-1.5
 49
0.25
 49
-1.5
  0
LTYPE
  2
dashed_double-dotted
 70
   64
  3
---------    -    -    ---------
 72
   65
 73
    6
 40
11
 49
6
 49
-1.5
 49
0.25
 49
-1.5
 49
0.25
 49
-1.5
  0
LTYPE
  2
double-dashed_double-dotted
 70
   64
  3
-----   ---------   -   -   ----
 72
   65
 73
    8
 40
18.5
 49
6
 49
-1.5
 49
6
 49
-1.5
 49
0.25
 49
-1.5
 49
0.25
 49
-1.5
  0
LTYPE
  2
dashed_triplicate-dotted
 70
   64
  3
-------    -    -    -    ------
 72
   65
 73
    8
 40
12.75
 49
6
 49
-1.5
 49
0.25
 49
-1.5
 49
0.25
 49
-1.5
 49
0.25
 49
-1.5
  0
LTYPE
  2
double-dashed_triplicate-dotted
 70
   64
  3
-----  ---------  -  -  -  -----
 72
   65
 73
   10
 40
20.25
 49
6
 49
-1.5
 49
6
 49
-1.5
 49
0.25
 49
-1.5
 49
0.25
 49
-1.5
 49
0.25
 49
-1.5
  0
LTYPE
  2
undefined
 70
   64
  3
--------------------------------
 72
   65
 73
    0
 40
0
  0
LTYPE
  2
STYLE_01
 70
   64
  3
----        --------        ----
 72
   65
 73
    2
 40
0.4166399999999997
 49
0.2082799999999999
 49
-0.2083599999999999
  0
LTYPE
  2
STYLE_02
 70
   64
  3
------     -----------     -----
 72
   65
 73
    2
 40
0.694425
 49
0.48607
 49
-0.2083550000000001
  0
LTYPE
  2
STYLE_03
 70
   64
  3
-------   -------------   ------
 72
   65
 73
    2
 40
1.25
 49
1.0416400000000001
 49
-0.2083599999999999
  0
LTYPE
  2
STYLE_04
 70
   64
  3
-------  --------------  -------
 72
   65
 73
    2
 40
1.5277099999999999
 49
1.3194249999999998
 49
-0.208285
  0
LTYPE
  2
STYLE_05
 70
   64
  3
---           -----           --
 72
   65
 73
    2
 40
0.20828
 49
0.069425
 49
-0.138855
  0
LTYPE
  2
STYLE_06
 70
   64
  3
----------      --    ----------
 72
   65
 73
    4
 40
1.0416399999999999
 49
0.625
 49
-0.2082799999999999
 49
0.06943
 49
-0.13893
  0
LTYPE
  2
STYLE_07
 70
   64
  3
-----    -----------    -  -----
 72
   65
 73
    6
 40
1.8749999999999998
 49
0.625
 49
-0.2082799999999999
 49
0.6250000000000001
 49
-0.2083599999999999
 49
0.06943
 49
-0.1389299999999998
  0
LTYPE
  2
STYLE_08
 70
   64
  3
--------     --    --    -------
 72
   65
 73
    6
 40
1.2499999999999996
 49
0.625
 49
-0.2082799999999999
 49
0.06943
 49
-0.13893
 49
0.0694299999999997
 49
-0.13893
  0
LTYPE
  2
STYLE_09
 70
   64
  3
------------  ----  ------------
 72
   65
 73
    4
 40
5
 49
3.75
 49
-0.2777849999999997
 49
0.6944300000000003
 49
-0.2777849999999997
  0
LTYPE
  2
STYLE_10
 70
   64
  3
----------- ---- ---  ----------
 72
   65
 73
    6
 40
5.9375
 49
3.75
 49
-0.2777849999999997
 49
0.6944300000000003
 49
-0.2777849999999997
 49
0.625
 49
-0.3125
  0
ENDTAB
  0
TABLE
  2
STYLE
  5
3
100
AcDbSymbolTable
 70
     1
  0
STYLE
  5
10
100
AcDbSymbolTableRecord
100
AcDbTextStyleTableRecord
  2
STANDARD
 70
     0
 40
0.0
 41
1.0
 50
0.0
 71
     0
 42
0.2
  3
txt
  4
bigfont.shx
  0
STYLE
  5
26
100
AcDbSymbolTableRecord
100
AcDbTextStyleTableRecord
  2
TATEGAKI
 70
    68
 40
0.0
 41
1.0
 50
0.0
 71
     0
 42
1.0
  3
txt
  4
bigfont.shx
  0
ENDTAB
  0
TABLE
  2
LAYER
 70
    5
  0
LAYER
  2
_0-0_0
 70
   64
 62
    7
  6
CONTINUOUS
  0
LAYER
  2
_0-1_1_5
 70
   64
 62
    7
  6
CONTINUOUS
  0
LAYER
  2
_0-2_ADD_LINE
 70
   64
 62
    7
  6
CONTINUOUS
  0
LAYER
  2
_0-3_
 70
   64
 62
    7
  6
CONTINUOUS
  0
LAYER
  2
ADD_LINE
 70
   64
 62
    7
  6
CONTINUOUS
  0
ENDTAB
  0
ENDSEC
  0
SECTION
  2
BLOCKS
  0
ENDSEC
  0
SECTION
  2
ENTITIES
  0
LINE
  8
_0-0_0
  6
CONTINUOUS
 62
    7
 10
-217.54976684701688
 20
-210.60157479105314
 11
1267.4502331529832
 21
-210.60157479105328
  0
LINE
  8
_0-0_0
  6
CONTINUOUS
 62
    7
 10
-217.54976684701688
 20
839.39842520894683
 11
-217.54976684701688
 21
-210.60157479105314
  0
LINE
  8
_0-0_0
  6
CONTINUOUS
 62
    7
 10
1267.4502331529832
 20
839.39842520894672
 11
-217.54976684701688
 21
839.39842520894683
  0
LINE
  8
_0-0_0
  6
CONTINUOUS
 62
    7
 10
1267.4502331529832
 20
-210.60157479105328
 11
1267.4502331529832
 21
839.39842520894672
  0
TEXT
  8
_0-3_
 62
    7
 10
303.1435361858484
 20
-157.2512975909325
 40
10
 41
1
 50
0
  1
材質
  0
TEXT
  8
_0-3_
 62
    7
 10
303.1435361858484
 20
-126.04446365427265
 40
10
 41
1
 50
0
  1
仕上げ
  0
TEXT
  8
_0-3_
 62
    7
 10
303.1435361858484
 20
-96.397971414445891
 40
10
 41
1
 50
0
  1
品名
  0
LINE
  8
_0-3_
  6
CONTINUOUS
 62
    7
 10
763.33333330012067
 20
-172.00135367935019
 11
763.33333330012067
 21
-82.001353679350046
  0
LINE
  8
_0-3_
  6
CONTINUOUS
 62
    7
 10
1230.0000000001207
 20
-82.001353679350046
 11
295.76393721191187
 21
-82.001353679350046
  0
LINE
  8
_0-3_
  6
CONTINUOUS
 62
    7
 10
1230.0000000001207
 20
-112.00135367935005
 11
295.76393721191187
 21
-112.00135367935005
  0
LINE
  8
_0-3_
  6
CONTINUOUS
 62
    7
 10
1230.0000000001207
 20
-142.00135367935005
 11
295.76393721191187
 21
-142.00135367935005
  0
LINE
  8
_0-3_
  6
CONTINUOUS
 62
    7
 10
295.76393721191187
 20
-172.00135367935005
 11
295.76393721191187
 21
-82.001353679350046
  0
TEXT
  8
_0-3_
 62
    7
 10
769.76611673267166
 20
-97.65079861352163
 40
10
 41
1
 50
0
  1
品番
  0
TEXT
  8
_0-3_
 62
    7
 10
769.76611673267166
 20
-126.84760541025184
 40
10
 41
1
 50
0
  1
縮尺
  0
TEXT
  8
_0-3_
 62
    7
 10
337.91727686287811
 20
-135.47238338108698
 40
15.270385742187502
 41
1
 50
0
  1
ポリッシュ
  0
TEXT
  8
_0-3_
 62
    7
 10
337.91727686287811
 20
-165.72561040232628
 40
15.270385742187502
 41
1
 50
0
  1
ステンレススチール
  0
TEXT
  8
_0-3_
 62
    7
 10
805.64122881175172
 20
-135.00091580972281
 40
15.270385742187502
 41
1
 50
0
  1
1/5
  0
LINE
  8
_0-3_
  6
CONTINUOUS
 62
    7
 10
-169.99999999987921
 20
-172.00135367935005
 11
1230.0000000001207
 21
-172.00135367935019
  0
LINE
  8
_0-3_
  6
CONTINUOUS
 62
    7
 10
1230.0000000001207
 20
-172.00135367935019
 11
1230.0000000001207
 21
802.9986463206501
  0
LINE
  8
_0-3_
  6
CONTINUOUS
 62
    7
 10
1230.0000000001207
 20
802.9986463206501
 11
-169.99999999987921
 21
802.99864632065021
  0
LINE
  8
_0-3_
  6
CONTINUOUS
 62
    7
 10
-169.99999999987921
 20
802.99864632065021
 11
-169.99999999987921
 21
-172.00135367935005
  0
TEXT
  8
_0-3_
 62
    7
 10
-167.22023496641157
 20
-191.8129578821069
 40
12.5
 41
1
 50
0
  1
120718SH
  0
TEXT
  8
_0-3_
 62
    7
 10
337.91727686287811
 20
-104.70437403928486
 40
15.270385742187502
 41
1
 50
0
  1
タオルバー
  0
TEXT
  8
_0-3_
 62
    7
 10
803.94170045940814
 20
-164.33549933780753
 40
15.5
 41
1
 50
0
  1
大洋金物株式会社  ティーエフプラス事業部
  0
LINE
  8
_0-2_ADD_LINE
  6
CONTINUOUS
 62
    7
 10
316.93985148917676
 20
163.09297530136519
 11
345.82377427704245
 21
132.45851173847745
  0
LINE
  8
_0-2_ADD_LINE
  6
CONTINUOUS
 62
    7
 10
345.82377427704245
 20
132.45851173847745
 11
392.57377427704228
 21
132.45851173847745
  0
POINT
  8
_0-2_ADD_LINE
 62
    7
 10
316.93985148917676
 20
163.09297530136519
  0
LINE
  8
_0-2_ADD_LINE
  6
CONTINUOUS
 62
    7
 10
316.93985148917676
 20
102.50164369747857
 11
345.82377427704245
 21
71.867180134590853
  0
LINE
  8
_0-2_ADD_LINE
  6
CONTINUOUS
 62
    7
 10
345.82377427704245
 20
71.867180134590853
 11
392.57377427704228
 21
71.867180134590853
  0
POINT
  8
_0-2_ADD_LINE
 62
    7
 10
316.93985148917676
 20
102.50164369747857
  0
LINE
  8
_0-2_ADD_LINE
  6
CONTINUOUS
 62
    7
 10
984.47136695825998
 20
468.67035296905033
 11
984.47136695825998
 21
441.24229689499384
  0
POINT
  8
_0-2_ADD_LINE
 62
    7
 10
921.47136695826077
 20
509.24944838592114
  0
POINT
  8
_0-2_ADD_LINE
 62
    7
 10
971.47136695825998
 20
509.24944838592114
  0
LINE
  8
_0-2_ADD_LINE
  6
CONTINUOUS
 62
    7
 10
971.47136695825998
 20
509.24944838592114
 11
971.47136695825998
 21
487.01747274733054
  0
LINE
  8
_0-2_ADD_LINE
  6
CONTINUOUS
 62
    7
 10
921.47136695826077
 20
509.24944838592114
 11
971.47136695825998
 21
509.24944838592114
  0
TEXT
  8
_0-2_ADD_LINE
 62
    4
 10
940.22136695826032
 20
511.74944838592114
 40
12.5
 41
1
 50
0
  1
50
  0
LINE
  8
_0-2_ADD_LINE
  6
CONTINUOUS
 62
    7
 10
921.47136695825998
 20
509.24944838592114
 11
921.47136695825998
 21
487.01747274733054
  0
LINE
  8
_0-2_ADD_LINE
  6
CONTINUOUS
 62
    7
 10
855.47136695825998
 20
509.24944838592114
 11
855.47136695825998
 21
476.94185941386945
  0
POINT
  8
_0-2_ADD_LINE
 62
    7
 10
855.47136695825998
 20
538.67927618395368
  0
POINT
  8
_0-2_ADD_LINE
 62
    7
 10
971.47136695825998
 20
538.67927618395368
  0
LINE
  8
_0-2_ADD_LINE
  6
CONTINUOUS
 62
    7
 10
855.47136695825998
 20
538.67927618395368
 11
855.47136695825998
 21
486.94185941386945
  0
LINE
  8
_0-2_ADD_LINE
  6
CONTINUOUS
 62
    7
 10
971.47136695825998
 20
538.67927618395368
 11
971.47136695825998
 21
487.01747274733054
  0
LINE
  8
_0-2_ADD_LINE
  6
CONTINUOUS
 62
    7
 10
855.47136695825998
 20
538.67927618395368
 11
971.47136695825998
 21
538.67927618395368
  0
TEXT
  8
_0-2_ADD_LINE
 62
    4
 10
904.09636695825998
 20
541.17927618395368
 40
12.5
 41
1
 50
0
  1
116
  0
POINT
  8
_0-2_ADD_LINE
 62
    7
 10
824.34245267837719
 20
477.01747274733054
  0
POINT
  8
_0-2_ADD_LINE
 62
    7
 10
824.34245267837719
 20
461.01747274733088
  0
LINE
  8
_0-2_ADD_LINE
  6
CONTINUOUS
 62
    7
 10
824.34245267837719
 20
477.01747274733054
 11
853.47136695826066
 21
477.01747274733054
  0
LINE
  8
_0-2_ADD_LINE
  6
CONTINUOUS
 62
    7
 10
824.34245267837719
 20
461.01747274733088
 11
853.47136695826066
 21
461.01747274733088
  0
LINE
  8
_0-2_ADD_LINE
  6
CONTINUOUS
 62
    7
 10
824.34245267837719
 20
477.01747274733054
 11
824.34245267837719
 21
461.01747274733088
  0
TEXT
  8
_0-2_ADD_LINE
 62
    4
 10
821.84245267837719
 20
462.76747274733066
 40
12.5
 41
1
 50
90
  1
16
  0
TEXT
  8
_0-2_ADD_LINE
 62
    7
 10
822.24030679095767
 20
448.45711576191894
 40
15.270385742187502
 41
1
 50
90
  1
φ
  0
CIRCLE
  8
_0-1_1_5
  6
CONTINUOUS
 62
    7
 10
316.93985148917676
 20
163.09297530136519
 40
1.9998779296875002
  0
CIRCLE
  8
_0-1_1_5
  6
CONTINUOUS
 62
    7
 10
316.93985148917676
 20
102.50164369747857
 40
1.9998779296875002
  0
LINE
  8
_0-1_1_5
  6
STYLE_01
 62
    7
 10
970.2708295509791
 20
467.38438100607868
 11
971.67706224070889
 21
470.88418499467048
  0
LINE
  8
_0-1_1_5
  6
STYLE_01
 62
    7
 10
968.8708295509789
 20
467.38438100607868
 11
970.27706224070869
 21
470.88418499467048
  0
LINE
  8
_0-1_1_5
  6
STYLE_01
 62
    7
 10
967.47082955097903
 20
467.38438100607868
 11
968.87706224070882
 21
470.88418499467048
  0
LINE
  8
_0-1_1_5
  6
STYLE_01
 62
    7
 10
966.07082955097917
 20
467.38438100607868
 11
967.47706224070862
 21
470.88418499467048
  0
LINE
  8
_0-1_1_5
  6
STYLE_01
 62
    7
 10
964.67082955097908
 20
467.38438100607868
 11
966.07706224070876
 21
470.88418499467048
  0
LINE
  8
_0-1_1_5
  6
STYLE_01
 62
    7
 10
963.27082955097922
 20
467.38438100607868
 11
964.67706224070889
 21
470.88418499467048
  0
LINE
  8
_0-1_1_5
  6
STYLE_01
 62
    7
 10
961.87082955097912
 20
467.38438100607868
 11
963.2770622407088
 21
470.88418499467048
  0
LINE
  8
_0-1_1_5
  6
STYLE_01
 62
    7
 10
961.22146496396397
 20
469.25254751332119
 11
961.87706224070894
 21
470.88418499467048
  0
LINE
  8
_0-1_1_5
  6
STYLE_01
 62
    7
 10
959.47136695825975
 20
472.51747274733066
 11
961.22146496396431
 21
470.76737474162655
  0
LINE
  8
_0-1_1_5
  6
STYLE_01
 62
    7
 10
959.47136695825975
 20
465.51747274733077
 11
961.22146496396397
 21
467.26757075303482
  0
LINE
  8
_0-1_1_5
  6
CONTINUOUS
 62
    7
 10
1005.4204141044929
 20
469.01747274733066
 11
999.79548334557398
 21
470.76737474162655
  0
LINE
  8
_0-1_1_5
  6
CONTINUOUS
 62
    7
 10
1005.4204141044929
 20
469.01747274733066
 11
999.79548334557398
 21
467.26757075303482
  0
LINE
  8
_0-1_1_5
  6
CONTINUOUS
 62
    7
 10
961.22146496396397
 20
467.26757075303482
 11
999.79548334557398
 21
467.26757075303482
  0
LINE
  8
_0-1_1_5
  6
CONTINUOUS
 62
    7
 10
961.25828724089047
 20
470.76737474162655
 11
999.79492941692592
 21
470.76737474162655
  0
LINE
  8
_0-1_1_5
  6
STYLE_01
 62
    7
 10
961.22146496396431
 20
470.76737474162655
 11
961.22146496396431
 21
467.26757075303482
  0
CIRCLE
  8
_0-1_1_5
  6
CONTINUOUS
 62
    7
 10
863.47136695826066
 20
469.01747274733077
 40
7.9999999999999636
  0
LINE
  8
_0-1_1_5
  6
CONTINUOUS
 62
    7
 10
971.67082955097897
 20
467.38438100607868
 11
973.07706224070876
 21
470.88418499467048
  0
LINE
  8
_0-1_1_5
  6
CONTINUOUS
 62
    7
 10
973.07706224070876
 20
467.38438100607868
 11
974.48329493043843
 21
470.88418499467048
  0
LINE
  8
_0-1_1_5
  6
CONTINUOUS
 62
    7
 10
974.48329493043843
 20
467.38438100607868
 11
975.88952762016811
 21
470.88418499467048
  0
LINE
  8
_0-1_1_5
  6
CONTINUOUS
 62
    7
 10
975.88952762016811
 20
467.38438100607868
 11
977.2957603098979
 21
470.88418499467048
  0
LINE
  8
_0-1_1_5
  6
CONTINUOUS
 62
    7
 10
977.2957603098979
 20
467.38438100607868
 11
978.70199299962769
 21
470.88418499467048
  0
LINE
  8
_0-1_1_5
  6
CONTINUOUS
 62
    7
 10
978.70199299962769
 20
467.38438100607868
 11
980.10822568935737
 21
470.88418499467048
  0
LINE
  8
_0-1_1_5
  6
CONTINUOUS
 62
    7
 10
984.32692375854663
 20
467.38438100607868
 11
985.73315644827653
 21
470.88418499467048
  0
LINE
  8
_0-1_1_5
  6
CONTINUOUS
 62
    7
 10
982.92069106881684
 20
467.38438100607868
 11
984.32692375854663
 21
470.88418499467048
  0
LINE
  8
_0-1_1_5
  6
CONTINUOUS
 62
    7
 10
985.73315644827653
 20
467.38438100607868
 11
987.13938913800598
 21
470.88418499467048
  0
LINE
  8
_0-1_1_5
  6
CONTINUOUS
 62
    7
 10
987.13938913800598
 20
467.38438100607868
 11
988.54562182773611
 21
470.88418499467048
  0
LINE
  8
_0-1_1_5
  6
CONTINUOUS
 62
    7
 10
988.54562182773611
 20
467.38438100607868
 11
989.95185451746556
 21
470.88418499467048
  0
LINE
  8
_0-1_1_5
  6
CONTINUOUS
 62
    7
 10
989.95185451746556
 20
467.38438100607868
 11
991.35808720719547
 21
470.88418499467048
  0
LINE
  8
_0-1_1_5
  6
CONTINUOUS
 62
    7
 10
991.35808720719547
 20
467.38438100607868
 11
992.76431989692526
 21
470.88418499467048
  0
LINE
  8
_0-1_1_5
  6
CONTINUOUS
 62
    7
 10
992.76431989692526
 20
467.38438100607868
 11
994.17055258665505
 21
470.88418499467048
  0
LINE
  8
_0-1_1_5
  6
CONTINUOUS
 62
    7
 10
980.10822568935737
 20
467.38438100607868
 11
981.51445837908705
 21
470.88418499467048
  0
LINE
  8
_0-1_1_5
  6
CONTINUOUS
 62
    7
 10
994.17055258665505
 20
467.38438100607868
 11
995.57678527638473
 21
470.88418499467048
  0
LINE
  8
_0-1_1_5
  6
CONTINUOUS
 62
    7
 10
996.9830179661144
 20
467.38438100607868
 11
998.38925065584419
 21
470.88418499467048
  0
LINE
  8
_0-1_1_5
  6
CONTINUOUS
 62
    7
 10
998.38925065584419
 20
467.38438100607868
 11
999.79548334557398
 21
470.88418499467048
  0
LINE
  8
_0-1_1_5
  6
CONTINUOUS
 62
    7
 10
995.57678527638473
 20
467.38438100607868
 11
996.9830179661144
 21
470.88418499467048
  0
LINE
  8
_0-1_1_5
  6
CONTINUOUS
 62
    7
 10
981.51445837908705
 20
467.38438100607868
 11
982.92069106881684
 21
470.88418499467048
  0
LINE
  8
_0-1_1_5
  6
CONTINUOUS
 62
    7
 10
863.47136695826066
 20
477.01747274733054
 11
971.47136695825998
 21
477.01747274733054
  0
LINE
  8
_0-1_1_5
  6
CONTINUOUS
 62
    7
 10
971.47136695825998
 20
477.01747274733054
 11
971.47136695825998
 21
461.01747274733088
  0
LINE
  8
_0-1_1_5
  6
CONTINUOUS
 62
    7
 10
971.47136695825998
 20
461.01747274733088
 11
863.47136695826066
 21
461.01747274733088
  0
CIRCLE
  8
_0-1_1_5
  6
STYLE_05
 62
    7
 10
921.47136695826077
 20
469.01747274733066
 40
6.0000000000000009
  0
CIRCLE
  8
_0-1_1_5
  6
CONTINUOUS
 62
    7
 10
863.47136695826066
 20
469.01747274733077
 40
7.5000000000000195
  0
LINE
  8
_0-1_1_5
  6
STYLE_01
 62
    7
 10
966.97136695825975
 20
474.01747274733066
 11
971.47136695825998
 21
474.01747274733066
  0
LINE
  8
_0-1_1_5
  6
STYLE_01
 62
    7
 10
971.47136695825998
 20
474.01747274733066
 11
971.47136695825998
 21
464.01747274733066
  0
LINE
  8
_0-1_1_5
  6
STYLE_01
 62
    7
 10
971.47136695825998
 20
464.01747274733066
 11
966.97136695825975
 21
464.01747274733066
  0
LINE
  8
_0-1_1_5
  6
STYLE_01
 62
    7
 10
963.97136695825998
 20
464.01747274733066
 11
959.47136695825975
 21
464.01747274733066
  0
LINE
  8
_0-1_1_5
  6
STYLE_01
 62
    7
 10
959.47136695825975
 20
464.01747274733066
 11
959.47136695825975
 21
474.01747274733066
  0
LINE
  8
_0-1_1_5
  6
STYLE_01
 62
    7
 10
959.47136695825975
 20
474.01747274733066
 11
963.97136695825998
 21
474.01747274733066
  0
LINE
  8
_0-1_1_5
  6
STYLE_01
 62
    7
 10
963.97136695825998
 20
464.01747274733066
 11
965.47136695825975
 21
465.51747274733066
  0
LINE
  8
_0-1_1_5
  6
STYLE_01
 62
    7
 10
966.97136695825975
 20
464.01747274733066
 11
965.47136695825975
 21
465.51747274733066
  0
LINE
  8
_0-1_1_5
  6
STYLE_01
 62
    7
 10
963.97136695825998
 20
474.01747274733066
 11
965.47136695825975
 21
472.51747274733071
  0
LINE
  8
_0-1_1_5
  6
STYLE_01
 62
    7
 10
966.97136695825975
 20
474.01747274733066
 11
965.47136695825975
 21
472.51747274733077
  0
LINE
  8
_0-1_1_5
  6
STYLE_01
 62
    7
 10
963.97136695825998
 20
474.01747274733066
 11
963.97136695825998
 21
464.01747274733066
  0
LINE
  8
_0-1_1_5
  6
STYLE_01
 62
    7
 10
966.97136695825975
 20
464.01747274733066
 11
966.97136695825975
 21
474.01747274733066
  0
LINE
  8
_0-2_ADD_LINE
  6
CONTINUOUS
 62
    7
 10
529.20860474941321
 20
471.45632493202243
 11
529.20860474941321
 21
491.32275855926832
  0
POINT
  8
_0-2_ADD_LINE
 62
    7
 10
529.20860474941321
 20
509.24944838592114
  0
LINE
  8
_0-2_ADD_LINE
  6
CONTINUOUS
 62
    7
 10
529.20860474941321
 20
509.24944838592114
 11
529.20860474941321
 21
486.95632493202208
  0
POINT
  8
_0-2_ADD_LINE
 62
    7
 10
537.20860474941333
 20
538.67927618395368
  0
LINE
  8
_0-2_ADD_LINE
  6
CONTINUOUS
 62
    7
 10
537.20860474941333
 20
538.67927618395368
 11
537.20860474941333
 21
486.45632493202208
  0
POINT
  8
_0-2_ADD_LINE
 62
    7
 10
567.20860474941333
 20
218.58307393488724
  0
POINT
  8
_0-2_ADD_LINE
 62
    7
 10
567.20860474941333
 20
102.70057676696204
  0
LINE
  8
_0-2_ADD_LINE
  6
CONTINUOUS
 62
    7
 10
567.20860474941333
 20
218.58307393488724
 11
547.20860474941333
 21
218.58307393488724
  0
LINE
  8
_0-2_ADD_LINE
  6
CONTINUOUS
 62
    7
 10
567.20860474941333
 20
102.70057676696204
 11
546.70860474941321
 21
102.70057676696204
  0
LINE
  8
_0-2_ADD_LINE
  6
CONTINUOUS
 62
    7
 10
567.20860474941333
 20
218.58307393488724
 11
567.20860474941333
 21
102.70057676696204
  0
TEXT
  8
_0-2_ADD_LINE
 62
    4
 10
564.70860474941333
 20
151.26682535092465
 40
12.5
 41
1
 50
90
  1
116
  0
LINE
  8
_0-1_1_5
  6
STYLE_05
 62
    7
 10
521.20860474941333
 20
476.95632493202208
 11
521.20860474941333
 21
460.95632493202277
  0
LINE
  8
_0-1_1_5
  6
CONTINUOUS
 62
    7
 10
529.20860474941321
 20
471.45632493202243
 11
529.20860474941321
 21
466.45632493202243
  0
LINE
  8
_0-1_1_5
  6
CONTINUOUS
 62
    7
 10
526.70860474941321
 20
468.95632493202243
 11
531.70860474941321
 21
468.95632493202243
  0
LINE
  8
_0-1_1_5
  6
CONTINUOUS
 62
    7
 10
536.70860474941321
 20
476.95632493202208
 11
537.20860474941333
 21
476.45632493202208
  0
LINE
  8
_0-1_1_5
  6
CONTINUOUS
 62
    7
 10
537.20860474941333
 20
476.45632493202208
 11
537.20860474941333
 21
461.45632493202277
  0
LINE
  8
_0-1_1_5
  6
CONTINUOUS
 62
    7
 10
537.20860474941333
 20
461.45632493202277
 11
536.70860474941321
 21
460.95632493202277
  0
LINE
  8
_0-1_1_5
  6
CONTINUOUS
 62
    7
 10
521.20860474941333
 20
218.70057676696203
 11
537.20860474941333
 21
218.70057676696203
  0
LINE
  8
_0-1_1_5
  6
CONTINUOUS
 62
    7
 10
537.20860474941333
 20
218.70057676696203
 11
537.20860474941333
 21
110.70057676696202
  0
LINE
  8
_0-1_1_5
  6
CONTINUOUS
 62
    7
 10
537.20860474941333
 20
110.70057676696202
 11
521.20860474941333
 21
110.70057676696202
  0
LINE
  8
_0-1_1_5
  6
CONTINUOUS
 62
    7
 10
521.20860474941333
 20
110.70057676696202
 11
521.20860474941333
 21
218.70057676696203
  0
LINE
  8
_0-1_1_5
  6
CONTINUOUS
 62
    7
 10
537.20860474941333
 20
118.20057676696145
 11
537.20860474941333
 21
103.20057676696202
  0
LINE
  8
_0-1_1_5
  6
CONTINUOUS
 62
    7
 10
530.95850674370922
 20
217.99746042209716
 11
527.45870275511743
 21
219.40369311182684
  0
LINE
  8
_0-1_1_5
  6
CONTINUOUS
 62
    7
 10
530.95850674370922
 20
219.40369311182684
 11
527.45870275511743
 21
220.80992580155663
  0
LINE
  8
_0-1_1_5
  6
CONTINUOUS
 62
    7
 10
530.95850674370922
 20
220.80992580155663
 11
527.45870275511743
 21
222.21615849128631
  0
LINE
  8
_0-1_1_5
  6
CONTINUOUS
 62
    7
 10
530.95850674370922
 20
222.21615849128631
 11
527.45870275511743
 21
223.62239118101604
  0
LINE
  8
_0-1_1_5
  6
CONTINUOUS
 62
    7
 10
530.95850674370922
 20
223.62239118101604
 11
527.45870275511743
 21
225.02862387074583
  0
LINE
  8
_0-1_1_5
  6
CONTINUOUS
 62
    7
 10
530.95850674370922
 20
225.02862387074583
 11
527.45870275511743
 21
226.43485656047551
  0
LINE
  8
_0-1_1_5
  6
CONTINUOUS
 62
    7
 10
530.95850674370922
 20
230.65355462966482
 11
527.45870275511743
 21
232.05978731939462
  0
LINE
  8
_0-1_1_5
  6
CONTINUOUS
 62
    7
 10
530.95850674370922
 20
229.24732193993506
 11
527.45870275511743
 21
230.65355462966482
  0
LINE
  8
_0-1_1_5
  6
CONTINUOUS
 62
    7
 10
530.95850674370922
 20
232.05978731939462
 11
527.45870275511743
 21
233.46602000912429
  0
LINE
  8
_0-1_1_5
  6
CONTINUOUS
 62
    7
 10
530.95850674370922
 20
233.46602000912429
 11
527.45870275511743
 21
234.87225269885408
  0
LINE
  8
_0-1_1_5
  6
CONTINUOUS
 62
    7
 10
530.95850674370922
 20
234.87225269885408
 11
527.45870275511743
 21
236.27848538858382
  0
LINE
  8
_0-1_1_5
  6
CONTINUOUS
 62
    7
 10
530.95850674370922
 20
236.27848538858382
 11
527.45870275511743
 21
237.68471807831358
  0
LINE
  8
_0-1_1_5
  6
CONTINUOUS
 62
    7
 10
530.95850674370922
 20
237.68471807831358
 11
527.45870275511743
 21
239.09095076804337
  0
LINE
  8
_0-1_1_5
  6
CONTINUOUS
 62
    7
 10
530.95850674370922
 20
239.09095076804337
 11
527.45870275511743
 21
240.49718345777308
  0
LINE
  8
_0-1_1_5
  6
CONTINUOUS
 62
    7
 10
530.95850674370922
 20
226.43485656047551
 11
527.45870275511743
 21
227.84108925020533
  0
LINE
  8
_0-1_1_5
  6
CONTINUOUS
 62
    7
 10
530.95850674370922
 20
240.49718345777308
 11
527.45870275511743
 21
241.90341614750284
  0
LINE
  8
_0-1_1_5
  6
CONTINUOUS
 62
    7
 10
530.95850674370922
 20
243.3096488372326
 11
527.45870275511743
 21
244.71588152696242
  0
LINE
  8
_0-1_1_5
  6
CONTINUOUS
 62
    7
 10
530.95850674370922
 20
244.71588152696242
 11
527.45870275511743
 21
246.12211421669213
  0
LINE
  8
_0-1_1_5
  6
CONTINUOUS
 62
    7
 10
530.95850674370922
 20
241.90341614750284
 11
527.45870275511743
 21
243.3096488372326
  0
LINE
  8
_0-1_1_5
  6
CONTINUOUS
 62
    7
 10
529.20860474941321
 20
251.74704497561123
 11
527.45870275511743
 21
246.12211421669213
  0
LINE
  8
_0-1_1_5
  6
CONTINUOUS
 62
    7
 10
529.20860474941321
 20
251.74704497561123
 11
530.95850674370922
 21
246.12211421669213
  0
LINE
  8
_0-1_1_5
  6
CONTINUOUS
 62
    7
 10
530.95850674370922
 20
227.84108925020533
 11
527.45870275511743
 21
229.24732193993506
  0
LINE
  8
_0-1_1_5
  6
CONTINUOUS
 62
    7
 10
530.95850674370922
 20
217.79799782937798
 11
530.95850674370922
 21
246.12211421669213
  0
LINE
  8
_0-1_1_5
  6
CONTINUOUS
 62
    7
 10
527.45870275511743
 20
217.79799782937798
 11
527.45870275511743
 21
246.12156028804404
  0
LINE
  8
_0-1_1_5
  6
CONTINUOUS
 62
    7
 10
536.70860474941321
 20
102.70057676696204
 11
537.20860474941333
 21
103.20057676696202
  0
LINE
  8
_0-1_1_5
  6
CONTINUOUS
 62
    7
 10
537.20860474941333
 20
208.70057676696203
 11
537.20860474941333
 21
218.70057676696203
  0
LINE
  8
_0-2_ADD_LINE
  6
CONTINUOUS
 62
    7
 10
95.208604749413155
 20
471.45632493202243
 11
95.208604749413155
 21
499.03183851035885
  0
POINT
  8
_0-2_ADD_LINE
 62
    7
 10
95.208604749413155
 20
509.24944838592114
  0
LINE
  8
_0-2_ADD_LINE
  6
CONTINUOUS
 62
    7
 10
95.208604749413155
 20
509.24944838592114
 11
95.208604749413155
 21
486.95632493202208
  0
POINT
  8
_0-2_ADD_LINE
 62
    7
 10
87.208604749413325
 20
538.67927618395368
  0
LINE
  8
_0-2_ADD_LINE
  6
CONTINUOUS
 62
    7
 10
87.208604749413325
 20
538.67927618395368
 11
87.208604749413325
 21
486.45632493202208
  0
POINT
  8
_0-2_ADD_LINE
 62
    7
 10
87.208604749413325
 20
277.8940698796805
  0
POINT
  8
_0-2_ADD_LINE
 62
    7
 10
103.20860474941327
 20
277.8940698796805
  0
LINE
  8
_0-2_ADD_LINE
  6
CONTINUOUS
 62
    7
 10
87.208604749413325
 20
277.8940698796805
 11
87.208604749413325
 21
228.70057676696203
  0
LINE
  8
_0-2_ADD_LINE
  6
CONTINUOUS
 62
    7
 10
103.20860474941327
 20
277.8940698796805
 11
103.20860474941327
 21
228.70057676696203
  0
LINE
  8
_0-2_ADD_LINE
  6
CONTINUOUS
 62
    7
 10
87.208604749413325
 20
277.8940698796805
 11
103.20860474941327
 21
277.8940698796805
  0
TEXT
  8
_0-2_ADD_LINE
 62
    4
 10
88.958604749413297
 20
280.3940698796805
 40
12.5
 41
1
 50
0
  1
16
  0
LINE
  8
_0-1_1_5
  6
STYLE_05
 62
    7
 10
103.20860474941327
 20
476.95632493202208
 11
103.20860474941327
 21
460.95632493202277
  0
LINE
  8
_0-1_1_5
  6
CONTINUOUS
 62
    7
 10
95.208604749413155
 20
471.45632493202243
 11
95.208604749413155
 21
466.45632493202243
  0
LINE
  8
_0-1_1_5
  6
CONTINUOUS
 62
    7
 10
92.708604749413155
 20
468.95632493202243
 11
97.708604749413155
 21
468.95632493202243
  0
LINE
  8
_0-1_1_5
  6
CONTINUOUS
 62
    7
 10
87.708604749413155
 20
476.95632493202208
 11
87.208604749413325
 21
476.45632493202208
  0
LINE
  8
_0-1_1_5
  6
CONTINUOUS
 62
    7
 10
87.208604749413325
 20
476.45632493202208
 11
87.208604749413325
 21
461.45632493202277
  0
LINE
  8
_0-1_1_5
  6
CONTINUOUS
 62
    7
 10
87.208604749413325
 20
461.45632493202277
 11
87.708604749413155
 21
460.95632493202277
  0
LINE
  8
_0-1_1_5
  6
CONTINUOUS
 62
    7
 10
95.208604749413155
 20
218.70057676696203
 11
93.458702755117429
 21
219.40369311182684
  0
LINE
  8
_0-1_1_5
  6
CONTINUOUS
 62
    7
 10
96.958506743709165
 20
219.40369311182684
 11
93.458702755117429
 21
220.80992580155663
  0
LINE
  8
_0-1_1_5
  6
CONTINUOUS
 62
    7
 10
96.958506743709165
 20
220.80992580155663
 11
93.458702755117429
 21
222.21615849128631
  0
LINE
  8
_0-1_1_5
  6
CONTINUOUS
 62
    7
 10
96.958506743709165
 20
222.21615849128631
 11
93.458702755117429
 21
223.62239118101604
  0
LINE
  8
_0-1_1_5
  6
CONTINUOUS
 62
    7
 10
96.958506743709165
 20
223.62239118101604
 11
93.458702755117429
 21
225.02862387074583
  0
LINE
  8
_0-1_1_5
  6
CONTINUOUS
 62
    7
 10
96.958506743709165
 20
225.02862387074583
 11
93.458702755117429
 21
226.43485656047551
  0
LINE
  8
_0-1_1_5
  6
CONTINUOUS
 62
    7
 10
96.958506743709165
 20
230.65355462966482
 11
93.458702755117429
 21
232.05978731939462
  0
LINE
  8
_0-1_1_5
  6
CONTINUOUS
 62
    7
 10
96.958506743709165
 20
229.24732193993506
 11
93.458702755117429
 21
230.65355462966482
  0
LINE
  8
_0-1_1_5
  6
CONTINUOUS
 62
    7
 10
96.958506743709165
 20
232.05978731939462
 11
93.458702755117429
 21
233.46602000912429
  0
LINE
  8
_0-1_1_5
  6
CONTINUOUS
 62
    7
 10
96.958506743709165
 20
233.46602000912429
 11
93.458702755117429
 21
234.87225269885408
  0
LINE
  8
_0-1_1_5
  6
CONTINUOUS
 62
    7
 10
96.958506743709165
 20
234.87225269885408
 11
93.458702755117429
 21
236.27848538858382
  0
LINE
  8
_0-1_1_5
  6
CONTINUOUS
 62
    7
 10
96.958506743709165
 20
236.27848538858382
 11
93.458702755117429
 21
237.68471807831358
  0
LINE
  8
_0-1_1_5
  6
CONTINUOUS
 62
    7
 10
96.958506743709165
 20
237.68471807831358
 11
93.458702755117429
 21
239.09095076804337
  0
LINE
  8
_0-1_1_5
  6
CONTINUOUS
 62
    7
 10
96.958506743709165
 20
239.09095076804337
 11
93.458702755117429
 21
240.49718345777308
  0
LINE
  8
_0-1_1_5
  6
CONTINUOUS
 62
    7
 10
96.958506743709165
 20
226.43485656047551
 11
93.458702755117429
 21
227.84108925020533
  0
LINE
  8
_0-1_1_5
  6
CONTINUOUS
 62
    7
 10
96.958506743709165
 20
240.49718345777308
 11
93.458702755117429
 21
241.90341614750284
  0
LINE
  8
_0-1_1_5
  6
CONTINUOUS
 62
    7
 10
96.958506743709165
 20
243.3096488372326
 11
93.458702755117429
 21
244.71588152696242
  0
LINE
  8
_0-1_1_5
  6
CONTINUOUS
 62
    7
 10
96.958506743709165
 20
244.71588152696242
 11
93.458702755117429
 21
246.12211421669213
  0
LINE
  8
_0-1_1_5
  6
CONTINUOUS
 62
    7
 10
96.958506743709165
 20
241.90341614750284
 11
93.458702755117429
 21
243.3096488372326
  0
LINE
  8
_0-1_1_5
  6
CONTINUOUS
 62
    7
 10
95.208604749413155
 20
251.74704497561123
 11
93.458702755117429
 21
246.12211421669213
  0
LINE
  8
_0-1_1_5
  6
CONTINUOUS
 62
    7
 10
95.208604749413155
 20
251.74704497561123
 11
96.958506743709165
 21
246.12211421669213
  0
LINE
  8
_0-1_1_5
  6
CONTINUOUS
 62
    7
 10
96.958506743709165
 20
227.84108925020533
 11
93.458702755117429
 21
229.24732193993506
  0
LINE
  8
_0-1_1_5
  6
CONTINUOUS
 62
    7
 10
96.958506743709165
 20
218.70057676696203
 11
96.958506743709165
 21
246.12211421669213
  0
LINE
  8
_0-1_1_5
  6
CONTINUOUS
 62
    7
 10
93.458702755117429
 20
218.70057676696203
 11
93.458702755117429
 21
246.12156028804404
  0
LINE
  8
_0-1_1_5
  6
CONTINUOUS
 62
    7
 10
87.208604749413325
 20
218.70057676696203
 11
103.20860474941327
 21
218.70057676696203
  0
LINE
  8
_0-1_1_5
  6
CONTINUOUS
 62
    7
 10
103.20860474941327
 20
218.70057676696203
 11
103.20860474941327
 21
110.70057676696202
  0
LINE
  8
_0-1_1_5
  6
CONTINUOUS
 62
    7
 10
103.20860474941327
 20
110.70057676696202
 11
87.208604749413325
 21
110.70057676696202
  0
LINE
  8
_0-1_1_5
  6
CONTINUOUS
 62
    7
 10
87.208604749413325
 20
110.70057676696202
 11
87.208604749413325
 21
218.70057676696203
  0
LINE
  8
_0-1_1_5
  6
CONTINUOUS
 62
    7
 10
87.208604749413325
 20
118.20057676696145
 11
87.208604749413325
 21
103.20057676696202
  0
LINE
  8
_0-1_1_5
  6
CONTINUOUS
 62
    7
 10
87.708604749413155
 20
102.70057676696204
 11
87.208604749413325
 21
103.20057676696202
  0
LINE
  8
_0-1_1_5
  6
CONTINUOUS
 62
    7
 10
308.51236048592312
 20
102.70057676696204
 11
87.708604749413155
 21
102.70057676696204
  0
LINE
  8
_0-1_1_5
  6
CONTINUOUS
 62
    7
 10
87.708604749413155
 20
476.95632493202208
 11
536.70860474941321
 21
476.95632493202208
  0
LINE
  8
_0-1_1_5
  6
CONTINUOUS
 62
    7
 10
87.708604749413155
 20
460.95632493202277
 11
536.70860474941321
 21
460.95632493202277
  0
LINE
  8
_0-1_1_5
  6
CONTINUOUS
 62
    7
 10
308.42596617651196
 20
102.70057676696204
 11
536.70860474941321
 21
102.70057676696204
  0
LINE
  8
_0-2_ADD_LINE
  6
CONTINUOUS
 62
    7
 10
87.208604749413325
 20
538.67927618395368
 11
537.20860474941333
 21
538.67927618395368
  0
TEXT
  8
_0-2_ADD_LINE
 62
    4
 10
302.83360474941333
 20
541.17927618395368
 40
12.5
 41
1
 50
0
  1
450
  0
LINE
  8
_0-2_ADD_LINE
  6
CONTINUOUS
 62
    7
 10
95.208604749413155
 20
509.24944838592114
 11
529.20860474941321
 21
509.24944838592114
  0
TEXT
  8
_0-2_ADD_LINE
 62
    4
 10
302.83360474941321
 20
511.74944838592114
 40
12.5
 41
1
 50
0
  1
434
  0
LINE
  8
_0-1_1_5
  6
CONTINUOUS
 62
    7
 10
103.20860474941327
 20
174.700576766962
 11
319.20860474941207
 21
174.700576766962
  0
LINE
  8
_0-1_1_5
  6
CONTINUOUS
 62
    7
 10
103.20860474941327
 20
162.70057676696206
 11
317.20860474941219
 21
162.70057676696206
  0
LINE
  8
_0-1_1_5
  6
CONTINUOUS
 62
    7
 10
318.95720612756065
 20
174.700576766962
 11
521.20860474941333
 21
174.700576766962
  0
LINE
  8
_0-1_1_5
  6
CONTINUOUS
 62
    7
 10
317.2019994690524
 20
162.70057676696206
 11
521.20860474941333
 21
162.70057676696206
  0
LINE
  8
_0-1_1_5
  6
CONTINUOUS
 62
    7
 10
310.76624172118954
 20
118.70057676696199
 11
521.20860474941333
 21
118.70057676696199
  0
LINE
  8
_0-1_1_5
  6
CONTINUOUS
 62
    7
 10
310.8610715017241
 20
118.70057676696199
 11
103.20860474941327
 21
118.70057676696199
  0
TEXT
  8
_0-3_
 62
    7
 10
804.83041738030101
 20
-104.51409794816072
 40
15.270385742187502
 41
1
 50
0
  1
TFP40-D245-003
  0
TEXT
  8
_0-2_ADD_LINE
 62
    4
 10
352.19086170083983
 20
133.87761026197461
 40
12.5
 41
1
 50
0
  1
φ12
  0
TEXT
  8
_0-2_ADD_LINE
 62
    4
 10
352.19086170083983
 20
74.104808540588039
 40
12.5
 41
1
 50
0
  1
φ16
  0
TEXT
  8
_0-2_ADD_LINE
 62
    4
 10
927.47539377765008
 20
414.3859125993518
 40
12.5
 41
1
 50
0
  1
タッピングビス
  0
TEXT
  8
_0-2_ADD_LINE
 62
    4
 10
927.47539377765008
 20
389.3859125993518
 40
12.5
 41
1
 50
0
  1
3.5x45
  0
ENDSEC
  0
EOF
