  0
SECTION
  2
HEADER
  9
$ACADVER
  1
AC1021
  9
$ACADMAINTVER
 70
    25
  9
$DWGCODEPAGE
  3
ANSI_932
  9
$LASTSAVEDBY
  1
Shimosaki
  9
$INSBASE
 10
0.0
 20
0.0
 30
0.0
  9
$EXTMIN
 10
14.44042890944974
 20
12.75842966491423
 30
0.0
  9
$EXTMAX
 10
404.4404289095462
 20
579.4293347012853
 30
0.0
  9
$LIMMIN
 10
0.0
 20
0.0
  9
$LIMMAX
 10
420.0000000000001
 20
594.0000000000001
  9
$ORTHOMODE
 70
     0
  9
$REGENMODE
 70
     1
  9
$FILLMODE
 70
     1
  9
$QTEXTMODE
 70
     0
  9
$MIRRTEXT
 70
     1
  9
$LTSCALE
 40
50.8
  9
$ATTMODE
 70
     1
  9
$TEXTSIZE
 40
2.5
  9
$TRACEWID
 40
1.0
  9
$TEXTSTYLE
  7
ＭＳ ゴシック
  9
$CLAYER
  8
MODEL
  9
$CELTYPE
  6
ByLayer
  9
$CECOLOR
 62
   256
  9
$CELTSCALE
 40
1.0
  9
$DISPSILH
 70
     0
  9
$DIMSCALE
 40
1.0
  9
$DIMASZ
 40
2.0
  9
$DIMEXO
 40
5.0
  9
$DIMDLI
 40
0.0
  9
$DIMRND
 40
0.0
  9
$DIMDLE
 40
0.0
  9
$DIMEXE
 40
0.0
  9
$DIMTP
 40
0.0
  9
$DIMTM
 40
0.0
  9
$DIMTXT
 40
6.0
  9
$DIMCEN
 40
0.0
  9
$DIMTSZ
 40
0.0
  9
$DIMTOL
 70
     0
  9
$DIMLIM
 70
     0
  9
$DIMTIH
 70
     0
  9
$DIMTOH
 70
     0
  9
$DIMSE1
 70
     0
  9
$DIMSE2
 70
     0
  9
$DIMTAD
 70
     1
  9
$DIMZIN
 70
    11
  9
$DIMBLK
  1
DOT
  9
$DIMASO
 70
     1
  9
$DIMSHO
 70
     1
  9
$DIMPOST
  1
<>
  9
$DIMAPOST
  1
[]
  9
$DIMALT
 70
     0
  9
$DIMALTD
 70
     1
  9
$DIMALTF
 40
1.0
  9
$DIMLFAC
 40
1.0
  9
$DIMTOFL
 70
     0
  9
$DIMTVP
 40
0.0
  9
$DIMTIX
 70
     1
  9
$DIMSOXD
 70
     0
  9
$DIMSAH
 70
     0
  9
$DIMBLK1
  1

  9
$DIMBLK2
  1

  9
$DIMSTYLE
  2
tfrom線あり
  9
$DIMCLRD
 70
     0
  9
$DIMCLRE
 70
     0
  9
$DIMCLRT
 70
     0
  9
$DIMTFAC
 40
1.0
  9
$DIMGAP
 40
5.0
  9
$DIMJUST
 70
     0
  9
$DIMSD1
 70
     0
  9
$DIMSD2
 70
     0
  9
$DIMTOLJ
 70
     1
  9
$DIMTZIN
 70
    11
  9
$DIMALTZ
 70
    11
  9
$DIMALTTZ
 70
    11
  9
$DIMUPT
 70
     0
  9
$DIMDEC
 70
     0
  9
$DIMTDEC
 70
     1
  9
$DIMALTU
 70
     2
  9
$DIMALTTD
 70
     2
  9
$DIMTXSTY
  7
ＭＳ ゴシック
  9
$DIMAUNIT
 70
     0
  9
$DIMADEC
 70
     2
  9
$DIMALTRND
 40
0.0
  9
$DIMAZIN
 70
     0
  9
$DIMDSEP
 70
    46
  9
$DIMATFIT
 70
     0
  9
$DIMFRAC
 70
     2
  9
$DIMLDRBLK
  1
DOT
  9
$DIMLUNIT
 70
     2
  9
$DIMLWD
 70
    -2
  9
$DIMLWE
 70
    -2
  9
$DIMTMOVE
 70
     0
  9
$DIMFXL
 40
1.0
  9
$DIMFXLON
 70
     0
  9
$DIMJOGANG
 40
0.7853981633974483
  9
$DIMTFILL
 70
     0
  9
$DIMTFILLCLR
 70
     0
  9
$DIMARCSYM
 70
     0
  9
$DIMLTYPE
  6

  9
$DIMLTEX1
  6

  9
$DIMLTEX2
  6

  9
$LUNITS
 70
     2
  9
$LUPREC
 70
     0
  9
$SKETCHINC
 40
0.1
  9
$FILLETRAD
 40
0.0
  9
$AUNITS
 70
     0
  9
$AUPREC
 70
     0
  9
$MENU
  1
acad
  9
$ELEVATION
 40
0.0
  9
$PELEVATION
 40
0.0
  9
$THICKNESS
 40
0.0
  9
$LIMCHECK
 70
     0
  9
$CHAMFERA
 40
0.0
  9
$CHAMFERB
 40
0.0
  9
$CHAMFERC
 40
0.0
  9
$CHAMFERD
 40
0.0
  9
$SKPOLY
 70
     0
  9
$TDCREATE
 40
2447893.375
  9
$TDUCREATE
 40
0.0
  9
$TDUPDATE
 40
2457218.468637211
  9
$TDUUPDATE
 40
2457218.093637211
  9
$TDINDWG
 40
0.1151161806
  9
$TDUSRTIMER
 40
2457218.09118559
  9
$USRTIMER
 70
     1
  9
$ANGBASE
 50
0.0
  9
$ANGDIR
 70
     0
  9
$PDMODE
 70
     1
  9
$PDSIZE
 40
-2.0
  9
$PLINEWID
 40
0.0
  9
$SPLFRAME
 70
     0
  9
$SPLINETYPE
 70
     6
  9
$SPLINESEGS
 70
     8
  9
$HANDSEED
  5
1393
  9
$SURFTAB1
 70
     6
  9
$SURFTAB2
 70
     6
  9
$SURFTYPE
 70
     6
  9
$SURFU
 70
     6
  9
$SURFV
 70
     6
  9
$UCSBASE
  2

  9
$UCSNAME
  2

  9
$UCSORG
 10
0.0
 20
0.0
 30
0.0
  9
$UCSXDIR
 10
1.0
 20
0.0
 30
0.0
  9
$UCSYDIR
 10
0.0
 20
1.0
 30
0.0
  9
$UCSORTHOREF
  2

  9
$UCSORTHOVIEW
 70
     0
  9
$UCSORGTOP
 10
0.0
 20
0.0
 30
0.0
  9
$UCSORGBOTTOM
 10
0.0
 20
0.0
 30
0.0
  9
$UCSORGLEFT
 10
0.0
 20
0.0
 30
0.0
  9
$UCSORGRIGHT
 10
0.0
 20
0.0
 30
0.0
  9
$UCSORGFRONT
 10
0.0
 20
0.0
 30
0.0
  9
$UCSORGBACK
 10
0.0
 20
0.0
 30
0.0
  9
$PUCSBASE
  2

  9
$PUCSNAME
  2

  9
$PUCSORG
 10
0.0
 20
0.0
 30
0.0
  9
$PUCSXDIR
 10
1.0
 20
0.0
 30
0.0
  9
$PUCSYDIR
 10
0.0
 20
1.0
 30
0.0
  9
$PUCSORTHOREF
  2

  9
$PUCSORTHOVIEW
 70
     0
  9
$PUCSORGTOP
 10
0.0
 20
0.0
 30
0.0
  9
$PUCSORGBOTTOM
 10
0.0
 20
0.0
 30
0.0
  9
$PUCSORGLEFT
 10
0.0
 20
0.0
 30
0.0
  9
$PUCSORGRIGHT
 10
0.0
 20
0.0
 30
0.0
  9
$PUCSORGFRONT
 10
0.0
 20
0.0
 30
0.0
  9
$PUCSORGBACK
 10
0.0
 20
0.0
 30
0.0
  9
$USERI1
 70
     0
  9
$USERI2
 70
     0
  9
$USERI3
 70
     0
  9
$USERI4
 70
     0
  9
$USERI5
 70
     0
  9
$USERR1
 40
0.0
  9
$USERR2
 40
0.0
  9
$USERR3
 40
0.0
  9
$USERR4
 40
0.0
  9
$USERR5
 40
0.0
  9
$WORLDVIEW
 70
     1
  9
$SHADEDGE
 70
     3
  9
$SHADEDIF
 70
    70
  9
$TILEMODE
 70
     1
  9
$MAXACTVP
 70
    64
  9
$PINSBASE
 10
0.0
 20
0.0
 30
0.0
  9
$PLIMCHECK
 70
     0
  9
$PEXTMIN
 10
0.0
 20
0.0
 30
0.0
  9
$PEXTMAX
 10
0.0
 20
0.0
 30
0.0
  9
$PLIMMIN
 10
-7.5
 20
-20.0
  9
$PLIMMAX
 10
412.5
 20
277.0
  9
$UNITMODE
 70
     0
  9
$VISRETAIN
 70
     0
  9
$PLINEGEN
 70
     1
  9
$PSLTSCALE
 70
     0
  9
$TREEDEPTH
 70
  3020
  9
$CMLSTYLE
  2
Standard
  9
$CMLJUST
 70
     0
  9
$CMLSCALE
 40
1.0
  9
$PROXYGRAPHICS
 70
     0
  9
$MEASUREMENT
 70
     1
  9
$CELWEIGHT
370
    -1
  9
$ENDCAPS
280
     0
  9
$JOINSTYLE
280
     0
  9
$LWDISPLAY
290
     1
  9
$INSUNITS
 70
     4
  9
$HYPERLINKBASE
  1

  9
$STYLESHEET
  1

  9
$XEDIT
290
     1
  9
$CEPSNTYPE
380
     0
  9
$PSTYLEMODE
290
     1
  9
$FINGERPRINTGUID
  2

  9
$VERSIONGUID
  2

  9
$EXTNAMES
290
     1
  9
$PSVPSCALE
 40
0.0
  9
$OLESTARTUP
290
     0
  9
$SORTENTS
280
   127
  9
$INDEXCTL
280
     0
  9
$HIDETEXT
280
     1
  9
$XCLIPFRAME
290
     0
  9
$HALOGAP
280
     0
  9
$OBSCOLOR
 70
   257
  9
$OBSLTYPE
280
     0
  9
$INTERSECTIONDISPLAY
280
     0
  9
$INTERSECTIONCOLOR
 70
   257
  9
$DIMASSOC
280
     2
  9
$PROJECTNAME
  1

  9
$CAMERADISPLAY
290
     0
  9
$LENSLENGTH
 40
50.0
  9
$CAMERAHEIGHT
 40
0.0
  9
$STEPSPERSEC
 40
2.0
  9
$STEPSIZE
 40
6.0
  9
$3DDWFPREC
 40
2.0
  9
$PSOLWIDTH
 40
0.25
  9
$PSOLHEIGHT
 40
4.0
  9
$LOFTANG1
 40
1.570796326794897
  9
$LOFTANG2
 40
1.570796326794897
  9
$LOFTMAG1
 40
0.0
  9
$LOFTMAG2
 40
0.0
  9
$LOFTPARAM
 70
     7
  9
$LOFTNORMALS
280
     1
  9
$LATITUDE
 40
37.795
  9
$LONGITUDE
 40
-122.394
  9
$NORTHDIRECTION
 40
0.0
  9
$TIMEZONE
 70
 -8000
  9
$LIGHTGLYPHDISPLAY
280
     1
  9
$TILEMODELIGHTSYNCH
280
     1
  9
$SOLIDHIST
280
     1
  9
$SHOWHIST
280
     1
  9
$DWFFRAME
280
     2
  9
$DGNFRAME
280
     2
  9
$REALWORLDSCALE
290
     1
  9
$INTERFERECOLOR
 62
   256
  9
$CSHADOW
280
     0
  9
$SHADOWPLANELOCATION
 40
0.0
  0
ENDSEC
  0
SECTION
  2
CLASSES
  0
CLASS
  1
LWPOLYLINE
  2
AcDbPolyline
  3
ObjectDBX Classes
 90
        0
 91
        1
280
     0
281
     1
  0
CLASS
  1
IMAGE
  2
AcDbRasterImage
  3
ISM
 90
      127
 91
        5
280
     0
281
     1
  0
CLASS
  1
OLE2FRAME
  2
AcDbOle2Frame
  3
ObjectDBX Classes
 90
        0
 91
        1
280
     0
281
     1
  0
CLASS
  1
HATCH
  2
AcDbHatch
  3
ObjectDBX Classes
 90
        0
 91
        1
280
     0
281
     1
  0
CLASS
  1
DICTIONARYVAR
  2
AcDbDictionaryVar
  3
ObjectDBX Classes
 90
        0
 91
        4
280
     0
281
     0
  0
CLASS
  1
RASTERVARIABLES
  2
AcDbRasterVariables
  3
ISM
 90
        0
 91
        5
280
     0
281
     0
  0
CLASS
  1
IMAGEDEF
  2
AcDbRasterImageDef
  3
ISM
 90
        0
 91
        4
280
     0
281
     0
  0
CLASS
  1
IMAGEDEF_REACTOR
  2
AcDbRasterImageDefReactor
  3
ISM
 90
        1
 91
        4
280
     0
281
     0
  0
CLASS
  1
IDBUFFER
  2
AcDbIdBuffer
  3
ObjectDBX Classes
 90
        0
 91
        4
280
     0
281
     0
  0
CLASS
  1
SPATIAL_FILTER
  2
AcDbSpatialFilter
  3
ObjectDBX Classes
 90
        0
 91
        4
280
     0
281
     0
  0
CLASS
  1
XRECORD
  2
AcDbXrecord
  3
ObjectDBX Classes
 90
        0
 91
        1
280
     0
281
     0
  0
CLASS
  1
SORTENTSTABLE
  2
AcDbSortentsTable
  3
ObjectDBX Classes
 90
        0
 91
        4
280
     0
281
     0
  0
CLASS
  1
LAYER_INDEX
  2
AcDbLayerIndex
  3
ObjectDBX Classes
 90
        0
 91
        4
280
     0
281
     0
  0
CLASS
  1
SPATIAL_INDEX
  2
AcDbSpatialIndex
  3
AutoCAD 2000
 90
        0
 91
        4
280
     0
281
     0
  0
CLASS
  1
OBJECT_PTR
  2
CAseDLPNTableRecord
  3
ASE-LPNTableRecord
 90
        1
 91
        4
280
     0
281
     0
  0
CLASS
  1
LAYOUT
  2
AcDbLayout
  3
ObjectDBX Classes
 90
        0
 91
        1
280
     0
281
     0
  0
CLASS
  1
PLOTSETTINGS
  2
AcDbPlotSettings
  3
ObjectDBX Classes
 90
        0
 91
        4
280
     0
281
     0
  0
CLASS
  1
ACDBDICTIONARYWDFLT
  2
AcDbDictionaryWithDefault
  3
ObjectDBX Classes
 90
        0
 91
        5
280
     0
281
     0
  0
CLASS
  1
ACDBPLACEHOLDER
  2
AcDbPlaceHolder
  3
ObjectDBX Classes
 90
        0
 91
        1
280
     0
281
     0
  0
CLASS
  1
SCALE
  2
AcDbScale
  3
ObjectDBX Classes
 90
     1153
 91
        5
280
     0
281
     0
  0
CLASS
  1
MATERIAL
  2
AcDbMaterial
  3
ObjectDBX Classes
 90
     1153
 91
        5
280
     0
281
     0
  0
CLASS
  1
VISUALSTYLE
  2
AcDbVisualStyle
  3
ObjectDBX Classes
 90
     4095
 91
        5
280
     0
281
     0
  0
CLASS
  1
TABLESTYLE
  2
AcDbTableStyle
  3
ObjectDBX Classes
 90
     4095
 91
        5
280
     0
281
     0
  0
CLASS
  1
DIMASSOC
  2
AcDbDimAssoc
  3
"AcDbDimAssoc|Product Desc:     AcDim ARX App For Dimension|Company:          Autodesk, Inc.|WEB Address:      www.autodesk.com"
 90
        0
 91
        4
280
     0
281
     0
  0
CLASS
  1
CELLSTYLEMAP
  2
AcDbCellStyleMap
  3
ObjectDBX Classes
 90
     1152
 91
        4
280
     0
281
     0
  0
CLASS
  1
SUN
  2
AcDbSun
  3
SCENEOE
 90
     1153
 91
        5
280
     0
281
     0
  0
ENDSEC
  0
SECTION
  2
TABLES
  0
TABLE
  2
VPORT
  5
7
330
0
100
AcDbSymbolTable
 70
     1
  0
VPORT
  5
15
330
7
100
AcDbSymbolTableRecord
100
AcDbViewportTableRecord
  2
*ACTIVE
 70
     0
 10
0.0
 20
0.0
 11
1.0
 21
1.0
 12
409.9576530934603
 22
272.7451720946871
 13
0.0
 23
0.0
 14
1.0
 24
1.0
 15
0.0
 25
0.0
 16
0.0
 26
0.0
 36
1.0
 17
-91.0201356709
 27
73.59871453016603
 37
-46.86809886248109
 40
578.0043231370983
 41
2.184105960264901
 42
50.0
 43
0.0
 44
0.0
 50
0.0
 51
0.0
 71
    16
 72
  2000
 73
     1
 74
     1
 75
     0
 76
     0
 77
     0
 78
     0
281
     0
 65
     1
110
0.0
120
0.0
130
0.0
111
1.0
121
0.0
131
0.0
112
0.0
122
1.0
132
0.0
 79
     0
146
0.0
348
26C
 60
     3
 61
     5
292
     1
282
     1
141
0.0
142
0.0
 63
   256
361
904
  0
ENDTAB
  0
TABLE
  2
LTYPE
  5
4
330
0
100
AcDbSymbolTable
 70
    20
  0
LTYPE
  5
11
330
4
100
AcDbSymbolTableRecord
100
AcDbLinetypeTableRecord
  2
ByBlock
 70
     0
  3

 72
    65
 73
     0
 40
0.0
  0
LTYPE
  5
12
330
4
100
AcDbSymbolTableRecord
100
AcDbLinetypeTableRecord
  2
ByLayer
 70
     0
  3

 72
    65
 73
     0
 40
0.0
  0
LTYPE
  5
13
330
4
100
AcDbSymbolTableRecord
100
AcDbLinetypeTableRecord
  2
Continuous
 70
     0
  3
Solid line
 72
    65
 73
     0
 40
0.0
  0
LTYPE
  5
3A
330
4
100
AcDbSymbolTableRecord
100
AcDbLinetypeTableRecord
  2
STYLE_01
 70
     0
  3

 72
    65
 73
     2
 40
0.2460629921259842
 49
0.1230314960629921
 74
     0
 49
-0.1230314960629921
 74
     0
  0
LTYPE
  5
3B
330
4
100
AcDbSymbolTableRecord
100
AcDbLinetypeTableRecord
  2
STYLE_02
 70
     0
  3

 72
    65
 73
     2
 40
0.6944250000000001
 49
0.48607
 74
     0
 49
-0.2083550000000001
 74
     0
  0
LTYPE
  5
3C
330
4
100
AcDbSymbolTableRecord
100
AcDbLinetypeTableRecord
  2
STYLE_03
 70
     0
  3

 72
    65
 73
     2
 40
1.25
 49
1.04164
 74
     0
 49
-0.2083599999999999
 74
     0
  0
LTYPE
  5
3D
330
4
100
AcDbSymbolTableRecord
100
AcDbLinetypeTableRecord
  2
STYLE_04
 70
     0
  3

 72
    65
 73
     2
 40
1.52771
 49
1.319425
 74
     0
 49
-0.208285
 74
     0
  0
LTYPE
  5
3E
330
4
100
AcDbSymbolTableRecord
100
AcDbLinetypeTableRecord
  2
STYLE_05
 70
     0
  3

 72
    65
 73
     2
 40
0.20828
 49
0.069425
 74
     0
 49
-0.138855
 74
     0
  0
LTYPE
  5
3F
330
4
100
AcDbSymbolTableRecord
100
AcDbLinetypeTableRecord
  2
STYLE_06
 70
     0
  3

 72
    65
 73
     4
 40
1.04164
 49
0.625
 74
     0
 49
-0.20828
 74
     0
 49
0.06943
 74
     0
 49
-0.13893
 74
     0
  0
LTYPE
  5
40
330
4
100
AcDbSymbolTableRecord
100
AcDbLinetypeTableRecord
  2
STYLE_07
 70
     0
  3

 72
    65
 73
     6
 40
1.875
 49
0.625
 74
     0
 49
-0.20828
 74
     0
 49
0.6250000000000001
 74
     0
 49
-0.2083599999999999
 74
     0
 49
0.06943
 74
     0
 49
-0.1389299999999999
 74
     0
  0
LTYPE
  5
41
330
4
100
AcDbSymbolTableRecord
100
AcDbLinetypeTableRecord
  2
STYLE_08
 70
     0
  3

 72
    65
 73
     6
 40
1.25
 49
0.625
 74
     0
 49
-0.20828
 74
     0
 49
0.06943
 74
     0
 49
-0.13893
 74
     0
 49
0.0694299999999999
 74
     0
 49
-0.13893
 74
     0
  0
LTYPE
  5
42
330
4
100
AcDbSymbolTableRecord
100
AcDbLinetypeTableRecord
  2
STYLE_09
 70
     0
  3

 72
    65
 73
     4
 40
5.0
 49
3.75
 74
     0
 49
-0.2777849999999998
 74
     0
 49
0.6944300000000003
 74
     0
 49
-0.2777849999999998
 74
     0
  0
LTYPE
  5
43
330
4
100
AcDbSymbolTableRecord
100
AcDbLinetypeTableRecord
  2
STYLE_10
 70
     0
  3

 72
    65
 73
     6
 40
5.9375
 49
3.75
 74
     0
 49
-0.2777849999999998
 74
     0
 49
0.6944300000000003
 74
     0
 49
-0.2777849999999998
 74
     0
 49
0.625
 74
     0
 49
-0.3125
 74
     0
  0
LTYPE
  5
44
330
4
100
AcDbSymbolTableRecord
100
AcDbLinetypeTableRecord
  2
STYLE_11
 70
     0
  3

 72
    65
 73
     2
 40
0.0694444881889764
 49
0.0347222440944882
 74
     0
 49
-0.0347222440944882
 74
     0
  0
LTYPE
  5
45
330
4
100
AcDbSymbolTableRecord
100
AcDbLinetypeTableRecord
  2
STYLE_12
 70
     0
  3

 72
    65
 73
     2
 40
0.3937007874015748
 49
0.1968503937007874
 74
     0
 49
-0.1968503937007874
 74
     0
  0
LTYPE
  5
46
330
4
100
AcDbSymbolTableRecord
100
AcDbLinetypeTableRecord
  2
STYLE_13
 70
     0
  3

 72
    65
 73
     2
 40
0.5905511811023622
 49
0.2952755905511811
 74
     0
 49
-0.2952755905511811
 74
     0
  0
LTYPE
  5
47
330
4
100
AcDbSymbolTableRecord
100
AcDbLinetypeTableRecord
  2
STYLE_14
 70
     0
  3

 72
    65
 73
     2
 40
1.968503937007874
 49
0.9842519685039369
 74
     0
 49
-0.9842519685039369
 74
     0
  0
LTYPE
  5
48
330
4
100
AcDbSymbolTableRecord
100
AcDbLinetypeTableRecord
  2
STYLE_15
 70
     0
  3

 72
    65
 73
     2
 40
0.1875
 49
0.125
 74
     0
 49
-0.0625
 74
     0
  0
LTYPE
  5
49
330
4
100
AcDbSymbolTableRecord
100
AcDbLinetypeTableRecord
  2
STYLE_16
 70
     0
  3

 72
    65
 73
     2
 40
0.3690944881889764
 49
0.2460629921259843
 74
     0
 49
-0.1230314960629922
 74
     0
  0
LTYPE
  5
908
330
4
100
AcDbSymbolTableRecord
100
AcDbLinetypeTableRecord
  2
AI-LINETYPE-1
 70
     0
  3
Adobe Illustrator Linetype No. 1
 72
    65
 73
     4
 40
2.116668062491661
 49
1.058334031245831
 74
     0
 49
-0.3527780104152769
 74
     0
 49
0.3527780104152769
 74
     0
 49
-0.3527780104152769
 74
     0
  0
LTYPE
  5
909
330
4
100
AcDbSymbolTableRecord
100
AcDbLinetypeTableRecord
  2
AI-LINETYPE-2
 70
     0
  3
Adobe Illustrator Linetype No. 2
 72
    65
 73
     4
 40
2.116668062491661
 49
1.058334031245831
 74
     0
 49
-0.3527780104152769
 74
     0
 49
0.3527780104152769
 74
     0
 49
-0.3527780104152769
 74
     0
  0
LTYPE
  5
E70
330
4
100
AcDbSymbolTableRecord
100
AcDbLinetypeTableRecord
  2
CENTER
 70
     0
  3
____ _ ____ _ ____ _ ____ _ ____ _ ____ _ ____
 72
    65
 73
     4
 40
2.0
 49
1.25
 74
     0
 49
-0.25
 74
     0
 49
0.25
 74
     0
 49
-0.25
 74
     0
  0
ENDTAB
  0
TABLE
  2
LAYER
  5
2
102
{ACAD_XDICTIONARY
360
2E1
102
}
330
0
100
AcDbSymbolTable
 70
     7
  0
LAYER
  5
14
330
2
100
AcDbSymbolTableRecord
100
AcDbLayerTableRecord
  2
0
 70
     0
 62
     7
  6
Continuous
370
    -3
390
1D
347
266
  0
LAYER
  5
4B
330
2
100
AcDbSymbolTableRecord
100
AcDbLayerTableRecord
  2
TEMPLATE
 70
     0
 62
     7
  6
Continuous
370
    20
390
1D
347
266
  0
LAYER
  5
4C
330
2
100
AcDbSymbolTableRecord
100
AcDbLayerTableRecord
  2
DIM
 70
     0
 62
     7
  6
Continuous
370
    13
390
1D
347
266
  0
LAYER
  5
4D
330
2
100
AcDbSymbolTableRecord
100
AcDbLayerTableRecord
  2
MODEL
 70
     0
 62
     7
  6
Continuous
370
    20
390
1D
347
266
  0
LAYER
  5
667
330
2
100
AcDbSymbolTableRecord
100
AcDbLayerTableRecord
  2
LOGO
 70
     0
 62
     7
  6
Continuous
370
    -3
390
1D
347
266
  0
LAYER
  5
88C
330
2
100
AcDbSymbolTableRecord
100
AcDbLayerTableRecord
  2
HIDDEN
 70
     0
 62
     7
  6
STYLE_12
370
    20
390
1D
347
266
1001
AcAecLayerStandard
1000

1000

  0
LAYER
  5
DDE
330
2
100
AcDbSymbolTableRecord
100
AcDbLayerTableRecord
  2
Defpoints
 70
     0
 62
     7
  6
Continuous
290
     0
370
    -3
390
1D
347
266
  0
ENDTAB
  0
TABLE
  2
STYLE
  5
3
330
0
100
AcDbSymbolTable
 70
     4
  0
STYLE
  5
17
330
3
100
AcDbSymbolTableRecord
100
AcDbTextStyleTableRecord
  2
Standard
 70
     0
 40
0.0
 41
1.0
 50
0.0
 71
     0
 42
2.5
  3
txt
  4
BIGFONT.SHX
  0
STYLE
  5
39
330
3
100
AcDbSymbolTableRecord
100
AcDbTextStyleTableRecord
  2
ＭＳ ゴシック
 70
     0
 40
0.0
 41
1.0
 50
0.0
 71
     0
 42
2.5
  3
msgothic.ttc
  4
ＭＳ ゴシック
1001
ACAD
1000
ＭＳ ゴシック
1071
        0
  0
STYLE
  5
384
330
3
100
AcDbSymbolTableRecord
100
AcDbTextStyleTableRecord
  2
ARIAL
 70
     0
 40
0.0
 41
1.0
 50
0.0
 71
     0
 42
12.0
  3
ARIAL.TTF
  4

1001
ACAD
1000
Arial
1071
       34
  0
STYLE
  5
385
330
3
100
AcDbSymbolTableRecord
100
AcDbTextStyleTableRecord
  2
ROMANS
 70
     0
 40
0.0
 41
1.0
 50
0.0
 71
     0
 42
5.0
  3
romans.shx
  4

  0
ENDTAB
  0
TABLE
  2
VIEW
  5
5
330
0
100
AcDbSymbolTable
 70
     0
  0
ENDTAB
  0
TABLE
  2
UCS
  5
6
330
0
100
AcDbSymbolTable
 70
     0
  0
ENDTAB
  0
TABLE
  2
APPID
  5
8
330
0
100
AcDbSymbolTable
 70
     2
  0
APPID
  5
16
330
8
100
AcDbSymbolTableRecord
100
AcDbRegAppTableRecord
  2
ACAD
 70
     0
  0
APPID
  5
7AC
330
8
100
AcDbSymbolTableRecord
100
AcDbRegAppTableRecord
  2
AcAecLayerStandard
 70
     0
  0
ENDTAB
  0
TABLE
  2
DIMSTYLE
  5
9
330
0
100
AcDbSymbolTable
 70
     5
100
AcDbDimStyleTable
  0
DIMSTYLE
105
18
330
9
100
AcDbSymbolTableRecord
100
AcDbDimStyleTableRecord
  2
Standard
 70
     0
178
     0
340
17
  0
DIMSTYLE
105
56
330
9
100
AcDbSymbolTableRecord
100
AcDbDimStyleTableRecord
  2
tform線あり
 70
     0
  3
<>
  4
[]
 41
9.999389648437498
 42
25.0
 43
0.9999999999999999
 44
0.0
 73
     0
 74
     0
 77
     1
 78
    11
140
24.4326171875
141
0.0
143
1.0
146
0.8
147
0.4999999999999999
171
     1
172
     1
174
     1
178
     0
179
     2
271
     1
272
     1
276
     2
284
    11
285
    11
286
    11
289
     0
340
39
341
4E
342
4E
  0
DIMSTYLE
105
57
330
9
100
AcDbSymbolTableRecord
100
AcDbDimStyleTableRecord
  2
tfrom線あり
 70
     0
  3
<>
  4
[]
 41
2.0
 42
5.0
 43
0.0
 44
0.0
 73
     0
 74
     0
 77
     1
 78
    11
140
6.0
141
0.0
143
1.0
147
5.0
171
     1
174
     1
178
     0
179
     2
271
     0
272
     1
276
     2
284
    11
285
    11
286
    11
289
     0
340
39
341
4E
342
4E
  0
DIMSTYLE
105
5C
330
9
100
AcDbSymbolTableRecord
100
AcDbDimStyleTableRecord
  2
JIS
 70
     0
  3
<>
  4
[]
 41
9.0
 42
0.0
 43
6.99999999999994
 44
19.9999999999962
 73
     0
 74
     0
 77
     1
 78
    11
140
24.4326171875
141
0.0
143
1.0
147
10.0
171
     1
174
     1
178
     0
179
     2
271
     1
272
     1
276
     2
284
    11
285
    11
286
    11
289
     0
340
39
341
4E
342
4E
  0
DIMSTYLE
105
383
330
9
100
AcDbSymbolTableRecord
100
AcDbDimStyleTableRecord
  2
ARIAL
 70
     0
 41
10.0
 42
3.0
 43
0.5
 44
3.0
 73
     0
 74
     0
 77
     1
 78
     8
140
12.0
141
0.0
146
0.5
147
4.0
171
     1
172
     1
178
     0
271
     1
289
     0
340
384
  0
ENDTAB
  0
TABLE
  2
BLOCK_RECORD
  5
1
330
0
100
AcDbSymbolTable
 70
    15
  0
BLOCK_RECORD
  5
A
330
1
100
AcDbSymbolTableRecord
100
AcDbBlockTableRecord
  2
*MODEL_SPACE
340
20
 70
     0
280
     1
281
     0
  0
BLOCK_RECORD
  5
B
330
1
100
AcDbSymbolTableRecord
100
AcDbBlockTableRecord
  2
*PAPER_SPACE
340
21
 70
     0
280
     1
281
     0
  0
BLOCK_RECORD
  5
4E
330
1
100
AcDbSymbolTableRecord
100
AcDbBlockTableRecord
  2
_DOT
340
0
102
{BLKREFS
331
DE8
331
DE9
331
E01
331
E02
331
E10
331
E11
331
E35
331
E36
331
E42
331
E43
331
E51
331
E52
331
1360
331
1361
331
136F
331
1370
331
137E
331
137F
102
}
 70
     0
280
     1
281
     0
  0
BLOCK_RECORD
  5
68A
330
1
100
AcDbSymbolTableRecord
100
AcDbBlockTableRecord
  2
名称未設定-1
340
0
102
{BLKREFS
331
6B5
102
}
 70
     1
280
     1
281
     0
  0
BLOCK_RECORD
  5
68D
330
1
100
AcDbSymbolTableRecord
100
AcDbBlockTableRecord
  2
block 2
340
0
102
{BLKREFS
331
68C
102
}
 70
     0
280
     1
281
     0
  0
BLOCK_RECORD
  5
690
330
1
100
AcDbSymbolTableRecord
100
AcDbBlockTableRecord
  2
block 3
340
0
102
{BLKREFS
331
68F
102
}
 70
     0
280
     1
281
     0
  0
BLOCK_RECORD
  5
693
330
1
100
AcDbSymbolTableRecord
100
AcDbBlockTableRecord
  2
block 4
340
0
102
{BLKREFS
331
692
102
}
 70
     0
280
     1
281
     0
  0
BLOCK_RECORD
  5
6A2
330
1
100
AcDbSymbolTableRecord
100
AcDbBlockTableRecord
  2
block 5
340
0
102
{BLKREFS
331
6A1
102
}
 70
     0
280
     1
281
     0
  0
BLOCK_RECORD
  5
DE2
330
1
100
AcDbSymbolTableRecord
100
AcDbBlockTableRecord
  2
*D6
340
0
 70
     0
280
     1
281
     0
  0
BLOCK_RECORD
  5
DFB
330
1
100
AcDbSymbolTableRecord
100
AcDbBlockTableRecord
  2
*D7
340
0
 70
     0
280
     1
281
     0
  0
BLOCK_RECORD
  5
E0A
330
1
100
AcDbSymbolTableRecord
100
AcDbBlockTableRecord
  2
*D8
340
0
 70
     0
280
     1
281
     0
  0
BLOCK_RECORD
  5
E2F
330
1
100
AcDbSymbolTableRecord
100
AcDbBlockTableRecord
  2
*D9
340
0
 70
     0
280
     1
281
     0
  0
BLOCK_RECORD
  5
E3C
330
1
100
AcDbSymbolTableRecord
100
AcDbBlockTableRecord
  2
*D10
340
0
 70
     0
280
     1
281
     0
  0
BLOCK_RECORD
  5
E4B
330
1
100
AcDbSymbolTableRecord
100
AcDbBlockTableRecord
  2
*D11
340
0
 70
     0
280
     1
281
     0
  0
BLOCK_RECORD
  5
1359
330
1
100
AcDbSymbolTableRecord
100
AcDbBlockTableRecord
  2
*D12
340
0
 70
     0
280
     1
281
     0
  0
BLOCK_RECORD
  5
1369
330
1
100
AcDbSymbolTableRecord
100
AcDbBlockTableRecord
  2
*D13
340
0
 70
     0
280
     1
281
     0
  0
BLOCK_RECORD
  5
1378
330
1
100
AcDbSymbolTableRecord
100
AcDbBlockTableRecord
  2
*D14
340
0
 70
     0
280
     1
281
     0
  0
ENDTAB
  0
ENDSEC
  0
SECTION
  2
BLOCKS
  0
BLOCK
  5
D
330
A
100
AcDbEntity
  8
0
390
1D
100
AcDbBlockBegin
  2
*MODEL_SPACE
 70
     0
 10
0.0
 20
0.0
 30
0.0
  3
*MODEL_SPACE
  1
*MODEL_SPACE
  0
ENDBLK
  5
E
330
A
100
AcDbEntity
  8
0
390
1D
100
AcDbBlockEnd
  0
BLOCK
  5
F
330
B
100
AcDbEntity
 67
     1
  8
0
390
1D
100
AcDbBlockBegin
  2
*PAPER_SPACE
 70
     0
 10
0.0
 20
0.0
 30
0.0
  3
*PAPER_SPACE
  1
*PAPER_SPACE
  0
ENDBLK
  5
10
330
B
100
AcDbEntity
 67
     1
  8
0
390
1D
100
AcDbBlockEnd
  0
BLOCK
  5
E24
330
4E
100
AcDbEntity
  8
0
390
1D
100
AcDbBlockBegin
  2
_DOT
 70
     0
 10
0.0
 20
0.0
 30
0.0
  3
_DOT
  1
_DOT
  0
POLYLINE
  5
E26
330
4E
100
AcDbEntity
  8
0
  6
ByBlock
 62
     0
370
    -2
390
1D
100
AcDb2dPolyline
 66
     1
 10
0.0
 20
0.0
 30
0.0
 70
     1
 40
0.5
 41
0.5
  0
VERTEX
  5
E27
330
E26
100
AcDbEntity
  8
0
  6
ByBlock
 62
     0
370
    -2
390
1D
100
AcDbVertex
100
AcDb2dVertex
 10
-0.25
 20
0.0
 30
0.0
 42
1.0
  0
VERTEX
  5
E28
330
E26
100
AcDbEntity
  8
0
  6
ByBlock
 62
     0
370
    -2
390
1D
100
AcDbVertex
100
AcDb2dVertex
 10
0.25
 20
0.0
 30
0.0
 42
1.0
  0
SEQEND
  5
E29
330
E26
100
AcDbEntity
  8
0
390
1D
  0
LINE
  5
E2A
330
4E
100
AcDbEntity
  8
0
  6
ByBlock
 62
     0
370
    -2
390
1D
100
AcDbLine
 10
-0.5
 20
0.0
 30
0.0
 11
-1.0
 21
0.0
 31
0.0
  0
ENDBLK
  5
E2B
330
4E
100
AcDbEntity
  8
0
390
1D
100
AcDbBlockEnd
  0
BLOCK
  5
68B
330
68A
100
AcDbEntity
  8
0
100
AcDbBlockBegin
  2
名称未設定-1
 70
     0
 10
0.0
 20
0.0
 30
0.0
  3
名称未設定-1
  1
名称未設定-1
  0
INSERT
  5
68F
330
68A
100
AcDbEntity
  8
LOGO
100
AcDbBlockReference
  2
block 3
 10
0.0
 20
0.0
 30
0.0
  0
ENDBLK
  5
6B1
330
68A
100
AcDbEntity
  8
0
100
AcDbBlockEnd
  0
BLOCK
  5
68E
330
68D
100
AcDbEntity
  8
0
100
AcDbBlockBegin
  2
block 2
 70
     0
 10
0.0
 20
0.0
 30
0.0
  3
block 2
  1
block 2
  0
ENDBLK
  5
6B0
330
68D
100
AcDbEntity
  8
0
100
AcDbBlockEnd
  0
BLOCK
  5
691
330
690
100
AcDbEntity
  8
0
100
AcDbBlockBegin
  2
block 3
 70
     0
 10
0.0
 20
0.0
 30
0.0
  3
block 3
  1
block 3
  0
INSERT
  5
692
330
690
100
AcDbEntity
  8
LOGO
100
AcDbBlockReference
  2
block 4
 10
0.0
 20
0.0
 30
0.0
  0
INSERT
  5
6A1
330
690
100
AcDbEntity
  8
LOGO
100
AcDbBlockReference
  2
block 5
 10
0.0
 20
0.0
 30
0.0
  0
ENDBLK
  5
6AF
330
690
100
AcDbEntity
  8
0
100
AcDbBlockEnd
  0
BLOCK
  5
694
330
693
100
AcDbEntity
  8
0
100
AcDbBlockBegin
  2
block 4
 70
     0
 10
0.0
 20
0.0
 30
0.0
  3
block 4
  1
block 4
  0
POLYLINE
  5
695
330
693
100
AcDbEntity
  8
LOGO
370
     0
100
AcDb2dPolyline
 66
     1
 10
0.0
 20
0.0
 30
0.0
  0
VERTEX
  5
696
330
695
100
AcDbEntity
  8
LOGO
370
     0
100
AcDbVertex
100
AcDb2dVertex
 10
83.79545727667795
 20
167.6444858234922
 30
0.0
  0
VERTEX
  5
697
330
695
100
AcDbEntity
  8
LOGO
370
     0
100
AcDbVertex
100
AcDb2dVertex
 10
83.79545727667795
 20
159.7968976406313
 30
0.0
  0
VERTEX
  5
698
330
695
100
AcDbEntity
  8
LOGO
370
     0
100
AcDbVertex
100
AcDb2dVertex
 10
71.3631329975216
 20
159.7968976406313
 30
0.0
  0
VERTEX
  5
699
330
695
100
AcDbEntity
  8
LOGO
370
     0
100
AcDbVertex
100
AcDb2dVertex
 10
71.3631329975216
 20
127.8027915271048
 30
0.0
  0
VERTEX
  5
69A
330
695
100
AcDbEntity
  8
LOGO
370
     0
100
AcDbVertex
100
AcDb2dVertex
 10
60.43011526263018
 20
127.8027915271048
 30
0.0
  0
VERTEX
  5
69B
330
695
100
AcDbEntity
  8
LOGO
370
     0
100
AcDbVertex
100
AcDb2dVertex
 10
60.43011526263018
 20
159.7968976406313
 30
0.0
  0
VERTEX
  5
69C
330
695
100
AcDbEntity
  8
LOGO
370
     0
100
AcDbVertex
100
AcDb2dVertex
 10
48.21793273020759
 20
159.7968976406313
 30
0.0
  0
VERTEX
  5
69D
330
695
100
AcDbEntity
  8
LOGO
370
     0
100
AcDbVertex
100
AcDb2dVertex
 10
48.21793273020759
 20
167.6444858234922
 30
0.0
  0
VERTEX
  5
69E
330
695
100
AcDbEntity
  8
LOGO
370
     0
100
AcDbVertex
100
AcDb2dVertex
 10
83.79545727667795
 20
167.6444858234922
 30
0.0
  0
SEQEND
  5
69F
330
695
100
AcDbEntity
  8
LOGO
370
     0
  0
HATCH
  5
6A0
330
693
100
AcDbEntity
  8
LOGO
 62
   250
420
  2234388
100
AcDbHatch
 10
0.0
 20
0.0
 30
0.0
210
0.0
220
0.0
230
1.0
  2
SOLID
 70
     1
 71
     0
 91
        1
 92
        1
 93
        8
 72
     1
 10
83.79545727667795
 20
167.6444858234922
 11
83.79545727667795
 21
159.7968976406313
 72
     1
 10
83.79545727667795
 20
159.7968976406313
 11
71.3631329975216
 21
159.7968976406313
 72
     1
 10
71.3631329975216
 20
159.7968976406313
 11
71.3631329975216
 21
127.8027915271048
 72
     1
 10
71.3631329975216
 20
127.8027915271048
 11
60.43011526263018
 21
127.8027915271048
 72
     1
 10
60.43011526263018
 20
127.8027915271048
 11
60.43011526263018
 21
159.7968976406313
 72
     1
 10
60.43011526263018
 20
159.7968976406313
 11
48.21793273020759
 21
159.7968976406313
 72
     1
 10
48.21793273020759
 20
159.7968976406313
 11
48.21793273020759
 21
167.6444858234922
 72
     1
 10
48.21793273020759
 20
167.6444858234922
 11
83.79545727667795
 21
167.6444858234922
 97
        0
 75
     2
 76
     1
 98
        0
  0
ENDBLK
  5
6AE
330
693
100
AcDbEntity
  8
0
100
AcDbBlockEnd
  0
BLOCK
  5
6A3
330
6A2
100
AcDbEntity
  8
0
100
AcDbBlockBegin
  2
block 5
 70
     0
 10
0.0
 20
0.0
 30
0.0
  3
block 5
  1
block 5
  0
SPLINE
  5
6A4
330
6A2
100
AcDbEntity
  8
LOGO
370
     0
100
AcDbSpline
210
0.0
220
0.0
230
1.0
 70
    11
 71
     3
 72
    56
 73
    52
 74
     0
 42
0.000000001
 43
0.0000000001
 40
0.0
 40
0.0
 40
0.0
 40
0.0
 40
1.0
 40
1.0
 40
1.0
 40
2.0
 40
2.0
 40
2.0
 40
3.0
 40
3.0
 40
3.0
 40
4.0
 40
4.0
 40
4.0
 40
5.0
 40
5.0
 40
5.0
 40
6.0
 40
6.0
 40
6.0
 40
7.0
 40
7.0
 40
7.0
 40
8.0
 40
8.0
 40
8.0
 40
9.0
 40
9.0
 40
9.0
 40
10.0
 40
10.0
 40
10.0
 40
11.0
 40
11.0
 40
11.0
 40
12.0
 40
12.0
 40
12.0
 40
13.0
 40
13.0
 40
13.0
 40
14.0
 40
14.0
 40
14.0
 40
15.0
 40
15.0
 40
15.0
 40
16.0
 40
16.0
 40
16.0
 40
17.0
 40
17.0
 40
17.0
 40
17.0
 10
100.4504378777679
 20
166.69157178364
 30
0.0
 10
101.9848844191641
 20
167.1313385124438
 30
0.0
 10
103.9637485713373
 20
166.7649523658846
 30
0.0
 10
103.9637485713373
 20
166.7649523658846
 30
0.0
 10
103.9637485713373
 20
166.7649523658846
 30
0.0
 10
103.0132460999156
 20
163.911205638077
 30
0.0
 10
103.0132460999156
 20
163.911205638077
 30
0.0
 10
103.0132460999156
 20
163.911205638077
 30
0.0
 10
101.0674548862189
 20
164.3601018759394
 30
0.0
 10
99.57090442016032
 20
163.1805004036133
 30
0.0
 10
98.40508333886608
 20
162.258247733807
 30
0.0
 10
97.65301849830304
 20
159.804132345923
 30
0.0
 10
97.3598406791005
 20
158.8699940888517
 30
0.0
 10
97.3598406791005
 20
158.8699940888517
 30
0.0
 10
96.07137411762282
 20
154.9119212747295
 30
0.0
 10
96.07137411762282
 20
154.9119212747295
 30
0.0
 10
96.07137411762282
 20
154.9119212747295
 30
0.0
 10
100.3012651448482
 20
154.9119212747295
 30
0.0
 10
100.3012651448482
 20
154.9119212747295
 30
0.0
 10
100.3012651448482
 20
154.9119212747295
 30
0.0
 10
99.64152892419852
 20
152.4199098115079
 30
0.0
 10
99.64152892419852
 20
152.4199098115079
 30
0.0
 10
99.64152892419852
 20
152.4199098115079
 30
0.0
 10
95.38097652692731
 20
152.4199098115079
 30
0.0
 10
95.38097652692731
 20
152.4199098115079
 30
0.0
 10
95.38097652692731
 20
152.4199098115079
 30
0.0
 10
87.75353009080013
 20
127.8027915271048
 30
0.0
 10
87.75353009080013
 20
127.8027915271048
 30
0.0
 10
87.75353009080013
 20
127.8027915271048
 30
0.0
 10
85.36538832498108
 20
127.8027915271048
 30
0.0
 10
85.36538832498108
 20
127.8027915271048
 30
0.0
 10
85.36538832498108
 20
127.8027915271048
 30
0.0
 10
93.00006946639998
 20
152.4199098115079
 30
0.0
 10
93.00006946639998
 20
152.4199098115079
 30
0.0
 10
93.00006946639998
 20
152.4199098115079
 30
0.0
 10
89.85297266450198
 20
152.4199098115079
 30
0.0
 10
89.85297266450198
 20
152.4199098115079
 30
0.0
 10
89.85297266450198
 20
152.4199098115079
 30
0.0
 10
90.51270888515164
 20
154.9119212747295
 30
0.0
 10
90.51270888515164
 20
154.9119212747295
 30
0.0
 10
90.51270888515164
 20
154.9119212747295
 30
0.0
 10
93.6904670570955
 20
154.9119212747295
 30
0.0
 10
93.6904670570955
 20
154.9119212747295
 30
0.0
 10
93.6904670570955
 20
154.9119212747295
 30
0.0
 10
94.81598049462158
 20
158.3616699146644
 30
0.0
 10
94.81598049462158
 20
158.3616699146644
 30
0.0
 10
95.7237637538445
 20
161.2605474231013
 30
0.0
 10
96.4968436907311
 20
162.8139420021662
 30
0.0
 10
97.15657991138076
 20
163.9844139654337
 30
0.0
 10
97.81183750494507
 20
165.1523021053827
 30
0.0
 10
99.1047826935081
 20
166.3084769129547
 30
0.0
 10
100.4504378777679
 20
166.69157178364
 30
0.0
  0
HATCH
  5
6A5
330
6A2
100
AcDbEntity
  8
LOGO
 62
   250
420
  2234388
100
AcDbHatch
 10
0.0
 20
0.0
 30
0.0
210
0.0
220
0.0
230
1.0
  2
SOLID
 70
     1
 71
     0
 91
        1
 92
        1
 93
        1
 72
     4
 94
        3
 73
     0
 74
     1
 95
       56
 96
       52
 40
0.0
 40
0.0
 40
0.0
 40
0.0
 40
1.0
 40
1.0
 40
1.0
 40
2.0
 40
2.0
 40
2.0
 40
3.0
 40
3.0
 40
3.0
 40
4.0
 40
4.0
 40
4.0
 40
5.0
 40
5.0
 40
5.0
 40
6.0
 40
6.0
 40
6.0
 40
7.0
 40
7.0
 40
7.0
 40
8.0
 40
8.0
 40
8.0
 40
9.0
 40
9.0
 40
9.0
 40
10.0
 40
10.0
 40
10.0
 40
11.0
 40
11.0
 40
11.0
 40
12.0
 40
12.0
 40
12.0
 40
13.0
 40
13.0
 40
13.0
 40
14.0
 40
14.0
 40
14.0
 40
15.0
 40
15.0
 40
15.0
 40
16.0
 40
16.0
 40
16.0
 40
17.0
 40
17.0
 40
17.0
 40
17.0
 10
100.4504378777679
 20
166.69157178364
 10
101.9848844191641
 20
167.1313385124438
 10
103.9637485713373
 20
166.7649523658846
 10
103.9637485713373
 20
166.7649523658846
 10
103.9637485713373
 20
166.7649523658846
 10
103.0132460999156
 20
163.911205638077
 10
103.0132460999156
 20
163.911205638077
 10
103.0132460999156
 20
163.911205638077
 10
101.0674548862189
 20
164.3601018759394
 10
99.57090442016032
 20
163.1805004036133
 10
98.40508333886608
 20
162.258247733807
 10
97.65301849830304
 20
159.804132345923
 10
97.3598406791005
 20
158.8699940888517
 10
97.3598406791005
 20
158.8699940888517
 10
96.07137411762282
 20
154.9119212747295
 10
96.07137411762282
 20
154.9119212747295
 10
96.07137411762282
 20
154.9119212747295
 10
100.3012651448482
 20
154.9119212747295
 10
100.3012651448482
 20
154.9119212747295
 10
100.3012651448482
 20
154.9119212747295
 10
99.64152892419852
 20
152.4199098115079
 10
99.64152892419852
 20
152.4199098115079
 10
99.64152892419852
 20
152.4199098115079
 10
95.38097652692731
 20
152.4199098115079
 10
95.38097652692731
 20
152.4199098115079
 10
95.38097652692731
 20
152.4199098115079
 10
87.75353009080013
 20
127.8027915271048
 10
87.75353009080013
 20
127.8027915271048
 10
87.75353009080013
 20
127.8027915271048
 10
85.36538832498108
 20
127.8027915271048
 10
85.36538832498108
 20
127.8027915271048
 10
85.36538832498108
 20
127.8027915271048
 10
93.00006946639998
 20
152.4199098115079
 10
93.00006946639998
 20
152.4199098115079
 10
93.00006946639998
 20
152.4199098115079
 10
89.85297266450198
 20
152.4199098115079
 10
89.85297266450198
 20
152.4199098115079
 10
89.85297266450198
 20
152.4199098115079
 10
90.51270888515164
 20
154.9119212747295
 10
90.51270888515164
 20
154.9119212747295
 10
90.51270888515164
 20
154.9119212747295
 10
93.6904670570955
 20
154.9119212747295
 10
93.6904670570955
 20
154.9119212747295
 10
93.6904670570955
 20
154.9119212747295
 10
94.81598049462158
 20
158.3616699146644
 10
94.81598049462158
 20
158.3616699146644
 10
95.7237637538445
 20
161.2605474231013
 10
96.4968436907311
 20
162.8139420021662
 10
97.15657991138076
 20
163.9844139654337
 10
97.81183750494507
 20
165.1523021053827
 10
99.1047826935081
 20
166.3084769129547
 10
100.4504378777679
 20
166.69157178364
 97
        0
 75
     2
 76
     1
 98
        0
  0
SPLINE
  5
6A6
330
6A2
100
AcDbEntity
  8
LOGO
370
     0
100
AcDbSpline
210
0.0
220
0.0
230
1.0
 70
    11
 71
     3
 72
    38
 73
    34
 74
     0
 42
0.000000001
 43
0.0000000001
 40
0.0
 40
0.0
 40
0.0
 40
0.0
 40
1.0
 40
1.0
 40
1.0
 40
2.0
 40
2.0
 40
2.0
 40
3.0
 40
3.0
 40
3.0
 40
4.0
 40
4.0
 40
4.0
 40
5.0
 40
5.0
 40
5.0
 40
6.0
 40
6.0
 40
6.0
 40
7.0
 40
7.0
 40
7.0
 40
8.0
 40
8.0
 40
8.0
 40
9.0
 40
9.0
 40
9.0
 40
10.0
 40
10.0
 40
10.0
 40
11.0
 40
11.0
 40
11.0
 40
11.0
 10
126.377554584636
 20
154.8151140277308
 30
0.0
 10
126.377554584636
 20
154.8151140277308
 30
0.0
 10
128.8311532078563
 20
154.8151140277308
 30
0.0
 10
128.8311532078563
 20
154.8151140277308
 30
0.0
 10
128.8311532078563
 20
154.8151140277308
 30
0.0
 10
127.7345785914971
 20
151.3062819612468
 30
0.0
 10
127.7345785914971
 20
151.3062819612468
 30
0.0
 10
128.571392836906
 20
152.2922689395754
 30
0.0
 10
129.8860421413442
 20
153.604506675583
 30
0.0
 10
131.0163787157314
 20
154.2664822097754
 30
0.0
 10
132.7044766171327
 20
155.2500576196734
 30
0.0
 10
133.6642808525008
 20
155.3847609420097
 30
0.0
 10
134.7284715499351
 20
155.3565111403944
 30
0.0
 10
134.7284715499351
 20
155.3565111403944
 30
0.0
 10
133.6877075172549
 20
152.0345756272799
 30
0.0
 10
133.6877075172549
 20
152.0345756272799
 30
0.0
 10
133.011434827367
 20
152.3184516825359
 30
0.0
 10
130.930940291334
 20
151.7768823149844
 30
0.0
 10
129.739280976855
 20
150.9162968950455
 30
0.0
 10
128.66613302525
 20
150.1454562717016
 30
0.0
 10
127.9192358313239
 20
149.4857200510519
 30
0.0
 10
127.0393578639405
 20
147.8282835196966
 30
0.0
 10
126.164647543194
 20
146.1699857139017
 30
0.0
 10
125.4742499524985
 20
143.5262176944419
 30
0.0
 10
124.2822461282437
 20
139.6959580071401
 30
0.0
 10
124.2822461282437
 20
139.6959580071401
 30
0.0
 10
120.5753209406769
 20
127.8027915271048
 30
0.0
 10
120.5753209406769
 20
127.8027915271048
 30
0.0
 10
120.5753209406769
 20
127.8027915271048
 30
0.0
 10
118.1964809388044
 20
127.8027915271048
 30
0.0
 10
118.1964809388044
 20
127.8027915271048
 30
0.0
 10
118.1964809388044
 20
127.8027915271048
 30
0.0
 10
126.377554584636
 20
154.8151140277308
 30
0.0
 10
126.377554584636
 20
154.8151140277308
 30
0.0
  0
HATCH
  5
6A7
330
6A2
100
AcDbEntity
  8
LOGO
 62
   250
420
  2234388
100
AcDbHatch
 10
0.0
 20
0.0
 30
0.0
210
0.0
220
0.0
230
1.0
  2
SOLID
 70
     1
 71
     0
 91
        1
 92
        1
 93
        1
 72
     4
 94
        3
 73
     0
 74
     1
 95
       38
 96
       34
 40
0.0
 40
0.0
 40
0.0
 40
0.0
 40
1.0
 40
1.0
 40
1.0
 40
2.0
 40
2.0
 40
2.0
 40
3.0
 40
3.0
 40
3.0
 40
4.0
 40
4.0
 40
4.0
 40
5.0
 40
5.0
 40
5.0
 40
6.0
 40
6.0
 40
6.0
 40
7.0
 40
7.0
 40
7.0
 40
8.0
 40
8.0
 40
8.0
 40
9.0
 40
9.0
 40
9.0
 40
10.0
 40
10.0
 40
10.0
 40
11.0
 40
11.0
 40
11.0
 40
11.0
 10
126.377554584636
 20
154.8151140277308
 10
126.377554584636
 20
154.8151140277308
 10
128.8311532078563
 20
154.8151140277308
 10
128.8311532078563
 20
154.8151140277308
 10
128.8311532078563
 20
154.8151140277308
 10
127.7345785914971
 20
151.3062819612468
 10
127.7345785914971
 20
151.3062819612468
 10
128.571392836906
 20
152.2922689395754
 10
129.8860421413442
 20
153.604506675583
 10
131.0163787157314
 20
154.2664822097754
 10
132.7044766171327
 20
155.2500576196734
 10
133.6642808525008
 20
155.3847609420097
 10
134.7284715499351
 20
155.3565111403944
 10
134.7284715499351
 20
155.3565111403944
 10
133.6877075172549
 20
152.0345756272799
 10
133.6877075172549
 20
152.0345756272799
 10
133.011434827367
 20
152.3184516825359
 10
130.930940291334
 20
151.7768823149844
 10
129.739280976855
 20
150.9162968950455
 10
128.66613302525
 20
150.1454562717016
 10
127.9192358313239
 20
149.4857200510519
 10
127.0393578639405
 20
147.8282835196966
 10
126.164647543194
 20
146.1699857139017
 10
125.4742499524985
 20
143.5262176944419
 10
124.2822461282437
 20
139.6959580071401
 10
124.2822461282437
 20
139.6959580071401
 10
120.5753209406769
 20
127.8027915271048
 10
120.5753209406769
 20
127.8027915271048
 10
120.5753209406769
 20
127.8027915271048
 10
118.1964809388044
 20
127.8027915271048
 10
118.1964809388044
 20
127.8027915271048
 10
118.1964809388044
 20
127.8027915271048
 10
126.377554584636
 20
154.8151140277308
 10
126.377554584636
 20
154.8151140277308
 97
        0
 75
     2
 76
     1
 98
        0
  0
SPLINE
  5
6A8
330
6A2
100
AcDbEntity
  8
LOGO
370
     0
100
AcDbSpline
210
0.0
220
0.0
230
1.0
 70
    11
 71
     3
 72
   104
 73
   100
 74
     0
 42
0.000000001
 43
0.0000000001
 40
0.0
 40
0.0
 40
0.0
 40
0.0
 40
1.0
 40
1.0
 40
1.0
 40
2.0
 40
2.0
 40
2.0
 40
3.0
 40
3.0
 40
3.0
 40
4.0
 40
4.0
 40
4.0
 40
5.0
 40
5.0
 40
5.0
 40
6.0
 40
6.0
 40
6.0
 40
7.0
 40
7.0
 40
7.0
 40
8.0
 40
8.0
 40
8.0
 40
9.0
 40
9.0
 40
9.0
 40
10.0
 40
10.0
 40
10.0
 40
11.0
 40
11.0
 40
11.0
 40
12.0
 40
12.0
 40
12.0
 40
13.0
 40
13.0
 40
13.0
 40
14.0
 40
14.0
 40
14.0
 40
15.0
 40
15.0
 40
15.0
 40
16.0
 40
16.0
 40
16.0
 40
17.0
 40
17.0
 40
17.0
 40
18.0
 40
18.0
 40
18.0
 40
19.0
 40
19.0
 40
19.0
 40
20.0
 40
20.0
 40
20.0
 40
21.0
 40
21.0
 40
21.0
 40
22.0
 40
22.0
 40
22.0
 40
23.0
 40
23.0
 40
23.0
 40
24.0
 40
24.0
 40
24.0
 40
25.0
 40
25.0
 40
25.0
 40
26.0
 40
26.0
 40
26.0
 40
27.0
 40
27.0
 40
27.0
 40
28.0
 40
28.0
 40
28.0
 40
29.0
 40
29.0
 40
29.0
 40
30.0
 40
30.0
 40
30.0
 40
31.0
 40
31.0
 40
31.0
 40
32.0
 40
32.0
 40
32.0
 40
33.0
 40
33.0
 40
33.0
 40
33.0
 10
139.8926730891197
 20
154.8294111834263
 30
0.0
 10
139.8926730891197
 20
154.8294111834263
 30
0.0
 10
142.0344903652445
 20
154.8294111834263
 30
0.0
 10
142.0344903652445
 20
154.8294111834263
 30
0.0
 10
142.0344903652445
 20
154.8294111834263
 30
0.0
 10
140.9516961399171
 20
151.3157559800812
 30
0.0
 10
140.9516961399171
 20
151.3157559800812
 30
0.0
 10
141.8928968473923
 20
152.7887075264977
 30
0.0
 10
142.7341897198865
 20
153.4484437471474
 30
0.0
 10
143.8552245303272
 20
154.2926649527359
 30
0.0
 10
144.9803934580775
 20
155.1296514530327
 30
0.0
 10
146.3139908001845
 20
155.3044901642492
 30
0.0
 10
147.241066606852
 20
155.3044901642492
 30
0.0
 10
148.3855280820469
 20
155.3044901642492
 30
0.0
 10
149.4969166187653
 20
155.0752189084569
 30
0.0
 10
150.0784491203092
 20
153.8172414621372
 30
0.0
 10
150.5228667310863
 20
152.833838307127
 30
0.0
 10
150.5414702589793
 20
152.7201500811143
 30
0.0
 10
150.4140016419347
 20
150.7765981809602
 30
0.0
 10
151.5818897818837
 20
152.7699317437168
 30
0.0
 10
152.4424752018226
 20
153.6256940267945
 30
0.0
 10
153.9038856707499
 20
154.4507949398263
 30
0.0
 10
155.4455669174378
 20
155.3044901642492
 30
0.0
 10
156.339225275853
 20
155.3659851592288
 30
0.0
 10
157.3748216618963
 20
155.2147453676543
 30
0.0
 10
158.911679771723
 20
154.9877134254046
 30
0.0
 10
159.8859534176746
 20
154.4390816074493
 30
0.0
 10
160.3965169054045
 20
152.7816450760939
 30
0.0
 10
160.9070803931344
 20
151.1219692311958
 30
0.0
 10
160.6328506116007
 20
150.2303779314354
 30
0.0
 10
159.9992971339115
 20
147.597634224801
 30
0.0
 10
159.7105979417943
 20
146.4014962832367
 30
0.0
 10
159.2947746424084
 20
144.9400858143094
 30
0.0
 10
158.7463150793409
 20
143.2092687007094
 30
0.0
 10
158.7463150793409
 20
143.2092687007094
 30
0.0
 10
153.9038856707499
 20
127.8027915271048
 30
0.0
 10
153.9038856707499
 20
127.8027915271048
 30
0.0
 10
153.9038856707499
 20
127.8027915271048
 30
0.0
 10
151.3882752878863
 20
127.8027915271048
 30
0.0
 10
151.3882752878863
 20
127.8027915271048
 30
0.0
 10
151.3882752878863
 20
127.8027915271048
 30
0.0
 10
155.6250565106276
 20
141.2751908193897
 30
0.0
 10
155.6250565106276
 20
141.2751908193897
 30
0.0
 10
156.5094131050963
 20
144.0936252951782
 30
0.0
 10
157.109893644309
 20
146.1506931664571
 30
0.0
 10
157.4220195011804
 20
147.4415712963654
 30
0.0
 10
157.8095929989511
 20
149.0530157726519
 30
0.0
 10
157.9656559273867
 20
149.5826995529385
 30
0.0
 10
157.7816877071116
 20
150.7529992613181
 30
0.0
 10
157.6111553680925
 20
151.8430281919372
 30
0.0
 10
157.0582171779396
 20
152.5547853887321
 30
0.0
 10
156.1170164704645
 20
152.5547853887321
 30
0.0
 10
155.1096698860365
 20
152.5547853887321
 30
0.0
 10
154.2962823053817
 20
152.4412694176073
 30
0.0
 10
153.156643967048
 20
151.2945686288697
 30
0.0
 10
152.0170056287143
 20
150.1476955852443
 30
0.0
 10
151.076149431015
 20
148.7930831468137
 30
0.0
 10
150.3337308641742
 20
147.2290087646991
 30
0.0
 10
149.5957909244188
 20
145.6683794803425
 30
0.0
 10
148.8530278478023
 20
143.6822806228776
 30
0.0
 10
148.0964843801539
 20
141.2751908193897
 30
0.0
 10
148.0964843801539
 20
141.2751908193897
 30
0.0
 10
143.8552245303272
 20
127.8027915271048
 30
0.0
 10
143.8552245303272
 20
127.8027915271048
 30
0.0
 10
143.8552245303272
 20
127.8027915271048
 30
0.0
 10
141.486030802177
 20
127.8027915271048
 30
0.0
 10
141.486030802177
 20
127.8027915271048
 30
0.0
 10
141.486030802177
 20
127.8027915271048
 30
0.0
 10
146.3329388378533
 20
143.2092687007094
 30
0.0
 10
146.3329388378533
 20
143.2092687007094
 30
0.0
 10
146.8483254624444
 20
144.8408669988801
 30
0.0
 10
147.2314203331297
 20
146.1837661049335
 30
0.0
 10
147.4867020769946
 20
147.224185627838
 30
0.0
 10
147.9169947869641
 20
149.0197705792876
 30
0.0
 10
148.0306830129768
 20
150.2400242051577
 30
0.0
 10
147.709255392159
 20
151.3157559800812
 30
0.0
 10
147.3874832615654
 20
152.3916600098926
 30
0.0
 10
146.8245542879144
 20
152.6683013598569
 30
0.0
 10
145.8840425999909
 20
152.6683013598569
 30
0.0
 10
145.0989048209514
 20
152.6683013598569
 30
0.0
 10
144.3282364524954
 20
152.3275811915945
 30
0.0
 10
143.4531816219731
 20
151.6538923250251
 30
0.0
 10
142.34627171234
 20
150.8074318058939
 30
0.0
 10
141.901854101563
 20
150.1097995099067
 30
0.0
 10
141.3578731655808
 20
149.289521733736
 30
0.0
 10
140.6299240093235
 20
148.192602607601
 30
0.0
 10
140.2850697237515
 20
147.455696197173
 30
0.0
 10
139.6652966370942
 20
145.8385673095858
 30
0.0
 10
139.0506911970739
 20
144.2214384219986
 30
0.0
 10
138.463991048893
 20
142.3252566160164
 30
0.0
 10
138.0571250036777
 20
141.0154304484394
 30
0.0
 10
138.0571250036777
 20
141.0154304484394
 30
0.0
 10
133.9009590684727
 20
127.8027915271048
 30
0.0
 10
133.9009590684727
 20
127.8027915271048
 30
0.0
 10
133.9009590684727
 20
127.8027915271048
 30
0.0
 10
131.4180771143097
 20
127.8027915271048
 30
0.0
 10
131.4180771143097
 20
127.8027915271048
 30
0.0
 10
131.4180771143097
 20
127.8027915271048
 30
0.0
 10
139.8926730891197
 20
154.8294111834263
 30
0.0
 10
139.8926730891197
 20
154.8294111834263
 30
0.0
  0
HATCH
  5
6A9
330
6A2
100
AcDbEntity
  8
LOGO
 62
   250
420
  2234388
100
AcDbHatch
 10
0.0
 20
0.0
 30
0.0
210
0.0
220
0.0
230
1.0
  2
SOLID
 70
     1
 71
     0
 91
        1
 92
        1
 93
        1
 72
     4
 94
        3
 73
     0
 74
     1
 95
      104
 96
      100
 40
0.0
 40
0.0
 40
0.0
 40
0.0
 40
1.0
 40
1.0
 40
1.0
 40
2.0
 40
2.0
 40
2.0
 40
3.0
 40
3.0
 40
3.0
 40
4.0
 40
4.0
 40
4.0
 40
5.0
 40
5.0
 40
5.0
 40
6.0
 40
6.0
 40
6.0
 40
7.0
 40
7.0
 40
7.0
 40
8.0
 40
8.0
 40
8.0
 40
9.0
 40
9.0
 40
9.0
 40
10.0
 40
10.0
 40
10.0
 40
11.0
 40
11.0
 40
11.0
 40
12.0
 40
12.0
 40
12.0
 40
13.0
 40
13.0
 40
13.0
 40
14.0
 40
14.0
 40
14.0
 40
15.0
 40
15.0
 40
15.0
 40
16.0
 40
16.0
 40
16.0
 40
17.0
 40
17.0
 40
17.0
 40
18.0
 40
18.0
 40
18.0
 40
19.0
 40
19.0
 40
19.0
 40
20.0
 40
20.0
 40
20.0
 40
21.0
 40
21.0
 40
21.0
 40
22.0
 40
22.0
 40
22.0
 40
23.0
 40
23.0
 40
23.0
 40
24.0
 40
24.0
 40
24.0
 40
25.0
 40
25.0
 40
25.0
 40
26.0
 40
26.0
 40
26.0
 40
27.0
 40
27.0
 40
27.0
 40
28.0
 40
28.0
 40
28.0
 40
29.0
 40
29.0
 40
29.0
 40
30.0
 40
30.0
 40
30.0
 40
31.0
 40
31.0
 40
31.0
 40
32.0
 40
32.0
 40
32.0
 40
33.0
 40
33.0
 40
33.0
 40
33.0
 10
139.8926730891197
 20
154.8294111834263
 10
139.8926730891197
 20
154.8294111834263
 10
142.0344903652445
 20
154.8294111834263
 10
142.0344903652445
 20
154.8294111834263
 10
142.0344903652445
 20
154.8294111834263
 10
140.9516961399171
 20
151.3157559800812
 10
140.9516961399171
 20
151.3157559800812
 10
141.8928968473923
 20
152.7887075264977
 10
142.7341897198865
 20
153.4484437471474
 10
143.8552245303272
 20
154.2926649527359
 10
144.9803934580775
 20
155.1296514530327
 10
146.3139908001845
 20
155.3044901642492
 10
147.241066606852
 20
155.3044901642492
 10
148.3855280820469
 20
155.3044901642492
 10
149.4969166187653
 20
155.0752189084569
 10
150.0784491203092
 20
153.8172414621372
 10
150.5228667310863
 20
152.833838307127
 10
150.5414702589793
 20
152.7201500811143
 10
150.4140016419347
 20
150.7765981809602
 10
151.5818897818837
 20
152.7699317437168
 10
152.4424752018226
 20
153.6256940267945
 10
153.9038856707499
 20
154.4507949398263
 10
155.4455669174378
 20
155.3044901642492
 10
156.339225275853
 20
155.3659851592288
 10
157.3748216618963
 20
155.2147453676543
 10
158.911679771723
 20
154.9877134254046
 10
159.8859534176746
 20
154.4390816074493
 10
160.3965169054045
 20
152.7816450760939
 10
160.9070803931344
 20
151.1219692311958
 10
160.6328506116007
 20
150.2303779314354
 10
159.9992971339115
 20
147.597634224801
 10
159.7105979417943
 20
146.4014962832367
 10
159.2947746424084
 20
144.9400858143094
 10
158.7463150793409
 20
143.2092687007094
 10
158.7463150793409
 20
143.2092687007094
 10
153.9038856707499
 20
127.8027915271048
 10
153.9038856707499
 20
127.8027915271048
 10
153.9038856707499
 20
127.8027915271048
 10
151.3882752878863
 20
127.8027915271048
 10
151.3882752878863
 20
127.8027915271048
 10
151.3882752878863
 20
127.8027915271048
 10
155.6250565106276
 20
141.2751908193897
 10
155.6250565106276
 20
141.2751908193897
 10
156.5094131050963
 20
144.0936252951782
 10
157.109893644309
 20
146.1506931664571
 10
157.4220195011804
 20
147.4415712963654
 10
157.8095929989511
 20
149.0530157726519
 10
157.9656559273867
 20
149.5826995529385
 10
157.7816877071116
 20
150.7529992613181
 10
157.6111553680925
 20
151.8430281919372
 10
157.0582171779396
 20
152.5547853887321
 10
156.1170164704645
 20
152.5547853887321
 10
155.1096698860365
 20
152.5547853887321
 10
154.2962823053817
 20
152.4412694176073
 10
153.156643967048
 20
151.2945686288697
 10
152.0170056287143
 20
150.1476955852443
 10
151.076149431015
 20
148.7930831468137
 10
150.3337308641742
 20
147.2290087646991
 10
149.5957909244188
 20
145.6683794803425
 10
148.8530278478023
 20
143.6822806228776
 10
148.0964843801539
 20
141.2751908193897
 10
148.0964843801539
 20
141.2751908193897
 10
143.8552245303272
 20
127.8027915271048
 10
143.8552245303272
 20
127.8027915271048
 10
143.8552245303272
 20
127.8027915271048
 10
141.486030802177
 20
127.8027915271048
 10
141.486030802177
 20
127.8027915271048
 10
141.486030802177
 20
127.8027915271048
 10
146.3329388378533
 20
143.2092687007094
 10
146.3329388378533
 20
143.2092687007094
 10
146.8483254624444
 20
144.8408669988801
 10
147.2314203331297
 20
146.1837661049335
 10
147.4867020769946
 20
147.224185627838
 10
147.9169947869641
 20
149.0197705792876
 10
148.0306830129768
 20
150.2400242051577
 10
147.709255392159
 20
151.3157559800812
 10
147.3874832615654
 20
152.3916600098926
 10
146.8245542879144
 20
152.6683013598569
 10
145.8840425999909
 20
152.6683013598569
 10
145.0989048209514
 20
152.6683013598569
 10
144.3282364524954
 20
152.3275811915945
 10
143.4531816219731
 20
151.6538923250251
 10
142.34627171234
 20
150.8074318058939
 10
141.901854101563
 20
150.1097995099067
 10
141.3578731655808
 20
149.289521733736
 10
140.6299240093235
 20
148.192602607601
 10
140.2850697237515
 20
147.455696197173
 10
139.6652966370942
 20
145.8385673095858
 10
139.0506911970739
 20
144.2214384219986
 10
138.463991048893
 20
142.3252566160164
 10
138.0571250036777
 20
141.0154304484394
 10
138.0571250036777
 20
141.0154304484394
 10
133.9009590684727
 20
127.8027915271048
 10
133.9009590684727
 20
127.8027915271048
 10
133.9009590684727
 20
127.8027915271048
 10
131.4180771143097
 20
127.8027915271048
 10
131.4180771143097
 20
127.8027915271048
 10
131.4180771143097
 20
127.8027915271048
 10
139.8926730891197
 20
154.8294111834263
 10
139.8926730891197
 20
154.8294111834263
 97
        0
 75
     2
 76
     1
 98
        0
  0
SPLINE
  5
6AA
330
6A2
100
AcDbEntity
  8
LOGO
370
     0
100
AcDbSpline
210
0.0
220
0.0
230
1.0
 70
    11
 71
     3
 72
    29
 73
    25
 74
     0
 42
0.000000001
 43
0.0000000001
 40
0.0
 40
0.0
 40
0.0
 40
0.0
 40
1.0
 40
1.0
 40
1.0
 40
2.0
 40
2.0
 40
2.0
 40
3.0
 40
3.0
 40
3.0
 40
4.0
 40
4.0
 40
4.0
 40
5.0
 40
5.0
 40
5.0
 40
6.0
 40
6.0
 40
6.0
 40
7.0
 40
7.0
 40
7.0
 40
8.0
 40
8.0
 40
8.0
 40
8.0
 10
101.6420971922469
 20
132.8388354296931
 30
0.0
 10
101.630039350094
 20
134.7164137077823
 30
0.0
 10
102.2236296937908
 20
138.0598810818841
 30
0.0
 10
103.7487744712405
 20
142.5378191476827
 30
0.0
 10
105.819967243327
 20
148.5896501242061
 30
0.0
 10
107.0602024361932
 20
150.8074318058939
 30
0.0
 10
108.1522984254671
 20
151.8833358357054
 30
0.0
 10
109.741177511439
 20
153.4532668840085
 30
0.0
 10
111.8740375333931
 20
153.5290590346837
 30
0.0
 10
112.5075910110823
 20
153.4532668840085
 30
0.0
 10
113.4012493694975
 20
153.3490526768302
 30
0.0
 10
114.6683563248758
 20
152.7580461564518
 30
0.0
 10
114.7493161221879
 20
150.7838328862519
 30
0.0
 10
114.8106388622796
 20
149.0909118479895
 30
0.0
 10
114.3186789024427
 20
145.9191825971221
 30
0.0
 10
112.6164561002338
 20
140.9489400617108
 30
0.0
 10
110.6444821435766
 20
135.1746117095912
 30
0.0
 10
109.4669477299053
 20
132.8960240524753
 30
0.0
 10
108.5212683953448
 20
131.9072809959403
 30
0.0
 10
106.7346406980658
 20
130.0538184021569
 30
0.0
 10
104.8222669326213
 20
130.2336525051225
 30
0.0
 10
104.5408024457958
 20
130.2336525051225
 30
0.0
 10
104.1721769856939
 20
130.2336525051225
 30
0.0
 10
101.6465758193322
 20
130.6305277668397
 30
0.0
 10
101.6420971922469
 20
132.8388354296931
 30
0.0
  0
SPLINE
  5
6AB
330
6A2
100
AcDbEntity
  8
LOGO
370
     0
100
AcDbSpline
210
0.0
220
0.0
230
1.0
 70
    11
 71
     3
 72
    32
 73
    28
 74
     0
 42
0.000000001
 43
0.0000000001
 40
0.0
 40
0.0
 40
0.0
 40
0.0
 40
1.0
 40
1.0
 40
1.0
 40
2.0
 40
2.0
 40
2.0
 40
3.0
 40
3.0
 40
3.0
 40
4.0
 40
4.0
 40
4.0
 40
5.0
 40
5.0
 40
5.0
 40
6.0
 40
6.0
 40
6.0
 40
7.0
 40
7.0
 40
7.0
 40
8.0
 40
8.0
 40
8.0
 40
9.0
 40
9.0
 40
9.0
 40
9.0
 10
106.2595617172429
 20
153.4105476718098
 30
0.0
 10
104.8222669326213
 20
151.5474388043041
 30
0.0
 10
103.7177685914188
 20
149.8758773721411
 30
0.0
 10
101.9232171692965
 20
144.6141795664062
 30
0.0
 10
100.2754269116635
 20
139.7999999594306
 30
0.0
 10
99.22777268346732
 20
136.3052927937542
 30
0.0
 10
99.06964269637689
 20
132.039572749846
 30
0.0
 10
98.94665270641765
 20
128.8673267343149
 30
0.0
 10
100.8807305877373
 20
127.8027915271048
 30
0.0
 10
103.7129454545577
 20
127.8027915271048
 30
0.0
 10
104.9352661390825
 20
127.8027915271048
 30
0.0
 10
108.0151835347002
 20
127.8827177950895
 30
0.0
 10
110.2045431598849
 20
130.5926316915021
 30
0.0
 10
111.7417457794874
 20
132.4984597712065
 30
0.0
 10
113.155269389579
 20
134.475256864725
 30
0.0
 10
115.0562743324223
 20
140.9489400617108
 30
0.0
 10
116.6361961642235
 20
146.3680788349845
 30
0.0
 10
117.7282921534974
 20
149.8639917848761
 30
0.0
 10
117.6480213757369
 20
151.8595646611754
 30
0.0
 10
117.6480213757369
 20
151.8595646611754
 30
0.0
 10
117.6480213757369
 20
151.8595646611754
 30
0.0
 10
117.6480213757369
 20
151.8595646611754
 30
0.0
 10
117.13229024137
 20
155.18150017429
 30
0.0
 10
114.7162431837115
 20
155.886194920681
 30
0.0
 10
113.3351034925446
 20
155.886194920681
 30
0.0
 10
111.9829026225447
 20
155.886194920681
 30
0.0
 10
108.3414342923792
 20
156.1251124501957
 30
0.0
 10
106.2595617172429
 20
153.4105476718098
 30
0.0
  0
HATCH
  5
6AC
330
6A2
100
AcDbEntity
  8
LOGO
 62
   250
420
  2234388
100
AcDbHatch
 10
0.0
 20
0.0
 30
0.0
210
0.0
220
0.0
230
1.0
  2
SOLID
 70
     1
 71
     0
 91
        2
 92
        1
 93
        1
 72
     4
 94
        3
 73
     0
 74
     1
 95
       29
 96
       25
 40
0.0
 40
0.0
 40
0.0
 40
0.0
 40
1.0
 40
1.0
 40
1.0
 40
2.0
 40
2.0
 40
2.0
 40
3.0
 40
3.0
 40
3.0
 40
4.0
 40
4.0
 40
4.0
 40
5.0
 40
5.0
 40
5.0
 40
6.0
 40
6.0
 40
6.0
 40
7.0
 40
7.0
 40
7.0
 40
8.0
 40
8.0
 40
8.0
 40
8.0
 10
101.6420971922469
 20
132.8388354296931
 10
101.630039350094
 20
134.7164137077823
 10
102.2236296937908
 20
138.0598810818841
 10
103.7487744712405
 20
142.5378191476827
 10
105.819967243327
 20
148.5896501242061
 10
107.0602024361932
 20
150.8074318058939
 10
108.1522984254671
 20
151.8833358357054
 10
109.741177511439
 20
153.4532668840085
 10
111.8740375333931
 20
153.5290590346837
 10
112.5075910110823
 20
153.4532668840085
 10
113.4012493694975
 20
153.3490526768302
 10
114.6683563248758
 20
152.7580461564518
 10
114.7493161221879
 20
150.7838328862519
 10
114.8106388622796
 20
149.0909118479895
 10
114.3186789024427
 20
145.9191825971221
 10
112.6164561002338
 20
140.9489400617108
 10
110.6444821435766
 20
135.1746117095912
 10
109.4669477299053
 20
132.8960240524753
 10
108.5212683953448
 20
131.9072809959403
 10
106.7346406980658
 20
130.0538184021569
 10
104.8222669326213
 20
130.2336525051225
 10
104.5408024457958
 20
130.2336525051225
 10
104.1721769856939
 20
130.2336525051225
 10
101.6465758193322
 20
130.6305277668397
 10
101.6420971922469
 20
132.8388354296931
 97
        0
 92
        1
 93
        1
 72
     4
 94
        3
 73
     0
 74
     1
 95
       32
 96
       28
 40
0.0
 40
0.0
 40
0.0
 40
0.0
 40
1.0
 40
1.0
 40
1.0
 40
2.0
 40
2.0
 40
2.0
 40
3.0
 40
3.0
 40
3.0
 40
4.0
 40
4.0
 40
4.0
 40
5.0
 40
5.0
 40
5.0
 40
6.0
 40
6.0
 40
6.0
 40
7.0
 40
7.0
 40
7.0
 40
8.0
 40
8.0
 40
8.0
 40
9.0
 40
9.0
 40
9.0
 40
9.0
 10
106.2595617172429
 20
153.4105476718098
 10
104.8222669326213
 20
151.5474388043041
 10
103.7177685914188
 20
149.8758773721411
 10
101.9232171692965
 20
144.6141795664062
 10
100.2754269116635
 20
139.7999999594306
 10
99.22777268346732
 20
136.3052927937542
 10
99.06964269637689
 20
132.039572749846
 10
98.94665270641765
 20
128.8673267343149
 10
100.8807305877373
 20
127.8027915271048
 10
103.7129454545577
 20
127.8027915271048
 10
104.9352661390825
 20
127.8027915271048
 10
108.0151835347002
 20
127.8827177950895
 10
110.2045431598849
 20
130.5926316915021
 10
111.7417457794874
 20
132.4984597712065
 10
113.155269389579
 20
134.475256864725
 10
115.0562743324223
 20
140.9489400617108
 10
116.6361961642235
 20
146.3680788349845
 10
117.7282921534974
 20
149.8639917848761
 10
117.6480213757369
 20
151.8595646611754
 10
117.6480213757369
 20
151.8595646611754
 10
117.6480213757369
 20
151.8595646611754
 10
117.6480213757369
 20
151.8595646611754
 10
117.13229024137
 20
155.18150017429
 10
114.7162431837115
 20
155.886194920681
 10
113.3351034925446
 20
155.886194920681
 10
111.9829026225447
 20
155.886194920681
 10
108.3414342923792
 20
156.1251124501957
 10
106.2595617172429
 20
153.4105476718098
 97
        0
 75
     2
 76
     1
 98
        0
  0
ENDBLK
  5
6AD
330
6A2
100
AcDbEntity
  8
0
100
AcDbBlockEnd
  0
BLOCK
  5
DE3
330
DE2
100
AcDbEntity
  8
0
100
AcDbBlockBegin
  2
*D6
 70
     1
 10
0.0
 20
0.0
 30
0.0
  3
*D6
  1
*D6
  0
LINE
  5
DE5
330
DE2
100
AcDbEntity
  8
MODEL
 62
     0
370
    -2
100
AcDbLine
 10
161.1034074769353
 20
380.8776795820364
 30
0.0
 11
147.511394287666
 21
380.8776795820364
 31
0.0
  0
LINE
  5
DE6
330
DE2
100
AcDbEntity
  8
MODEL
 62
     0
370
    -2
100
AcDbLine
 10
161.1034074769353
 20
304.2036367169111
 30
0.0
 11
147.511394287666
 21
304.2036367169111
 31
0.0
  0
LINE
  5
DE7
330
DE2
100
AcDbEntity
  8
MODEL
 62
     0
370
    -2
100
AcDbLine
 10
147.511394287666
 20
378.8776795820364
 30
0.0
 11
147.511394287666
 21
306.2036367169111
 31
0.0
  0
INSERT
  5
DE8
330
DE2
100
AcDbEntity
  8
MODEL
 62
     0
370
    -2
100
AcDbBlockReference
  2
_DOT
 10
147.511394287666
 20
380.8776795820364
 30
0.0
 41
2.0
 42
2.0
 43
2.0
 50
90.0
  0
INSERT
  5
DE9
330
DE2
100
AcDbEntity
  8
MODEL
 62
     0
370
    -2
100
AcDbBlockReference
  2
_DOT
 10
147.511394287666
 20
304.2036367169111
 30
0.0
 41
2.0
 42
2.0
 43
2.0
 50
270.0
  0
MTEXT
  5
DEA
330
DE2
100
AcDbEntity
  8
MODEL
 62
     0
100
AcDbMText
 10
134.511394287666
 20
342.5406581494738
 30
0.0
 40
6.0
 41
0.0
 46
0.0
 71
     5
 72
     1
  1
\A1;77
  7
ＭＳ ゴシック
 11
0.0
 21
1.0
 31
0.0
 73
     1
 44
1.0
  0
POINT
  5
DEB
330
DE2
100
AcDbEntity
  8
Defpoints
 62
     0
100
AcDbPoint
 10
171.1034074769353
 20
380.8776795820364
 30
0.0
  0
POINT
  5
DEC
330
DE2
100
AcDbEntity
  8
Defpoints
 62
     0
100
AcDbPoint
 10
171.1034074769353
 20
304.2036367169111
 30
0.0
  0
POINT
  5
DED
330
DE2
100
AcDbEntity
  8
Defpoints
 62
     0
100
AcDbPoint
 10
147.511394287666
 20
304.2036367169111
 30
0.0
  0
ENDBLK
  5
DE4
330
DE2
100
AcDbEntity
  8
0
100
AcDbBlockEnd
  0
BLOCK
  5
DFC
330
DFB
100
AcDbEntity
  8
0
100
AcDbBlockBegin
  2
*D7
 70
     1
 10
0.0
 20
0.0
 30
0.0
  3
*D7
  1
*D7
  0
LINE
  5
DFE
330
DFB
100
AcDbEntity
  8
MODEL
 62
     0
370
    -2
100
AcDbLine
 10
171.1034074769353
 20
294.2036367169111
 30
0.0
 11
171.1034074769353
 21
281.0428872399151
 31
0.0
  0
LINE
  5
DFF
330
DFB
100
AcDbEntity
  8
MODEL
 62
     0
370
    -2
100
AcDbLine
 10
281.8112876816255
 20
294.2036367169111
 30
0.0
 11
281.8112876816255
 21
281.0428872399151
 31
0.0
  0
LINE
  5
E00
330
DFB
100
AcDbEntity
  8
MODEL
 62
     0
370
    -2
100
AcDbLine
 10
172.1034074769353
 20
281.0428872399151
 30
0.0
 11
280.8112876816255
 21
281.0428872399151
 31
0.0
  0
INSERT
  5
E01
330
DFB
100
AcDbEntity
  8
MODEL
 62
     0
370
    -2
100
AcDbBlockReference
  2
_DOT
 10
171.1034074769353
 20
281.0428872399151
 30
0.0
 50
180.0
  0
INSERT
  5
E02
330
DFB
100
AcDbEntity
  8
MODEL
 62
     0
370
    -2
100
AcDbBlockReference
  2
_DOT
 10
281.8112876816255
 20
281.0428872399151
 30
0.0
  0
MTEXT
  5
E03
330
DFB
100
AcDbEntity
  8
MODEL
 62
     0
100
AcDbMText
 10
226.4573475792804
 20
294.0428872399151
 30
0.0
 40
6.0
 41
0.0
 46
0.0
 71
     5
 72
     1
  1
\A1;111
  7
ＭＳ ゴシック
 73
     1
 44
1.0
  0
POINT
  5
E04
330
DFB
100
AcDbEntity
  8
Defpoints
 62
     0
100
AcDbPoint
 10
171.1034074769353
 20
304.2036367169111
 30
0.0
  0
POINT
  5
E05
330
DFB
100
AcDbEntity
  8
Defpoints
 62
     0
100
AcDbPoint
 10
281.8112876816255
 20
304.2036367169111
 30
0.0
  0
POINT
  5
E06
330
DFB
100
AcDbEntity
  8
Defpoints
 62
     0
100
AcDbPoint
 10
281.8112876816255
 20
281.0428872399151
 30
0.0
  0
ENDBLK
  5
DFD
330
DFB
100
AcDbEntity
  8
0
100
AcDbBlockEnd
  0
BLOCK
  5
E0B
330
E0A
100
AcDbEntity
  8
0
100
AcDbBlockBegin
  2
*D8
 70
     1
 10
0.0
 20
0.0
 30
0.0
  3
*D8
  1
*D8
  0
LINE
  5
E0D
330
E0A
100
AcDbEntity
  8
MODEL
 62
     0
370
    -2
100
AcDbLine
 10
171.1034074769353
 20
299.2036367169111
 30
0.0
 11
171.1034074769353
 21
267.8986082141417
 31
0.0
  0
LINE
  5
E0E
330
E0A
100
AcDbEntity
  8
MODEL
 62
     0
370
    -2
100
AcDbLine
 10
279.4792180651414
 20
299.2036367169111
 30
0.0
 11
279.4792180651414
 21
267.8986082141417
 31
0.0
  0
LINE
  5
E0F
330
E0A
100
AcDbEntity
  8
MODEL
 62
     0
370
    -2
100
AcDbLine
 10
173.1034074769353
 20
267.8986082141417
 30
0.0
 11
277.4792180651414
 21
267.8986082141417
 31
0.0
  0
INSERT
  5
E10
330
E0A
100
AcDbEntity
  8
MODEL
 62
     0
370
    -2
100
AcDbBlockReference
  2
_DOT
 10
171.1034074769353
 20
267.8986082141417
 30
0.0
 41
2.0
 42
2.0
 43
2.0
 50
180.0
  0
INSERT
  5
E11
330
E0A
100
AcDbEntity
  8
MODEL
 62
     0
370
    -2
100
AcDbBlockReference
  2
_DOT
 10
279.4792180651414
 20
267.8986082141417
 30
0.0
 41
2.0
 42
2.0
 43
2.0
  0
MTEXT
  5
E12
330
E0A
100
AcDbEntity
  8
MODEL
 62
     0
100
AcDbMText
 10
225.2913127710383
 20
275.8986082141417
 30
0.0
 40
6.0
 41
0.0
 46
0.0
 71
     5
 72
     1
  1
\A1;108
  7
ＭＳ ゴシック
 73
     1
 44
1.0
  0
POINT
  5
E13
330
E0A
100
AcDbEntity
  8
Defpoints
 62
     0
100
AcDbPoint
 10
171.1034074769353
 20
304.2036367169111
 30
0.0
  0
POINT
  5
E14
330
E0A
100
AcDbEntity
  8
Defpoints
 62
     0
100
AcDbPoint
 10
279.4792180651414
 20
304.2036367169111
 30
0.0
  0
POINT
  5
E15
330
E0A
100
AcDbEntity
  8
Defpoints
 62
     0
100
AcDbPoint
 10
279.4792180651414
 20
267.8986082141417
 30
0.0
  0
ENDBLK
  5
E0C
330
E0A
100
AcDbEntity
  8
0
100
AcDbBlockEnd
  0
BLOCK
  5
E30
330
E2F
100
AcDbEntity
  8
0
100
AcDbBlockBegin
  2
*D9
 70
     1
 10
0.0
 20
0.0
 30
0.0
  3
*D9
  1
*D9
  0
LINE
  5
E32
330
E2F
100
AcDbEntity
  8
MODEL
 62
     0
370
    -2
100
AcDbLine
 10
284.4792180651414
 20
380.8776795820364
 30
0.0
 11
311.9195846368371
 21
380.8776795820364
 31
0.0
  0
LINE
  5
E33
330
E2F
100
AcDbEntity
  8
MODEL
 62
     0
370
    -2
100
AcDbLine
 10
284.4792180651414
 20
304.2036367169111
 30
0.0
 11
311.9195846368371
 21
304.2036367169111
 31
0.0
  0
LINE
  5
E34
330
E2F
100
AcDbEntity
  8
MODEL
 62
     0
370
    -2
100
AcDbLine
 10
311.9195846368371
 20
378.8776795820364
 30
0.0
 11
311.9195846368371
 21
306.2036367169111
 31
0.0
  0
INSERT
  5
E35
330
E2F
100
AcDbEntity
  8
MODEL
 62
     0
370
    -2
100
AcDbBlockReference
  2
_DOT
 10
311.9195846368371
 20
380.8776795820364
 30
0.0
 41
2.0
 42
2.0
 43
2.0
 50
90.0
  0
INSERT
  5
E36
330
E2F
100
AcDbEntity
  8
MODEL
 62
     0
370
    -2
100
AcDbBlockReference
  2
_DOT
 10
311.9195846368371
 20
304.2036367169111
 30
0.0
 41
2.0
 42
2.0
 43
2.0
 50
270.0
  0
MTEXT
  5
E37
330
E2F
100
AcDbEntity
  8
MODEL
 62
     0
100
AcDbMText
 10
303.9195846368371
 20
342.5406581494738
 30
0.0
 40
6.0
 41
0.0
 46
0.0
 71
     5
 72
     1
  1
\A1;77
  7
ＭＳ ゴシック
 11
0.0
 21
1.0
 31
0.0
 73
     1
 44
1.0
  0
POINT
  5
E38
330
E2F
100
AcDbEntity
  8
Defpoints
 62
     0
100
AcDbPoint
 10
279.4792180651414
 20
380.8776795820364
 30
0.0
  0
POINT
  5
E39
330
E2F
100
AcDbEntity
  8
Defpoints
 62
     0
100
AcDbPoint
 10
279.4792180651414
 20
304.2036367169111
 30
0.0
  0
POINT
  5
E3A
330
E2F
100
AcDbEntity
  8
Defpoints
 62
     0
100
AcDbPoint
 10
311.9195846368371
 20
304.2036367169111
 30
0.0
  0
ENDBLK
  5
E31
330
E2F
100
AcDbEntity
  8
0
100
AcDbBlockEnd
  0
BLOCK
  5
E3D
330
E3C
100
AcDbEntity
  8
0
100
AcDbBlockBegin
  2
*D10
 70
     1
 10
0.0
 20
0.0
 30
0.0
  3
*D10
  1
*D10
  0
LINE
  5
E3F
330
E3C
100
AcDbEntity
  8
MODEL
 62
     0
370
    -2
100
AcDbLine
 10
166.1034074769353
 20
380.8776795820364
 30
0.0
 11
143.4443285691862
 21
380.8776795820364
 31
0.0
  0
LINE
  5
E40
330
E3C
100
AcDbEntity
  8
MODEL
 62
     0
370
    -2
100
AcDbLine
 10
166.1034074769353
 20
302.1222733879492
 30
0.0
 11
143.4443285691862
 21
302.1222733879492
 31
0.0
  0
LINE
  5
E41
330
E3C
100
AcDbEntity
  8
MODEL
 62
     0
370
    -2
100
AcDbLine
 10
143.4443285691862
 20
378.8776795820364
 30
0.0
 11
143.4443285691862
 21
304.1222733879492
 31
0.0
  0
INSERT
  5
E42
330
E3C
100
AcDbEntity
  8
MODEL
 62
     0
370
    -2
100
AcDbBlockReference
  2
_DOT
 10
143.4443285691862
 20
380.8776795820364
 30
0.0
 41
2.0
 42
2.0
 43
2.0
 50
90.0
  0
INSERT
  5
E43
330
E3C
100
AcDbEntity
  8
MODEL
 62
     0
370
    -2
100
AcDbBlockReference
  2
_DOT
 10
143.4443285691862
 20
302.1222733879492
 30
0.0
 41
2.0
 42
2.0
 43
2.0
 50
270.0
  0
MTEXT
  5
E44
330
E3C
100
AcDbEntity
  8
MODEL
 62
     0
100
AcDbMText
 10
135.4443285691862
 20
341.4999764849928
 30
0.0
 40
6.0
 41
0.0
 46
0.0
 71
     5
 72
     1
  1
\A1;79
  7
ＭＳ ゴシック
 11
0.0
 21
1.0
 31
0.0
 73
     1
 44
1.0
  0
POINT
  5
E45
330
E3C
100
AcDbEntity
  8
Defpoints
 62
     0
100
AcDbPoint
 10
171.1034074769353
 20
380.8776795820364
 30
0.0
  0
POINT
  5
E46
330
E3C
100
AcDbEntity
  8
Defpoints
 62
     0
100
AcDbPoint
 10
171.1034074769353
 20
302.1222733879492
 30
0.0
  0
POINT
  5
E47
330
E3C
100
AcDbEntity
  8
Defpoints
 62
     0
100
AcDbPoint
 10
143.4443285691862
 20
302.1222733879492
 30
0.0
  0
ENDBLK
  5
E3E
330
E3C
100
AcDbEntity
  8
0
100
AcDbBlockEnd
  0
BLOCK
  5
E4C
330
E4B
100
AcDbEntity
  8
0
100
AcDbBlockBegin
  2
*D11
 70
     1
 10
0.0
 20
0.0
 30
0.0
  3
*D11
  1
*D11
  0
LINE
  5
E4E
330
E4B
100
AcDbEntity
  8
MODEL
 62
     0
370
    -2
100
AcDbLine
 10
166.1034074769353
 20
380.8776795820364
 30
0.0
 11
104.1922887661108
 21
380.8776795820364
 31
0.0
  0
LINE
  5
E4F
330
E4B
100
AcDbEntity
  8
MODEL
 62
     0
370
    -2
100
AcDbLine
 10
138.4443285691862
 20
302.1222733879492
 30
0.0
 11
104.1922887661108
 21
302.1222733879492
 31
0.0
  0
LINE
  5
E50
330
E4B
100
AcDbEntity
  8
MODEL
 62
     0
370
    -2
100
AcDbLine
 10
104.1922887661108
 20
378.8776795820364
 30
0.0
 11
104.1922887661108
 21
304.1222733879492
 31
0.0
  0
INSERT
  5
E51
330
E4B
100
AcDbEntity
  8
MODEL
 62
     0
370
    -2
100
AcDbBlockReference
  2
_DOT
 10
104.1922887661108
 20
380.8776795820364
 30
0.0
 41
2.0
 42
2.0
 43
2.0
 50
90.0
  0
INSERT
  5
E52
330
E4B
100
AcDbEntity
  8
MODEL
 62
     0
370
    -2
100
AcDbBlockReference
  2
_DOT
 10
104.1922887661108
 20
302.1222733879492
 30
0.0
 41
2.0
 42
2.0
 43
2.0
 50
270.0
  0
MTEXT
  5
E53
330
E4B
100
AcDbEntity
  8
MODEL
 62
     0
100
AcDbMText
 10
96.19228876611083
 20
341.4999764849928
 30
0.0
 40
6.0
 41
0.0
 46
0.0
 71
     5
 72
     1
  1
\A1;79
  7
ＭＳ ゴシック
 11
0.0
 21
1.0
 31
0.0
 73
     1
 44
1.0
  0
POINT
  5
E54
330
E4B
100
AcDbEntity
  8
Defpoints
 62
     0
100
AcDbPoint
 10
171.1034074769353
 20
380.8776795820364
 30
0.0
  0
POINT
  5
E55
330
E4B
100
AcDbEntity
  8
Defpoints
 62
     0
100
AcDbPoint
 10
143.4443285691862
 20
302.1222733879492
 30
0.0
  0
POINT
  5
E56
330
E4B
100
AcDbEntity
  8
Defpoints
 62
     0
100
AcDbPoint
 10
104.1922887661108
 20
302.1222733879492
 30
0.0
  0
ENDBLK
  5
E4D
330
E4B
100
AcDbEntity
  8
0
100
AcDbBlockEnd
  0
BLOCK
  5
135A
330
1359
100
AcDbEntity
  8
0
100
AcDbBlockBegin
  2
*D12
 70
     1
 10
0.0
 20
0.0
 30
0.0
  3
*D12
  1
*D13
  0
LINE
  5
135C
330
1359
100
AcDbEntity
  8
MODEL
 62
     0
370
    -2
100
AcDbLine
 10
548.2284731044069
 20
441.9603092073116
 30
0.0
 11
548.2284731044069
 21
463.2612220844572
 31
0.0
  0
LINE
  5
135D
330
1359
100
AcDbEntity
  8
MODEL
 62
     0
370
    -2
100
AcDbLine
 10
559.7284731044069
 20
441.9603092073116
 30
0.0
 11
559.7284731044069
 21
463.2612220844572
 31
0.0
  0
LINE
  5
135E
330
1359
100
AcDbEntity
  8
MODEL
 62
     0
370
    -2
100
AcDbLine
 10
546.2284731044069
 20
463.2612220844572
 30
0.0
 11
544.2284731044069
 21
463.2612220844572
 31
0.0
  0
LINE
  5
135F
330
1359
100
AcDbEntity
  8
MODEL
 62
     0
370
    -2
100
AcDbLine
 10
561.7284731044069
 20
463.2612220844572
 30
0.0
 11
563.7284731044069
 21
463.2612220844572
 31
0.0
  0
INSERT
  5
1360
330
1359
100
AcDbEntity
  8
MODEL
 62
     0
370
    -2
100
AcDbBlockReference
  2
_DOT
 10
548.2284731044069
 20
463.2612220844572
 30
0.0
 41
2.0
 42
2.0
 43
2.0
  0
INSERT
  5
1361
330
1359
100
AcDbEntity
  8
MODEL
 62
     0
370
    -2
100
AcDbBlockReference
  2
_DOT
 10
559.7284731044069
 20
463.2612220844572
 30
0.0
 41
2.0
 42
2.0
 43
2.0
 50
180.0
  0
MTEXT
  5
1362
330
1359
100
AcDbEntity
  8
MODEL
 62
     0
100
AcDbMText
 10
553.9784731044069
 20
471.2612220844572
 30
0.0
 40
6.0
 41
0.0
 46
0.0
 71
     5
 72
     1
  1
\A1;12
  7
ＭＳ ゴシック
 73
     1
 44
1.0
  0
POINT
  5
1363
330
1359
100
AcDbEntity
  8
Defpoints
 62
     0
100
AcDbPoint
 10
548.2284731044069
 20
436.9603092073116
 30
0.0
  0
POINT
  5
1364
330
1359
100
AcDbEntity
  8
Defpoints
 62
     0
100
AcDbPoint
 10
559.7284731044069
 20
436.9603092073116
 30
0.0
  0
POINT
  5
1365
330
1359
100
AcDbEntity
  8
Defpoints
 62
     0
100
AcDbPoint
 10
559.7284731044069
 20
463.2612220844572
 30
0.0
  0
ENDBLK
  5
135B
330
1359
100
AcDbEntity
  8
0
100
AcDbBlockEnd
  0
BLOCK
  5
136A
330
1369
100
AcDbEntity
  8
0
100
AcDbBlockBegin
  2
*D13
 70
     1
 10
0.0
 20
0.0
 30
0.0
  3
*D13
  1
*D14
  0
LINE
  5
136C
330
1369
100
AcDbEntity
  8
MODEL
 62
     0
370
    -2
100
AcDbLine
 10
842.165124443079
 20
201.1534664927506
 30
0.0
 11
842.165124443079
 21
156.4998870133462
 31
0.0
  0
LINE
  5
136D
330
1369
100
AcDbEntity
  8
MODEL
 62
     0
370
    -2
100
AcDbLine
 10
777.1497361855033
 20
201.1534664927506
 30
0.0
 11
777.1497361855033
 21
156.4998870133462
 31
0.0
  0
LINE
  5
136E
330
1369
100
AcDbEntity
  8
MODEL
 62
     0
370
    -2
100
AcDbLine
 10
840.165124443079
 20
156.4998870133462
 30
0.0
 11
779.1497361855033
 21
156.4998870133462
 31
0.0
  0
INSERT
  5
136F
330
1369
100
AcDbEntity
  8
MODEL
 62
     0
370
    -2
100
AcDbBlockReference
  2
_DOT
 10
842.165124443079
 20
156.4998870133462
 30
0.0
 41
2.0
 42
2.0
 43
2.0
  0
INSERT
  5
1370
330
1369
100
AcDbEntity
  8
MODEL
 62
     0
370
    -2
100
AcDbBlockReference
  2
_DOT
 10
777.1497361855033
 20
156.4998870133462
 30
0.0
 41
2.0
 42
2.0
 43
2.0
 50
180.0
  0
MTEXT
  5
1371
330
1369
100
AcDbEntity
  8
MODEL
 62
     0
100
AcDbMText
 10
809.6574303142911
 20
164.4998870133462
 30
0.0
 40
6.0
 41
0.0
 46
0.0
 71
     5
 72
     1
  1
\A1;65.01538826
  7
ＭＳ ゴシック
 73
     1
 44
1.0
  0
POINT
  5
1372
330
1369
100
AcDbEntity
  8
Defpoints
 62
     0
100
AcDbPoint
 10
842.165124443079
 20
206.1534664927506
 30
0.0
  0
POINT
  5
1373
330
1369
100
AcDbEntity
  8
Defpoints
 62
     0
100
AcDbPoint
 10
777.1497361855033
 20
206.1534664927506
 30
0.0
  0
POINT
  5
1374
330
1369
100
AcDbEntity
  8
Defpoints
 62
     0
100
AcDbPoint
 10
777.1497361855033
 20
156.4998870133462
 30
0.0
  0
ENDBLK
  5
136B
330
1369
100
AcDbEntity
  8
0
100
AcDbBlockEnd
  0
BLOCK
  5
1379
330
1378
100
AcDbEntity
  8
0
100
AcDbBlockBegin
  2
*D14
 70
     1
 10
0.0
 20
0.0
 30
0.0
  3
*D14
  1
*D15
  0
LINE
  5
137B
330
1378
100
AcDbEntity
  8
MODEL
 62
     0
370
    -2
100
AcDbLine
 10
214.1781490651779
 20
276.5584932549572
 30
0.0
 11
214.1781490651779
 21
148.0816167402309
 31
0.0
  0
LINE
  5
137C
330
1378
100
AcDbEntity
  8
MODEL
 62
     0
370
    -2
100
AcDbLine
 10
279.1935373227535
 20
254.3032257360178
 30
0.0
 11
279.1935373227535
 21
148.0816167402309
 31
0.0
  0
LINE
  5
137D
330
1378
100
AcDbEntity
  8
MODEL
 62
     0
370
    -2
100
AcDbLine
 10
216.1781490651779
 20
148.0816167402309
 30
0.0
 11
277.1935373227535
 21
148.0816167402309
 31
0.0
  0
INSERT
  5
137E
330
1378
100
AcDbEntity
  8
MODEL
 62
     0
370
    -2
100
AcDbBlockReference
  2
_DOT
 10
214.1781490651779
 20
148.0816167402309
 30
0.0
 41
2.0
 42
2.0
 43
2.0
 50
180.0
  0
INSERT
  5
137F
330
1378
100
AcDbEntity
  8
MODEL
 62
     0
370
    -2
100
AcDbBlockReference
  2
_DOT
 10
279.1935373227535
 20
148.0816167402309
 30
0.0
 41
2.0
 42
2.0
 43
2.0
  0
MTEXT
  5
1380
330
1378
100
AcDbEntity
  8
MODEL
 62
     0
100
AcDbMText
 10
246.6858431939657
 20
156.0816167402309
 30
0.0
 40
6.0
 41
0.0
 46
0.0
 71
     5
 72
     1
  1
\A1;65
  7
ＭＳ ゴシック
 73
     1
 44
1.0
  0
POINT
  5
1381
330
1378
100
AcDbEntity
  8
Defpoints
 62
     0
100
AcDbPoint
 10
214.1781490651779
 20
281.5584932549572
 30
0.0
  0
POINT
  5
1382
330
1378
100
AcDbEntity
  8
Defpoints
 62
     0
100
AcDbPoint
 10
279.1935373227535
 20
259.3032257360178
 30
0.0
  0
POINT
  5
1383
330
1378
100
AcDbEntity
  8
Defpoints
 62
     0
100
AcDbPoint
 10
279.1935373227535
 20
148.0816167402309
 30
0.0
  0
ENDBLK
  5
137A
330
1378
100
AcDbEntity
  8
0
100
AcDbBlockEnd
  0
ENDSEC
  0
SECTION
  2
ENTITIES
  0
MTEXT
  5
177
330
A
100
AcDbEntity
  8
TEMPLATE
390
1D
100
AcDbMText
 10
15.84042890954615
 20
68.74635032628566
 30
0.0
 40
3.257682291666666
 41
0.0
 46
0.0
 71
     1
 72
     1
  1
品名
  7
ＭＳ ゴシック
 73
     1
 44
0.7828267384257843
  0
MTEXT
  5
178
330
A
100
AcDbEntity
  8
TEMPLATE
390
1D
100
AcDbMText
 10
15.84042890954615
 20
51.74635032628562
 30
0.0
 40
3.257682291666666
 41
0.0
 46
0.0
 71
     1
 72
     1
  1
仕様
  7
ＭＳ ゴシック
 73
     1
 44
0.7828267384257843
  0
LINE
  5
179
330
A
100
AcDbEntity
  8
TEMPLATE
390
1D
100
AcDbLine
 10
404.4404289094498
 20
53.4293347012857
 30
0.0
 11
14.44042890944975
 21
53.4293347012857
 31
0.0
  0
LWPOLYLINE
  5
17A
330
A
100
AcDbEntity
  8
TEMPLATE
390
1D
100
AcDbPolyline
 90
        5
 70
   128
 43
0.0
 10
404.4404289094498
 20
579.4293347012853
 10
14.44042890944975
 20
579.4293347012853
 10
14.44042890944975
 20
19.42933470128565
 10
404.4404289094498
 20
19.42933470128565
 10
404.4404289094498
 20
579.4293347012853
  0
LINE
  5
17B
330
A
100
AcDbEntity
  8
TEMPLATE
390
1D
100
AcDbLine
 10
404.4404289094498
 20
70.42933470128563
 30
0.0
 11
14.44042890944975
 21
70.42933470128563
 31
0.0
  0
LINE
  5
17C
330
A
100
AcDbEntity
  8
TEMPLATE
390
1D
100
AcDbLine
 10
404.4404289095462
 20
36.42933470128564
 30
0.0
 11
253.840428909546
 21
36.42933470128564
 31
0.0
  0
MTEXT
  5
17D
330
A
100
AcDbEntity
  8
TEMPLATE
390
1D
100
AcDbMText
 10
14.4404289095869
 20
17.05857028991423
 30
0.0
 40
4.343576388888888
 41
0.0
 46
4.343576388888888
 71
     1
 72
     1
  1
{150714SO}
  7
ＭＳ ゴシック
 73
     1
 44
0.7828267384257843
1001
ACAD
1000
ACAD_MTEXT_DEFINED_HEIGHT_BEGIN
1070
    46
1040
4.343576388888888
1000
ACAD_MTEXT_DEFINED_HEIGHT_END
  0
MTEXT
  5
17E
330
A
100
AcDbEntity
  8
TEMPLATE
390
1D
100
AcDbMText
 10
259.8147101599982
 20
30.44725580662402
 30
0.0
 40
4.8865234375
 41
0.0
 46
0.0
 71
     1
 72
     1
  1
大洋金物株式会社 ティーフォルム事業部
  7
ＭＳ ゴシック
 73
     1
 44
0.7828267384257843
  0
MTEXT
  5
180
330
A
100
AcDbEntity
  8
TEMPLATE
390
1D
100
AcDbMText
 10
366.240428909598
 20
46.02985813878562
 30
0.0
 40
4.8865234375
 41
0.0
 46
4.8865234375
 71
     1
 72
     1
  1
{1:2}
  7
ＭＳ ゴシック
 73
     1
 44
0.7828267384257843
1001
ACAD
1000
ACAD_MTEXT_DEFINED_HEIGHT_BEGIN
1070
    46
1040
4.8865234375
1000
ACAD_MTEXT_DEFINED_HEIGHT_END
  0
MTEXT
  5
181
330
A
100
AcDbEntity
  8
TEMPLATE
390
1D
100
AcDbMText
 10
355.640428909598
 20
51.74635032628562
 30
0.0
 40
3.257682291666666
 41
0.0
 46
0.0
 71
     1
 72
     1
  1
縮尺
  7
ＭＳ ゴシック
 73
     1
 44
0.7828267384257843
  0
LINE
  5
182
330
A
100
AcDbEntity
  8
TEMPLATE
390
1D
100
AcDbLine
 10
354.240428909598
 20
36.42933470128564
 30
0.0
 11
354.240428909598
 21
53.4293347012857
 31
0.0
  0
MTEXT
  5
183
330
A
100
AcDbEntity
  8
TEMPLATE
390
1D
100
AcDbMText
 10
305.440428909598
 20
51.74635032628562
 30
0.0
 40
3.257682291666666
 41
0.0
 46
0.0
 71
     1
 72
     1
  1
容量
  7
ＭＳ ゴシック
 73
     1
 44
0.7828267384257843
  0
LINE
  5
184
330
A
100
AcDbEntity
  8
TEMPLATE
390
1D
100
AcDbLine
 10
304.040428909598
 20
36.42933470128564
 30
0.0
 11
304.040428909598
 21
53.4293347012857
 31
0.0
  0
MTEXT
  5
185
330
A
100
AcDbEntity
  8
TEMPLATE
390
1D
100
AcDbMText
 10
255.240428909598
 20
68.74635032628566
 30
0.0
 40
3.257682291666666
 41
0.0
 46
0.0
 71
     1
 72
     1
  1
品番
  7
ＭＳ ゴシック
 73
     1
 44
0.7828267384257843
  0
MTEXT
  5
186
330
A
100
AcDbEntity
  8
TEMPLATE
390
1D
100
AcDbMText
 10
255.240428909598
 20
51.74635032628562
 30
0.0
 40
3.257682291666666
 41
0.0
 46
0.0
 71
     1
 72
     1
  1
重量
  7
ＭＳ ゴシック
 73
     1
 44
0.7828267384257843
  0
MTEXT
  5
187
330
A
100
AcDbEntity
  8
TEMPLATE
390
1D
100
AcDbMText
 10
265.840428909598
 20
63.02985813878564
 30
0.0
 40
4.8865234375
 41
0.0
 46
4.8865234375
 71
     1
 72
     1
  1
{FHT73-3302}
  7
ＭＳ ゴシック
 73
     1
 44
0.7828267384257843
1001
ACAD
1000
ACAD_MTEXT_DEFINED_HEIGHT_BEGIN
1070
    46
1040
4.8865234375
1000
ACAD_MTEXT_DEFINED_HEIGHT_END
  0
LINE
  5
188
330
A
100
AcDbEntity
  8
TEMPLATE
390
1D
100
AcDbLine
 10
253.840428909598
 20
19.42933470128565
 30
0.0
 11
253.840428909598
 21
70.42933470128563
 31
0.0
  0
MTEXT
  5
189
330
A
100
AcDbEntity
  8
TEMPLATE
390
1D
100
AcDbMText
 10
26.44042890954614
 20
63.02985813878564
 30
0.0
 40
4.8865234375
 41
0.0
 46
4.8865234375
 71
     1
 72
     1
  1
{シャワーフック　-GROHE-}
  7
ＭＳ ゴシック
 73
     1
 44
0.7828267384257843
1001
ACAD
1000
ACAD_MTEXT_DEFINED_HEIGHT_BEGIN
1070
    46
1040
4.8865234375
1000
ACAD_MTEXT_DEFINED_HEIGHT_END
  0
INSERT
  5
6B5
330
A
100
AcDbEntity
  8
TEMPLATE
100
AcDbBlockReference
  2
名称未設定-1
 10
374.15014961769
 20
5.189353151330762
 30
0.0
 41
0.1524
 42
0.1524
 43
0.1524
  0
INSERT
  5
68C
330
A
100
AcDbEntity
  8
TEMPLATE
100
AcDbBlockReference
  2
block 2
 10
1838.548603540515
 20
16.74615302867274
 30
0.0
 41
0.7619999999999998
 42
0.7619999999999998
 43
0.7619999999999998
  0
LINE
  5
10F5
330
A
100
AcDbEntity
  8
DIM
100
AcDbLine
 10
111.2848620707083
 20
505.1497035662873
 30
0.0
 11
134.2903071464657
 21
505.1497035662873
 31
0.0
  0
LINE
  5
10F6
330
A
100
AcDbEntity
  8
DIM
100
AcDbLine
 10
111.2848620707083
 20
505.1497035662873
 30
0.0
 11
117.0817901246854
 21
506.7029852069123
 31
0.0
  0
LINE
  5
10F7
330
A
100
AcDbEntity
  8
DIM
100
AcDbLine
 10
111.2848620707083
 20
505.1497035662873
 30
0.0
 11
117.0817901246854
 21
503.5964239261358
 31
0.0
  0
LINE
  5
10F8
330
A
100
AcDbEntity
  8
DIM
100
AcDbLine
 10
134.2903071464657
 20
505.1497035662873
 30
0.0
 11
128.4933790924885
 21
503.5964239261358
 31
0.0
  0
LINE
  5
10F9
330
A
100
AcDbEntity
  8
DIM
100
AcDbLine
 10
134.2903071464657
 20
505.1497035662873
 30
0.0
 11
128.4933790924885
 21
506.7029852069123
 31
0.0
  0
LINE
  5
10FA
330
A
100
AcDbEntity
  8
DIM
100
AcDbLine
 10
111.2848620707083
 20
473.6758861420448
 30
0.0
 11
111.2848620707083
 21
509.7228079578591
 31
0.0
  0
LINE
  5
10FB
330
A
100
AcDbEntity
  8
DIM
100
AcDbLine
 10
134.2903071464657
 20
473.6758861420448
 30
0.0
 11
134.2903071464657
 21
509.7228079578591
 31
0.0
  0
LINE
  5
10FC
330
A
100
AcDbEntity
  8
DIM
100
AcDbLine
 10
356.3156050665982
 20
303.8137607738965
 30
0.0
 11
356.3156050665982
 21
259.3032257360178
 31
0.0
  0
LINE
  5
10FD
330
A
100
AcDbEntity
  8
DIM
100
AcDbLine
 10
356.3156050665982
 20
303.8137607738965
 30
0.0
 11
357.8688927086438
 21
298.0168347203928
 31
0.0
  0
LINE
  5
10FE
330
A
100
AcDbEntity
  8
DIM
100
AcDbLine
 10
356.3156050665982
 20
303.8137607738965
 30
0.0
 11
354.7623314278671
 21
298.0168307194457
 31
0.0
  0
LINE
  5
10FF
330
A
100
AcDbEntity
  8
DIM
100
AcDbLine
 10
356.3156050665982
 20
259.3032257360178
 30
0.0
 11
354.7623154240794
 21
265.1001517895215
 31
0.0
  0
LINE
  5
1100
330
A
100
AcDbEntity
  8
DIM
100
AcDbLine
 10
356.3156050665982
 20
259.3032257360178
 30
0.0
 11
357.8688767048557
 21
265.1001557904685
 31
0.0
  0
LINE
  5
1101
330
A
100
AcDbEntity
  8
DIM
100
AcDbLine
 10
279.1935373227535
 20
303.8137607738965
 30
0.0
 11
360.8886854524883
 21
303.8137607738965
 31
0.0
  0
LINE
  5
1102
330
A
100
AcDbEntity
  8
DIM
100
AcDbLine
 10
279.1935373227535
 20
259.3032257360178
 30
0.0
 11
360.8886854524883
 21
259.3032257360178
 31
0.0
  0
LINE
  5
1103
330
A
100
AcDbEntity
  8
DIM
100
AcDbLine
 10
234.1828839136625
 20
208.3762560153738
 30
0.0
 11
279.1935373227535
 21
208.3762560153738
 31
0.0
  0
LINE
  5
1104
330
A
100
AcDbEntity
  8
DIM
100
AcDbLine
 10
234.1828839136625
 20
208.3762560153738
 30
0.0
 11
239.97981196764
 21
209.9295356555253
 31
0.0
  0
LINE
  5
1105
330
A
100
AcDbEntity
  8
DIM
100
AcDbLine
 10
234.1828839136625
 20
208.3762560153738
 30
0.0
 11
239.97981196764
 21
206.8229743747488
 31
0.0
  0
LINE
  5
1106
330
A
100
AcDbEntity
  8
DIM
100
AcDbLine
 10
279.1935373227535
 20
208.3762560153738
 30
0.0
 11
273.3966092687762
 21
206.8229743747488
 31
0.0
  0
LINE
  5
1107
330
A
100
AcDbEntity
  8
DIM
100
AcDbLine
 10
279.1935373227535
 20
208.3762560153738
 30
0.0
 11
273.3966092687762
 21
209.9295356555253
 31
0.0
  0
LINE
  5
1108
330
A
100
AcDbEntity
  8
DIM
100
AcDbLine
 10
234.1828839136625
 20
263.5542318913208
 30
0.0
 11
234.1828839136625
 21
203.8031736290102
 31
0.0
  0
LINE
  5
1109
330
A
100
AcDbEntity
  8
DIM
100
AcDbLine
 10
279.1935373227535
 20
259.3032257360178
 30
0.0
 11
279.1935373227535
 21
203.8031736290102
 31
0.0
  0
LINE
  5
110A
330
A
100
AcDbEntity
  8
DIM
100
AcDbLine
 10
214.1781490651779
 20
183.4154521327981
 30
0.0
 11
279.1935373227535
 21
183.4154521327981
 31
0.0
  0
LINE
  5
110B
330
A
100
AcDbEntity
  8
DIM
100
AcDbLine
 10
214.1781490651779
 20
183.4154521327981
 30
0.0
 11
219.975077119155
 21
184.9687317729496
 31
0.0
  0
LINE
  5
110C
330
A
100
AcDbEntity
  8
DIM
100
AcDbLine
 10
214.1781490651779
 20
183.4154521327981
 30
0.0
 11
219.975077119155
 21
181.8621704921731
 31
0.0
  0
LINE
  5
110D
330
A
100
AcDbEntity
  8
DIM
100
AcDbLine
 10
279.1935373227535
 20
183.4154521327981
 30
0.0
 11
273.3966092687762
 21
181.8621704921731
 31
0.0
  0
LINE
  5
110E
330
A
100
AcDbEntity
  8
DIM
100
AcDbLine
 10
279.1935373227535
 20
183.4154521327981
 30
0.0
 11
273.3966092687762
 21
184.9687317729496
 31
0.0
  0
LINE
  5
110F
330
A
100
AcDbEntity
  8
DIM
100
AcDbLine
 10
214.1781490651779
 20
267.0816027720026
 30
0.0
 11
214.1781490651779
 21
178.842363745014
 31
0.0
  0
LINE
  5
1110
330
A
100
AcDbEntity
  8
DIM
100
AcDbLine
 10
279.1935373227535
 20
259.3032257360178
 30
0.0
 11
279.1935373227535
 21
178.842363745014
 31
0.0
  0
LINE
  5
1112
330
A
100
AcDbEntity
  8
MODEL
 62
     7
100
AcDbLine
 10
292.83416587389
 20
279.7580671185935
 30
0.0
 11
279.1935373227535
 21
279.7580671185935
 31
0.0
  0
LINE
  5
1113
330
A
100
AcDbEntity
  8
MODEL
 62
     7
100
AcDbLine
 10
292.83416587389
 20
283.3589193913207
 30
0.0
 11
279.1935373227535
 21
283.3589193913207
 31
0.0
  0
LINE
  5
1114
330
A
100
AcDbEntity
  8
MODEL
 62
     7
100
AcDbLine
 10
319.9027726447232
 20
282.9588246943511
 30
0.0
 11
318.7430981655565
 21
282.9588246943511
 31
0.0
  0
LINE
  5
1115
330
A
100
AcDbEntity
  8
MODEL
 62
     7
100
AcDbLine
 10
295.8348761011625
 20
282.9588246943511
 30
0.0
 11
292.83416587389
 21
283.3589193913207
 31
0.0
  0
LINE
  5
1116
330
A
100
AcDbEntity
  8
MODEL
 62
     7
100
AcDbLine
 10
320.9748263852536
 20
280.1581618155633
 30
0.0
 11
319.815151906087
 21
280.1581618155633
 31
0.0
  0
LINE
  5
1117
330
A
100
AcDbEntity
  8
MODEL
 62
     7
100
AcDbLine
 10
320.9944310254049
 20
282.9588246943511
 30
0.0
 11
320.4000903530565
 21
282.9588246943511
 31
0.0
  0
LINE
  5
1118
330
A
100
AcDbEntity
  8
MODEL
 62
     7
100
AcDbLine
 10
321.2234852394201
 20
279.5580197701087
 30
0.0
 11
320.1514314988899
 21
283.5589667398057
 31
0.0
  0
LINE
  5
1119
330
A
100
AcDbEntity
  8
MODEL
 62
     7
100
AcDbLine
 10
321.2234852394201
 20
279.5580197701087
 30
0.0
 11
320.9748263852536
 21
280.1581618155633
 31
0.0
  0
LINE
  5
111A
330
A
100
AcDbEntity
  8
MODEL
 62
     7
100
AcDbLine
 10
321.2234852394201
 20
279.5580197701087
 30
0.0
 11
321.5567641219959
 21
280.3628102530632
 31
0.0
  0
LINE
  5
111B
330
A
100
AcDbEntity
  8
MODEL
 62
     7
100
AcDbLine
 10
296.3710029951021
 20
279.5580197701087
 30
0.0
 11
295.8348761011625
 21
281.5584932549572
 31
0.0
  0
LINE
  5
111C
330
A
100
AcDbEntity
  8
MODEL
 62
     7
100
AcDbLine
 10
320.1514314988899
 20
283.5589667398057
 30
0.0
 11
320.4000903530565
 21
282.9588246943511
 31
0.0
  0
LINE
  5
111D
330
A
100
AcDbEntity
  8
MODEL
 62
     7
100
AcDbLine
 10
320.1514314988899
 20
283.5589667398057
 30
0.0
 11
319.9027726447232
 21
282.9588246943511
 31
0.0
  0
LINE
  5
111E
330
A
100
AcDbEntity
  8
MODEL
 62
     7
100
AcDbLine
 10
296.3710029951021
 20
279.5580197701087
 30
0.0
 11
296.6194618019204
 21
280.1581618155633
 31
0.0
  0
LINE
  5
111F
330
A
100
AcDbEntity
  8
MODEL
 62
     7
100
AcDbLine
 10
296.3710029951021
 20
279.5580197701087
 30
0.0
 11
296.1223441409354
 21
280.1581618155633
 31
0.0
  0
LINE
  5
1120
330
A
100
AcDbEntity
  8
MODEL
 62
     7
100
AcDbLine
 10
321.4137302678292
 20
280.3107979424572
 30
0.0
 11
320.4000903530565
 21
282.9588246943511
 31
0.0
  0
LINE
  5
1121
330
A
100
AcDbEntity
  8
MODEL
 62
     7
100
AcDbLine
 10
319.9027726447232
 20
282.9588246943511
 30
0.0
 11
320.9748263852536
 21
280.1581618155633
 31
0.0
  0
LINE
  5
1122
330
A
100
AcDbEntity
  8
MODEL
 62
     7
100
AcDbLine
 10
296.1223441409354
 20
280.1581618155633
 30
0.0
 11
295.8348761011625
 21
281.5584932549572
 31
0.0
  0
LINE
  5
1123
330
A
100
AcDbEntity
  8
MODEL
 62
     7
100
AcDbLine
 10
295.8348761011625
 20
281.5584932549572
 30
0.0
 11
296.6194618019204
 21
280.1581618155633
 31
0.0
  0
LINE
  5
1124
330
A
100
AcDbEntity
  8
MODEL
 62
     7
100
AcDbLine
 10
296.1223441409354
 20
280.1581618155633
 30
0.0
 11
295.8348761011625
 21
280.1581618155633
 31
0.0
  0
LINE
  5
1125
330
A
100
AcDbEntity
  8
MODEL
 62
     7
100
AcDbLine
 10
298.0277951352535
 20
279.5580197701087
 30
0.0
 11
298.27645398942
 21
280.1581618155633
 31
0.0
  0
LINE
  5
1126
330
A
100
AcDbEntity
  8
MODEL
 62
     7
100
AcDbLine
 10
298.0277951352535
 20
279.5580197701087
 30
0.0
 11
296.9557413947232
 21
283.5589667398057
 31
0.0
  0
LINE
  5
1127
330
A
100
AcDbEntity
  8
MODEL
 62
     7
100
AcDbLine
 10
298.27645398942
 20
280.1581618155633
 30
0.0
 11
297.2044002488897
 21
282.9588246943511
 31
0.0
  0
LINE
  5
1128
330
A
100
AcDbEntity
  8
MODEL
 62
     7
100
AcDbLine
 10
296.7070825405564
 20
282.9588246943511
 30
0.0
 11
297.7791362810871
 21
280.1581618155633
 31
0.0
  0
LINE
  5
1129
330
A
100
AcDbEntity
  8
MODEL
 62
     7
100
AcDbLine
 10
298.0277951352535
 20
279.5580197701087
 30
0.0
 11
297.7791362810871
 21
280.1581618155633
 31
0.0
  0
LINE
  5
112A
330
A
100
AcDbEntity
  8
MODEL
 62
     7
100
AcDbLine
 10
297.7791362810871
 20
280.1581618155633
 30
0.0
 11
296.6194618019204
 21
280.1581618155633
 31
0.0
  0
LINE
  5
112B
330
A
100
AcDbEntity
  8
MODEL
 62
     7
100
AcDbLine
 10
296.9557413947232
 20
283.5589667398057
 30
0.0
 11
297.2044002488897
 21
282.9588246943511
 31
0.0
  0
LINE
  5
112C
330
A
100
AcDbEntity
  8
MODEL
 62
     7
100
AcDbLine
 10
296.9557413947232
 20
283.5589667398057
 30
0.0
 11
296.7070825405564
 21
282.9588246943511
 31
0.0
  0
LINE
  5
112D
330
A
100
AcDbEntity
  8
MODEL
 62
     7
100
AcDbLine
 10
296.7070825405564
 20
282.9588246943511
 30
0.0
 11
295.8348761011625
 21
282.9588246943511
 31
0.0
  0
LINE
  5
112E
330
A
100
AcDbEntity
  8
MODEL
 62
     7
100
AcDbLine
 10
299.6845872754052
 20
279.5580197701087
 30
0.0
 11
299.9332461295717
 21
280.1581618155633
 31
0.0
  0
LINE
  5
112F
330
A
100
AcDbEntity
  8
MODEL
 62
     7
100
AcDbLine
 10
299.6845872754052
 20
279.5580197701087
 30
0.0
 11
298.6125335348747
 21
283.5589667398057
 31
0.0
  0
LINE
  5
1130
330
A
100
AcDbEntity
  8
MODEL
 62
     7
100
AcDbLine
 10
299.9332461295717
 20
280.1581618155633
 30
0.0
 11
298.8611923890413
 21
282.9588246943511
 31
0.0
  0
LINE
  5
1131
330
A
100
AcDbEntity
  8
MODEL
 62
     7
100
AcDbLine
 10
298.3640747280564
 20
282.9588246943511
 30
0.0
 11
299.4361284685867
 21
280.1581618155633
 31
0.0
  0
LINE
  5
1132
330
A
100
AcDbEntity
  8
MODEL
 62
     7
100
AcDbLine
 10
299.6845872754052
 20
279.5580197701087
 30
0.0
 11
299.4361284685867
 21
280.1581618155633
 31
0.0
  0
LINE
  5
1133
330
A
100
AcDbEntity
  8
MODEL
 62
     7
100
AcDbLine
 10
299.4361284685867
 20
280.1581618155633
 30
0.0
 11
298.27645398942
 21
280.1581618155633
 31
0.0
  0
LINE
  5
1134
330
A
100
AcDbEntity
  8
MODEL
 62
     7
100
AcDbLine
 10
298.6125335348747
 20
283.5589667398057
 30
0.0
 11
298.8611923890413
 21
282.9588246943511
 31
0.0
  0
LINE
  5
1135
330
A
100
AcDbEntity
  8
MODEL
 62
     7
100
AcDbLine
 10
298.6125335348747
 20
283.5589667398057
 30
0.0
 11
298.3640747280564
 21
282.9588246943511
 31
0.0
  0
LINE
  5
1136
330
A
100
AcDbEntity
  8
MODEL
 62
     7
100
AcDbLine
 10
298.3640747280564
 20
282.9588246943511
 30
0.0
 11
297.2044002488897
 21
282.9588246943511
 31
0.0
  0
LINE
  5
1137
330
A
100
AcDbEntity
  8
MODEL
 62
     7
100
AcDbLine
 10
301.3413794155567
 20
279.5580197701087
 30
0.0
 11
301.5900382697232
 21
280.1581618155633
 31
0.0
  0
LINE
  5
1138
330
A
100
AcDbEntity
  8
MODEL
 62
     7
100
AcDbLine
 10
301.3413794155567
 20
279.5580197701087
 30
0.0
 11
300.2693256750262
 21
283.5589667398057
 31
0.0
  0
LINE
  5
1139
330
A
100
AcDbEntity
  8
MODEL
 62
     7
100
AcDbLine
 10
301.5900382697232
 20
280.1581618155633
 30
0.0
 11
300.5179845291926
 21
282.9588246943511
 31
0.0
  0
LINE
  5
113A
330
A
100
AcDbEntity
  8
MODEL
 62
     7
100
AcDbLine
 10
300.0208668682079
 20
282.9588246943511
 30
0.0
 11
301.0929206087384
 21
280.1581618155633
 31
0.0
  0
LINE
  5
113B
330
A
100
AcDbEntity
  8
MODEL
 62
     7
100
AcDbLine
 10
301.3413794155567
 20
279.5580197701087
 30
0.0
 11
301.0929206087384
 21
280.1581618155633
 31
0.0
  0
LINE
  5
113C
330
A
100
AcDbEntity
  8
MODEL
 62
     7
100
AcDbLine
 10
301.0929206087384
 20
280.1581618155633
 30
0.0
 11
299.9332461295717
 21
280.1581618155633
 31
0.0
  0
LINE
  5
113D
330
A
100
AcDbEntity
  8
MODEL
 62
     7
100
AcDbLine
 10
300.2693256750262
 20
283.5589667398057
 30
0.0
 11
300.5179845291926
 21
282.9588246943511
 31
0.0
  0
LINE
  5
113E
330
A
100
AcDbEntity
  8
MODEL
 62
     7
100
AcDbLine
 10
300.2693256750262
 20
283.5589667398057
 30
0.0
 11
300.0208668682079
 21
282.9588246943511
 31
0.0
  0
LINE
  5
113F
330
A
100
AcDbEntity
  8
MODEL
 62
     7
100
AcDbLine
 10
300.0208668682079
 20
282.9588246943511
 30
0.0
 11
298.8611923890413
 21
282.9588246943511
 31
0.0
  0
LINE
  5
1140
330
A
100
AcDbEntity
  8
MODEL
 62
     7
100
AcDbLine
 10
302.9983716030565
 20
279.5580197701087
 30
0.0
 11
303.2468304098746
 21
280.1581618155633
 31
0.0
  0
LINE
  5
1141
330
A
100
AcDbEntity
  8
MODEL
 62
     7
100
AcDbLine
 10
302.9983716030565
 20
279.5580197701087
 30
0.0
 11
301.9263178625263
 21
283.5589667398057
 31
0.0
  0
LINE
  5
1142
330
A
100
AcDbEntity
  8
MODEL
 62
     7
100
AcDbLine
 10
303.2468304098746
 20
280.1581618155633
 30
0.0
 11
302.1747766693443
 21
282.9588246943511
 31
0.0
  0
LINE
  5
1143
330
A
100
AcDbEntity
  8
MODEL
 62
     7
100
AcDbLine
 10
301.6776590083593
 20
282.9588246943511
 30
0.0
 11
302.7497127488899
 21
280.1581618155633
 31
0.0
  0
LINE
  5
1144
330
A
100
AcDbEntity
  8
MODEL
 62
     7
100
AcDbLine
 10
302.9983716030565
 20
279.5580197701087
 30
0.0
 11
302.7497127488899
 21
280.1581618155633
 31
0.0
  0
LINE
  5
1145
330
A
100
AcDbEntity
  8
MODEL
 62
     7
100
AcDbLine
 10
302.7497127488899
 20
280.1581618155633
 30
0.0
 11
301.5900382697232
 21
280.1581618155633
 31
0.0
  0
LINE
  5
1146
330
A
100
AcDbEntity
  8
MODEL
 62
     7
100
AcDbLine
 10
301.9263178625263
 20
283.5589667398057
 30
0.0
 11
302.1747766693443
 21
282.9588246943511
 31
0.0
  0
LINE
  5
1147
330
A
100
AcDbEntity
  8
MODEL
 62
     7
100
AcDbLine
 10
301.9263178625263
 20
283.5589667398057
 30
0.0
 11
301.6776590083593
 21
282.9588246943511
 31
0.0
  0
LINE
  5
1148
330
A
100
AcDbEntity
  8
MODEL
 62
     7
100
AcDbLine
 10
301.6776590083593
 20
282.9588246943511
 30
0.0
 11
300.5179845291926
 21
282.9588246943511
 31
0.0
  0
LINE
  5
1149
330
A
100
AcDbEntity
  8
MODEL
 62
     7
100
AcDbLine
 10
304.655163743208
 20
279.5580197701087
 30
0.0
 11
304.9036225500263
 21
280.1581618155633
 31
0.0
  0
LINE
  5
114A
330
A
100
AcDbEntity
  8
MODEL
 62
     7
100
AcDbLine
 10
304.655163743208
 20
279.5580197701087
 30
0.0
 11
303.5831100026777
 21
283.5589667398057
 31
0.0
  0
LINE
  5
114B
330
A
100
AcDbEntity
  8
MODEL
 62
     7
100
AcDbLine
 10
304.9036225500263
 20
280.1581618155633
 30
0.0
 11
303.8315688094958
 21
282.9588246943511
 31
0.0
  0
LINE
  5
114C
330
A
100
AcDbEntity
  8
MODEL
 62
     7
100
AcDbLine
 10
303.334451148511
 20
282.9588246943511
 30
0.0
 11
304.4065048890413
 21
280.1581618155633
 31
0.0
  0
LINE
  5
114D
330
A
100
AcDbEntity
  8
MODEL
 62
     7
100
AcDbLine
 10
304.655163743208
 20
279.5580197701087
 30
0.0
 11
304.4065048890413
 21
280.1581618155633
 31
0.0
  0
LINE
  5
114E
330
A
100
AcDbEntity
  8
MODEL
 62
     7
100
AcDbLine
 10
304.4065048890413
 20
280.1581618155633
 30
0.0
 11
303.2468304098746
 21
280.1581618155633
 31
0.0
  0
LINE
  5
114F
330
A
100
AcDbEntity
  8
MODEL
 62
     7
100
AcDbLine
 10
303.5831100026777
 20
283.5589667398057
 30
0.0
 11
303.8315688094958
 21
282.9588246943511
 31
0.0
  0
LINE
  5
1150
330
A
100
AcDbEntity
  8
MODEL
 62
     7
100
AcDbLine
 10
303.5831100026777
 20
283.5589667398057
 30
0.0
 11
303.334451148511
 21
282.9588246943511
 31
0.0
  0
LINE
  5
1151
330
A
100
AcDbEntity
  8
MODEL
 62
     7
100
AcDbLine
 10
303.334451148511
 20
282.9588246943511
 30
0.0
 11
302.1747766693443
 21
282.9588246943511
 31
0.0
  0
LINE
  5
1152
330
A
100
AcDbEntity
  8
MODEL
 62
     7
100
AcDbLine
 10
306.3119558833597
 20
279.5580197701087
 30
0.0
 11
306.5606147375262
 21
280.1581618155633
 31
0.0
  0
LINE
  5
1153
330
A
100
AcDbEntity
  8
MODEL
 62
     7
100
AcDbLine
 10
306.3119558833597
 20
279.5580197701087
 30
0.0
 11
305.239902142829
 21
283.5589667398057
 31
0.0
  0
LINE
  5
1154
330
A
100
AcDbEntity
  8
MODEL
 62
     7
100
AcDbLine
 10
306.5606147375262
 20
280.1581618155633
 30
0.0
 11
305.4885609969961
 21
282.9588246943511
 31
0.0
  0
LINE
  5
1155
330
A
100
AcDbEntity
  8
MODEL
 62
     7
100
AcDbLine
 10
304.9912432886625
 20
282.9588246943511
 30
0.0
 11
306.0632970291929
 21
280.1581618155633
 31
0.0
  0
LINE
  5
1156
330
A
100
AcDbEntity
  8
MODEL
 62
     7
100
AcDbLine
 10
306.3119558833597
 20
279.5580197701087
 30
0.0
 11
306.0632970291929
 21
280.1581618155633
 31
0.0
  0
LINE
  5
1157
330
A
100
AcDbEntity
  8
MODEL
 62
     7
100
AcDbLine
 10
306.0632970291929
 20
280.1581618155633
 30
0.0
 11
304.9036225500263
 21
280.1581618155633
 31
0.0
  0
LINE
  5
1158
330
A
100
AcDbEntity
  8
MODEL
 62
     7
100
AcDbLine
 10
305.239902142829
 20
283.5589667398057
 30
0.0
 11
305.4885609969961
 21
282.9588246943511
 31
0.0
  0
LINE
  5
1159
330
A
100
AcDbEntity
  8
MODEL
 62
     7
100
AcDbLine
 10
305.239902142829
 20
283.5589667398057
 30
0.0
 11
304.9912432886625
 21
282.9588246943511
 31
0.0
  0
LINE
  5
115A
330
A
100
AcDbEntity
  8
MODEL
 62
     7
100
AcDbLine
 10
304.9912432886625
 20
282.9588246943511
 30
0.0
 11
303.8315688094958
 21
282.9588246943511
 31
0.0
  0
LINE
  5
115B
330
A
100
AcDbEntity
  8
MODEL
 62
     7
100
AcDbLine
 10
307.968748023511
 20
279.5580197701087
 30
0.0
 11
308.2174068776778
 21
280.1581618155633
 31
0.0
  0
LINE
  5
115C
330
A
100
AcDbEntity
  8
MODEL
 62
     7
100
AcDbLine
 10
307.968748023511
 20
279.5580197701087
 30
0.0
 11
306.8966942829807
 21
283.5589667398057
 31
0.0
  0
LINE
  5
115D
330
A
100
AcDbEntity
  8
MODEL
 62
     7
100
AcDbLine
 10
308.2174068776778
 20
280.1581618155633
 30
0.0
 11
307.1453531371476
 21
282.9588246943511
 31
0.0
  0
LINE
  5
115E
330
A
100
AcDbEntity
  8
MODEL
 62
     7
100
AcDbLine
 10
306.6482354761628
 20
282.9588246943511
 30
0.0
 11
307.7202892166929
 21
280.1581618155633
 31
0.0
  0
LINE
  5
115F
330
A
100
AcDbEntity
  8
MODEL
 62
     7
100
AcDbLine
 10
307.968748023511
 20
279.5580197701087
 30
0.0
 11
307.7202892166929
 21
280.1581618155633
 31
0.0
  0
LINE
  5
1160
330
A
100
AcDbEntity
  8
MODEL
 62
     7
100
AcDbLine
 10
307.7202892166929
 20
280.1581618155633
 30
0.0
 11
306.5606147375262
 21
280.1581618155633
 31
0.0
  0
LINE
  5
1161
330
A
100
AcDbEntity
  8
MODEL
 62
     7
100
AcDbLine
 10
306.8966942829807
 20
283.5589667398057
 30
0.0
 11
307.1453531371476
 21
282.9588246943511
 31
0.0
  0
LINE
  5
1162
330
A
100
AcDbEntity
  8
MODEL
 62
     7
100
AcDbLine
 10
306.8966942829807
 20
283.5589667398057
 30
0.0
 11
306.6482354761628
 21
282.9588246943511
 31
0.0
  0
LINE
  5
1163
330
A
100
AcDbEntity
  8
MODEL
 62
     7
100
AcDbLine
 10
306.6482354761628
 20
282.9588246943511
 30
0.0
 11
305.4885609969961
 21
282.9588246943511
 31
0.0
  0
LINE
  5
1164
330
A
100
AcDbEntity
  8
MODEL
 62
     7
100
AcDbLine
 10
309.6255401636627
 20
279.5580197701087
 30
0.0
 11
309.8741990178294
 21
280.1581618155633
 31
0.0
  0
LINE
  5
1165
330
A
100
AcDbEntity
  8
MODEL
 62
     7
100
AcDbLine
 10
309.6255401636627
 20
279.5580197701087
 30
0.0
 11
308.5534864231323
 21
283.5589667398057
 31
0.0
  0
LINE
  5
1166
330
A
100
AcDbEntity
  8
MODEL
 62
     7
100
AcDbLine
 10
309.8741990178294
 20
280.1581618155633
 30
0.0
 11
308.802145277299
 21
282.9588246943511
 31
0.0
  0
LINE
  5
1167
330
A
100
AcDbEntity
  8
MODEL
 62
     7
100
AcDbLine
 10
308.3050276163143
 20
282.9588246943511
 30
0.0
 11
309.3770813568444
 21
280.1581618155633
 31
0.0
  0
LINE
  5
1168
330
A
100
AcDbEntity
  8
MODEL
 62
     7
100
AcDbLine
 10
309.6255401636627
 20
279.5580197701087
 30
0.0
 11
309.3770813568444
 21
280.1581618155633
 31
0.0
  0
LINE
  5
1169
330
A
100
AcDbEntity
  8
MODEL
 62
     7
100
AcDbLine
 10
309.3770813568444
 20
280.1581618155633
 30
0.0
 11
308.2174068776778
 21
280.1581618155633
 31
0.0
  0
LINE
  5
116A
330
A
100
AcDbEntity
  8
MODEL
 62
     7
100
AcDbLine
 10
308.5534864231323
 20
283.5589667398057
 30
0.0
 11
308.802145277299
 21
282.9588246943511
 31
0.0
  0
LINE
  5
116B
330
A
100
AcDbEntity
  8
MODEL
 62
     7
100
AcDbLine
 10
308.5534864231323
 20
283.5589667398057
 30
0.0
 11
308.3050276163143
 21
282.9588246943511
 31
0.0
  0
LINE
  5
116C
330
A
100
AcDbEntity
  8
MODEL
 62
     7
100
AcDbLine
 10
308.3050276163143
 20
282.9588246943511
 30
0.0
 11
307.1453531371476
 21
282.9588246943511
 31
0.0
  0
LINE
  5
116D
330
A
100
AcDbEntity
  8
MODEL
 62
     7
100
AcDbLine
 10
311.2825323511626
 20
279.5580197701087
 30
0.0
 11
311.5309911579808
 21
280.1581618155633
 31
0.0
  0
LINE
  5
116E
330
A
100
AcDbEntity
  8
MODEL
 62
     7
100
AcDbLine
 10
311.2825323511626
 20
279.5580197701087
 30
0.0
 11
310.2104786106322
 21
283.5589667398057
 31
0.0
  0
LINE
  5
116F
330
A
100
AcDbEntity
  8
MODEL
 62
     7
100
AcDbLine
 10
311.5309911579808
 20
280.1581618155633
 30
0.0
 11
310.4589374174507
 21
282.9588246943511
 31
0.0
  0
LINE
  5
1170
330
A
100
AcDbEntity
  8
MODEL
 62
     7
100
AcDbLine
 10
309.9618197564655
 20
282.9588246943511
 30
0.0
 11
311.0338734969961
 21
280.1581618155633
 31
0.0
  0
LINE
  5
1171
330
A
100
AcDbEntity
  8
MODEL
 62
     7
100
AcDbLine
 10
311.2825323511626
 20
279.5580197701087
 30
0.0
 11
311.0338734969961
 21
280.1581618155633
 31
0.0
  0
LINE
  5
1172
330
A
100
AcDbEntity
  8
MODEL
 62
     7
100
AcDbLine
 10
311.0338734969961
 20
280.1581618155633
 30
0.0
 11
309.8741990178294
 21
280.1581618155633
 31
0.0
  0
LINE
  5
1173
330
A
100
AcDbEntity
  8
MODEL
 62
     7
100
AcDbLine
 10
310.2104786106322
 20
283.5589667398057
 30
0.0
 11
310.4589374174507
 21
282.9588246943511
 31
0.0
  0
LINE
  5
1174
330
A
100
AcDbEntity
  8
MODEL
 62
     7
100
AcDbLine
 10
310.2104786106322
 20
283.5589667398057
 30
0.0
 11
309.9618197564655
 21
282.9588246943511
 31
0.0
  0
LINE
  5
1175
330
A
100
AcDbEntity
  8
MODEL
 62
     7
100
AcDbLine
 10
309.9618197564655
 20
282.9588246943511
 30
0.0
 11
308.802145277299
 21
282.9588246943511
 31
0.0
  0
LINE
  5
1176
330
A
100
AcDbEntity
  8
MODEL
 62
     7
100
AcDbLine
 10
312.939324491314
 20
279.5580197701087
 30
0.0
 11
313.1877832981323
 21
280.1581618155633
 31
0.0
  0
LINE
  5
1177
330
A
100
AcDbEntity
  8
MODEL
 62
     7
100
AcDbLine
 10
312.939324491314
 20
279.5580197701087
 30
0.0
 11
311.8672707507839
 21
283.5589667398057
 31
0.0
  0
LINE
  5
1178
330
A
100
AcDbEntity
  8
MODEL
 62
     7
100
AcDbLine
 10
313.1877832981323
 20
280.1581618155633
 30
0.0
 11
312.1159296049506
 21
282.9588246943511
 31
0.0
  0
LINE
  5
1179
330
A
100
AcDbEntity
  8
MODEL
 62
     7
100
AcDbLine
 10
311.618611896617
 20
282.9588246943511
 30
0.0
 11
312.6906656371475
 21
280.1581618155633
 31
0.0
  0
LINE
  5
117A
330
A
100
AcDbEntity
  8
MODEL
 62
     7
100
AcDbLine
 10
312.939324491314
 20
279.5580197701087
 30
0.0
 11
312.6906656371475
 21
280.1581618155633
 31
0.0
  0
LINE
  5
117B
330
A
100
AcDbEntity
  8
MODEL
 62
     7
100
AcDbLine
 10
312.6906656371475
 20
280.1581618155633
 30
0.0
 11
311.5309911579808
 21
280.1581618155633
 31
0.0
  0
LINE
  5
117C
330
A
100
AcDbEntity
  8
MODEL
 62
     7
100
AcDbLine
 10
311.8672707507839
 20
283.5589667398057
 30
0.0
 11
312.1159296049506
 21
282.9588246943511
 31
0.0
  0
LINE
  5
117D
330
A
100
AcDbEntity
  8
MODEL
 62
     7
100
AcDbLine
 10
311.8672707507839
 20
283.5589667398057
 30
0.0
 11
311.618611896617
 21
282.9588246943511
 31
0.0
  0
LINE
  5
117E
330
A
100
AcDbEntity
  8
MODEL
 62
     7
100
AcDbLine
 10
311.618611896617
 20
282.9588246943511
 30
0.0
 11
310.4589374174507
 21
282.9588246943511
 31
0.0
  0
LINE
  5
117F
330
A
100
AcDbEntity
  8
MODEL
 62
     7
100
AcDbLine
 10
314.5961166314655
 20
279.5580197701087
 30
0.0
 11
314.8447754856323
 21
280.1581618155633
 31
0.0
  0
LINE
  5
1180
330
A
100
AcDbEntity
  8
MODEL
 62
     7
100
AcDbLine
 10
314.5961166314655
 20
279.5580197701087
 30
0.0
 11
313.5240628909354
 21
283.5589667398057
 31
0.0
  0
LINE
  5
1181
330
A
100
AcDbEntity
  8
MODEL
 62
     7
100
AcDbLine
 10
314.8447754856323
 20
280.1581618155633
 30
0.0
 11
313.772721745102
 21
282.9588246943511
 31
0.0
  0
LINE
  5
1182
330
A
100
AcDbEntity
  8
MODEL
 62
     7
100
AcDbLine
 10
313.2754040367687
 20
282.9588246943511
 30
0.0
 11
314.347457777299
 21
280.1581618155633
 31
0.0
  0
LINE
  5
1183
330
A
100
AcDbEntity
  8
MODEL
 62
     7
100
AcDbLine
 10
314.5961166314655
 20
279.5580197701087
 30
0.0
 11
314.347457777299
 21
280.1581618155633
 31
0.0
  0
LINE
  5
1184
330
A
100
AcDbEntity
  8
MODEL
 62
     7
100
AcDbLine
 10
314.347457777299
 20
280.1581618155633
 30
0.0
 11
313.1877832981323
 21
280.1581618155633
 31
0.0
  0
LINE
  5
1185
330
A
100
AcDbEntity
  8
MODEL
 62
     7
100
AcDbLine
 10
313.5240628909354
 20
283.5589667398057
 30
0.0
 11
313.772721745102
 21
282.9588246943511
 31
0.0
  0
LINE
  5
1186
330
A
100
AcDbEntity
  8
MODEL
 62
     7
100
AcDbLine
 10
313.5240628909354
 20
283.5589667398057
 30
0.0
 11
313.2754040367687
 21
282.9588246943511
 31
0.0
  0
LINE
  5
1187
330
A
100
AcDbEntity
  8
MODEL
 62
     7
100
AcDbLine
 10
313.2754040367687
 20
282.9588246943511
 30
0.0
 11
312.1159296049506
 21
282.9588246943511
 31
0.0
  0
LINE
  5
1188
330
A
100
AcDbEntity
  8
MODEL
 62
     7
100
AcDbLine
 10
316.2529087716172
 20
279.5580197701087
 30
0.0
 11
316.5015676257837
 21
280.1581618155633
 31
0.0
  0
LINE
  5
1189
330
A
100
AcDbEntity
  8
MODEL
 62
     7
100
AcDbLine
 10
316.2529087716172
 20
279.5580197701087
 30
0.0
 11
315.1808550310868
 21
283.5589667398057
 31
0.0
  0
LINE
  5
118A
330
A
100
AcDbEntity
  8
MODEL
 62
     7
100
AcDbLine
 10
316.5015676257837
 20
280.1581618155633
 30
0.0
 11
315.4295138852535
 21
282.9588246943511
 31
0.0
  0
LINE
  5
118B
330
A
100
AcDbEntity
  8
MODEL
 62
     7
100
AcDbLine
 10
314.9323962242686
 20
282.9588246943511
 30
0.0
 11
316.0044499647991
 21
280.1581618155633
 31
0.0
  0
LINE
  5
118C
330
A
100
AcDbEntity
  8
MODEL
 62
     7
100
AcDbLine
 10
316.2529087716172
 20
279.5580197701087
 30
0.0
 11
316.0044499647991
 21
280.1581618155633
 31
0.0
  0
LINE
  5
118D
330
A
100
AcDbEntity
  8
MODEL
 62
     7
100
AcDbLine
 10
316.0044499647991
 20
280.1581618155633
 30
0.0
 11
314.8447754856323
 21
280.1581618155633
 31
0.0
  0
LINE
  5
118E
330
A
100
AcDbEntity
  8
MODEL
 62
     7
100
AcDbLine
 10
315.1808550310868
 20
283.5589667398057
 30
0.0
 11
315.4295138852535
 21
282.9588246943511
 31
0.0
  0
LINE
  5
118F
330
A
100
AcDbEntity
  8
MODEL
 62
     7
100
AcDbLine
 10
315.1808550310868
 20
283.5589667398057
 30
0.0
 11
314.9323962242686
 21
282.9588246943511
 31
0.0
  0
LINE
  5
1190
330
A
100
AcDbEntity
  8
MODEL
 62
     7
100
AcDbLine
 10
314.9323962242686
 20
282.9588246943511
 30
0.0
 11
313.772721745102
 21
282.9588246943511
 31
0.0
  0
LINE
  5
1191
330
A
100
AcDbEntity
  8
MODEL
 62
     7
100
AcDbLine
 10
317.9097009117686
 20
279.5580197701087
 30
0.0
 11
318.1583597659353
 21
280.1581618155633
 31
0.0
  0
LINE
  5
1192
330
A
100
AcDbEntity
  8
MODEL
 62
     7
100
AcDbLine
 10
317.9097009117686
 20
279.5580197701087
 30
0.0
 11
316.8376471712384
 21
283.5589667398057
 31
0.0
  0
LINE
  5
1193
330
A
100
AcDbEntity
  8
MODEL
 62
     7
100
AcDbLine
 10
318.1583597659353
 20
280.1581618155633
 30
0.0
 11
317.0863060254052
 21
282.9588246943511
 31
0.0
  0
LINE
  5
1194
330
A
100
AcDbEntity
  8
MODEL
 62
     7
100
AcDbLine
 10
316.5891883644202
 20
282.9588246943511
 30
0.0
 11
317.6612421049504
 21
280.1581618155633
 31
0.0
  0
LINE
  5
1195
330
A
100
AcDbEntity
  8
MODEL
 62
     7
100
AcDbLine
 10
317.9097009117686
 20
279.5580197701087
 30
0.0
 11
317.6612421049504
 21
280.1581618155633
 31
0.0
  0
LINE
  5
1196
330
A
100
AcDbEntity
  8
MODEL
 62
     7
100
AcDbLine
 10
317.6612421049504
 20
280.1581618155633
 30
0.0
 11
316.5015676257837
 21
280.1581618155633
 31
0.0
  0
LINE
  5
1197
330
A
100
AcDbEntity
  8
MODEL
 62
     7
100
AcDbLine
 10
316.8376471712384
 20
283.5589667398057
 30
0.0
 11
317.0863060254052
 21
282.9588246943511
 31
0.0
  0
LINE
  5
1198
330
A
100
AcDbEntity
  8
MODEL
 62
     7
100
AcDbLine
 10
316.8376471712384
 20
283.5589667398057
 30
0.0
 11
316.5891883644202
 21
282.9588246943511
 31
0.0
  0
LINE
  5
1199
330
A
100
AcDbEntity
  8
MODEL
 62
     7
100
AcDbLine
 10
316.5891883644202
 20
282.9588246943511
 30
0.0
 11
315.4295138852535
 21
282.9588246943511
 31
0.0
  0
LINE
  5
119A
330
A
100
AcDbEntity
  8
MODEL
 62
     7
100
AcDbLine
 10
322.7270411106323
 20
280.1301551867754
 30
0.0
 11
323.0483171522989
 21
280.9057387568511
 31
0.0
  0
LINE
  5
119B
330
A
100
AcDbEntity
  8
MODEL
 62
     7
100
AcDbLine
 10
319.5666930992687
 20
279.5580197701087
 30
0.0
 11
318.4946393587384
 21
283.5589667398057
 31
0.0
  0
LINE
  5
119C
330
A
100
AcDbEntity
  8
MODEL
 62
     7
100
AcDbLine
 10
322.9254880803292
 20
280.8611281981389
 30
0.0
 11
322.3051412526777
 21
282.4827120049572
 31
0.0
  0
LINE
  5
119D
330
A
100
AcDbEntity
  8
MODEL
 62
     7
100
AcDbLine
 10
321.7226033738898
 20
282.7047645617753
 30
0.0
 11
322.4783822564656
 21
280.7302972322299
 31
0.0
  0
LINE
  5
119E
330
A
100
AcDbEntity
  8
MODEL
 62
     7
100
AcDbLine
 10
322.7270411106323
 20
280.1301551867754
 30
0.0
 11
322.4783822564656
 21
280.7302972322299
 31
0.0
  0
LINE
  5
119F
330
A
100
AcDbEntity
  8
MODEL
 62
     7
100
AcDbLine
 10
319.318034245102
 20
280.1581618155633
 30
0.0
 11
318.1583597659353
 21
280.1581618155633
 31
0.0
  0
LINE
  5
11A0
330
A
100
AcDbEntity
  8
MODEL
 62
     7
100
AcDbLine
 10
321.913648591693
 20
283.1668739367753
 30
0.0
 11
322.1777110916928
 21
282.5287228951087
 31
0.0
  0
LINE
  5
11A1
330
A
100
AcDbEntity
  8
MODEL
 62
     7
100
AcDbLine
 10
321.913648591693
 20
283.1668739367753
 30
0.0
 11
321.71860242692
 21
282.694762194351
 31
0.0
  0
LINE
  5
11A2
330
A
100
AcDbEntity
  8
MODEL
 62
     7
100
AcDbLine
 10
318.2459805045719
 20
282.9588246943511
 30
0.0
 11
317.0863060254052
 21
282.9588246943511
 31
0.0
  0
LINE
  5
11A3
330
A
100
AcDbEntity
  8
MODEL
 62
     7
100
AcDbLine
 10
295.8348761011625
 20
280.1581618155633
 30
0.0
 11
295.8348761011625
 21
282.9588246943511
 31
0.0
  0
LINE
  5
11A4
330
A
100
AcDbEntity
  8
MODEL
 62
     7
100
AcDbLine
 10
324.8417416314658
 20
281.5584932549572
 30
0.0
 11
322.9254880803292
 21
280.8611281981389
 31
0.0
  0
LINE
  5
11A5
330
A
100
AcDbEntity
  8
MODEL
 62
     7
100
AcDbLine
 10
324.8417416314658
 20
281.5584932549572
 30
0.0
 11
322.1777110916928
 21
282.5287228951087
 31
0.0
  0
LINE
  5
11A6
330
A
100
AcDbEntity
  8
MODEL
 62
     7
100
AcDbLine
 10
322.7270411106323
 20
280.1301551867754
 30
0.0
 11
321.913648591693
 21
283.1668739367753
 31
0.0
  0
LINE
  5
11A7
330
A
100
AcDbEntity
  8
MODEL
 62
     7
100
AcDbLine
 10
319.5666930992687
 20
279.5580197701087
 30
0.0
 11
319.815151906087
 21
280.1581618155633
 31
0.0
  0
LINE
  5
11A8
330
A
100
AcDbEntity
  8
MODEL
 62
     7
100
AcDbLine
 10
319.5666930992687
 20
279.5580197701087
 30
0.0
 11
319.318034245102
 21
280.1581618155633
 31
0.0
  0
LINE
  5
11A9
330
A
100
AcDbEntity
  8
MODEL
 62
     7
100
AcDbLine
 10
318.2459805045719
 20
282.9588246943511
 30
0.0
 11
319.318034245102
 21
280.1581618155633
 31
0.0
  0
LINE
  5
11AA
330
A
100
AcDbEntity
  8
MODEL
 62
     7
100
AcDbLine
 10
319.815151906087
 20
280.1581618155633
 30
0.0
 11
318.7430981655565
 21
282.9588246943511
 31
0.0
  0
LINE
  5
11AB
330
A
100
AcDbEntity
  8
MODEL
 62
     7
100
AcDbLine
 10
318.4946393587384
 20
283.5589667398057
 30
0.0
 11
318.7430981655565
 21
282.9588246943511
 31
0.0
  0
LINE
  5
11AC
330
A
100
AcDbEntity
  8
MODEL
 62
     7
100
AcDbLine
 10
318.4946393587384
 20
283.5589667398057
 30
0.0
 11
318.2459805045719
 21
282.9588246943511
 31
0.0
  0
LINE
  5
11AD
330
A
100
AcDbEntity
  8
MODEL
 62
     7
100
AcDbLine
 10
322.4891848132838
 20
280.7022906034421
 30
0.0
 11
321.4137302678292
 21
280.3107979424572
 31
0.0
  0
LINE
  5
11AE
330
A
100
AcDbEntity
  8
MODEL
 62
     7
100
AcDbLine
 10
321.71860242692
 20
282.694762194351
 30
0.0
 11
320.9944310254049
 21
282.9588246943511
 31
0.0
  0
LINE
  5
11AF
330
A
100
AcDbEntity
  8
MODEL
 62
     7
100
AcDbLine
 10
292.83416587389
 20
279.7580671185935
 30
0.0
 11
292.83416587389
 21
283.3589193913207
 31
0.0
  0
LINE
  5
11B0
330
A
100
AcDbEntity
  8
MODEL
 62
     7
100
AcDbLine
 10
295.8348761011625
 20
280.1581618155633
 30
0.0
 11
292.83416587389
 21
279.7580671185935
 31
0.0
  0
LINE
  5
11B1
330
A
100
AcDbEntity
  8
MODEL
 62
     7
100
AcDbLine
 10
279.1935373227535
 20
303.8137607738965
 30
0.0
 11
257.796472928814
 21
303.8137607738965
 31
0.0
  0
LINE
  5
11B2
330
A
100
AcDbEntity
  8
MODEL
 62
     7
100
AcDbLine
 10
279.1935373227535
 20
259.3032257360178
 30
0.0
 11
243.9832035159354
 21
259.3032257360178
 31
0.0
  0
LINE
  5
11B3
330
A
100
AcDbEntity
  8
MODEL
 62
     7
100
AcDbLine
 10
214.1781490651779
 20
297.562281133745
 30
0.0
 11
214.1781490651779
 21
268.7602640882905
 31
0.0
  0
LINE
  5
11B5
330
A
100
AcDbEntity
  8
MODEL
 62
     7
100
AcDbLine
 10
249.3164658265415
 20
299.5627546185935
 30
0.0
 11
216.1786225500264
 21
299.5627546185935
 31
0.0
  0
LINE
  5
11B6
330
A
100
AcDbEntity
  8
MODEL
 62
     7
100
AcDbLine
 10
215.8305401636626
 20
266.7901978004118
 30
0.0
 11
234.1828839136625
 21
263.5542318913208
 31
0.0
  0
LINE
  5
11B7
102
{ACAD_REACTORS
102
}
330
A
100
AcDbEntity
  8
MODEL
 62
     7
100
AcDbLine
 10
279.1935373227535
 20
303.8137607738965
 30
0.0
 11
279.1935373227535
 21
259.3032257360178
 31
0.0
  0
LINE
  5
11BA
330
A
100
AcDbEntity
  8
MODEL
 62
     7
100
AcDbLine
 10
113.7854539267686
 20
297.562281133745
 30
0.0
 11
113.7854539267686
 21
263.5542318913208
 31
0.0
  0
LINE
  5
11BB
330
A
100
AcDbEntity
  8
MODEL
 62
     7
100
AcDbLine
 10
131.7897152904051
 20
297.562281133745
 30
0.0
 11
131.7897152904051
 21
263.5542318913208
 31
0.0
  0
LINE
  5
11BC
330
A
100
AcDbEntity
  8
MODEL
 62
     7
100
AcDbLine
 10
110.7847436994961
 20
299.5627546185935
 30
0.0
 11
134.7904255176778
 21
299.5627546185935
 31
0.0
  0
LINE
  5
11BD
330
A
100
AcDbEntity
  8
MODEL
 62
     7
100
AcDbLine
 10
113.1753095138898
 20
266.4917271564723
 30
0.0
 11
111.3728829040415
 21
264.7503149879117
 31
0.0
  0
LINE
  5
11BE
330
A
100
AcDbEntity
  8
MODEL
 62
     7
100
AcDbLine
 10
132.3998597032841
 20
266.4917271564723
 30
0.0
 11
134.2022863131325
 21
264.7503149879117
 31
0.0
  0
LINE
  5
11C0
330
A
100
AcDbEntity
  8
MODEL
 62
     7
100
AcDbLine
 10
113.0852882070718
 20
441.6688585142039
 30
0.0
 11
113.0852882070718
 21
428.0276298210221
 31
0.0
  0
LINE
  5
11C1
330
A
100
AcDbEntity
  8
MODEL
 62
     7
100
AcDbLine
 10
109.4844359343446
 20
441.6688585142039
 30
0.0
 11
109.4844359343446
 21
428.0276298210221
 31
0.0
  0
LINE
  5
11C2
330
A
100
AcDbEntity
  8
MODEL
 62
     7
100
AcDbLine
 10
100.5323170896476
 20
428.0276298210221
 30
0.0
 11
145.0428521275263
 21
428.0276298210221
 31
0.0
  0
LINE
  5
11C3
330
A
100
AcDbEntity
  8
MODEL
 62
     7
100
AcDbLine
 10
109.8845306313142
 20
468.7372652376887
 30
0.0
 11
109.8845306313142
 21
467.5769906164767
 31
0.0
  0
LINE
  5
11C4
330
A
100
AcDbEntity
  8
MODEL
 62
     7
100
AcDbLine
 10
109.8845306313142
 20
444.6695687414767
 30
0.0
 11
109.4844359343446
 21
441.6688585142039
 31
0.0
  0
LINE
  5
11C5
330
A
100
AcDbEntity
  8
MODEL
 62
     7
100
AcDbLine
 10
112.6851935101023
 20
469.8095190255676
 30
0.0
 11
112.6851935101023
 21
468.6492444043553
 31
0.0
  0
LINE
  5
11C6
330
A
100
AcDbEntity
  8
MODEL
 62
     7
100
AcDbLine
 10
109.8845306313142
 20
469.8275232869312
 30
0.0
 11
109.8845306313142
 21
469.2333826619312
 31
0.0
  0
LINE
  5
11C7
330
A
100
AcDbEntity
  8
MODEL
 62
     7
100
AcDbLine
 10
113.2853355555566
 20
470.0575777376887
 30
0.0
 11
109.2843885858598
 21
468.9853239498099
 31
0.0
  0
LINE
  5
11C8
330
A
100
AcDbEntity
  8
MODEL
 62
     7
100
AcDbLine
 10
113.2853355555566
 20
470.0575777376887
 30
0.0
 11
112.6851935101023
 21
469.8095190255676
 31
0.0
  0
LINE
  5
11C9
330
A
100
AcDbEntity
  8
MODEL
 62
     7
100
AcDbLine
 10
113.2853355555566
 20
470.0575777376887
 30
0.0
 11
112.4811452146474
 21
470.3916568096584
 31
0.0
  0
LINE
  5
11CA
330
A
100
AcDbEntity
  8
MODEL
 62
     7
100
AcDbLine
 10
113.2853355555566
 20
445.205695635416
 30
0.0
 11
111.2848620707083
 21
444.6695687414767
 31
0.0
  0
LINE
  5
11CB
330
A
100
AcDbEntity
  8
MODEL
 62
     7
100
AcDbLine
 10
109.2843885858598
 20
468.9853239498099
 30
0.0
 11
109.8845306313142
 21
469.2333826619312
 31
0.0
  0
LINE
  5
11CC
330
A
100
AcDbEntity
  8
MODEL
 62
     7
100
AcDbLine
 10
109.2843885858598
 20
468.9853239498099
 30
0.0
 11
109.8845306313142
 21
468.7372652376887
 31
0.0
  0
LINE
  5
11CD
330
A
100
AcDbEntity
  8
MODEL
 62
     7
100
AcDbLine
 10
113.2853355555566
 20
445.205695635416
 30
0.0
 11
112.6851935101023
 21
445.4537543475373
 31
0.0
  0
LINE
  5
11CE
330
A
100
AcDbEntity
  8
MODEL
 62
     7
100
AcDbLine
 10
113.2853355555566
 20
445.205695635416
 30
0.0
 11
112.6851935101023
 21
444.95563644981
 31
0.0
  0
LINE
  5
11CF
330
A
100
AcDbEntity
  8
MODEL
 62
     7
100
AcDbLine
 10
112.5331575252537
 20
470.2476227187493
 30
0.0
 11
109.8845306313142
 21
469.2333826619312
 31
0.0
  0
LINE
  5
11D0
330
A
100
AcDbEntity
  8
MODEL
 62
     7
100
AcDbLine
 10
109.8845306313142
 20
468.7372652376887
 30
0.0
 11
112.6851935101023
 21
469.8095190255676
 31
0.0
  0
LINE
  5
11D1
330
A
100
AcDbEntity
  8
MODEL
 62
     7
100
AcDbLine
 10
112.6851935101023
 20
444.95563644981
 30
0.0
 11
111.2848620707083
 21
444.6695687414767
 31
0.0
  0
LINE
  5
11D2
330
A
100
AcDbEntity
  8
MODEL
 62
     7
100
AcDbLine
 10
111.2848620707083
 20
444.6695687414767
 30
0.0
 11
112.6851935101023
 21
445.4537543475373
 31
0.0
  0
LINE
  5
11D3
330
A
100
AcDbEntity
  8
MODEL
 62
     7
100
AcDbLine
 10
112.6851935101023
 20
444.95563644981
 30
0.0
 11
112.6851935101023
 21
444.6695687414767
 31
0.0
  0
LINE
  5
11D4
330
A
100
AcDbEntity
  8
MODEL
 62
     7
100
AcDbLine
 10
113.2853355555566
 20
446.8620876808706
 30
0.0
 11
112.6851935101023
 21
447.1101463929918
 31
0.0
  0
LINE
  5
11D5
330
A
100
AcDbEntity
  8
MODEL
 62
     7
100
AcDbLine
 10
113.2853355555566
 20
446.8620876808706
 30
0.0
 11
109.2843885858598
 21
445.7898338929918
 31
0.0
  0
LINE
  5
11D6
330
A
100
AcDbEntity
  8
MODEL
 62
     7
100
AcDbLine
 10
112.6851935101023
 20
447.1101463929918
 30
0.0
 11
109.8845306313142
 21
446.037892605113
 31
0.0
  0
LINE
  5
11D7
330
A
100
AcDbEntity
  8
MODEL
 62
     7
100
AcDbLine
 10
109.8845306313142
 20
445.5417751808705
 30
0.0
 11
112.6851935101023
 21
446.6140289687493
 31
0.0
  0
LINE
  5
11D8
330
A
100
AcDbEntity
  8
MODEL
 62
     7
100
AcDbLine
 10
113.2853355555566
 20
446.8620876808706
 30
0.0
 11
112.6851935101023
 21
446.6140289687493
 31
0.0
  0
LINE
  5
11D9
330
A
100
AcDbEntity
  8
MODEL
 62
     7
100
AcDbLine
 10
112.6851935101023
 20
446.6140289687493
 30
0.0
 11
112.6851935101023
 21
445.4537543475373
 31
0.0
  0
LINE
  5
11DA
330
A
100
AcDbEntity
  8
MODEL
 62
     7
100
AcDbLine
 10
109.2843885858598
 20
445.7898338929918
 30
0.0
 11
109.8845306313142
 21
446.037892605113
 31
0.0
  0
LINE
  5
11DB
330
A
100
AcDbEntity
  8
MODEL
 62
     7
100
AcDbLine
 10
109.2843885858598
 20
445.7898338929918
 30
0.0
 11
109.8845306313142
 21
445.5417751808705
 31
0.0
  0
LINE
  5
11DC
330
A
100
AcDbEntity
  8
MODEL
 62
     7
100
AcDbLine
 10
109.8845306313142
 20
445.5417751808705
 30
0.0
 11
109.8845306313142
 21
444.6695687414767
 31
0.0
  0
LINE
  5
11DD
330
A
100
AcDbEntity
  8
MODEL
 62
     7
100
AcDbLine
 10
113.2853355555566
 20
448.5184797263251
 30
0.0
 11
112.6851935101023
 21
448.7665384384464
 31
0.0
  0
LINE
  5
11DE
330
A
100
AcDbEntity
  8
MODEL
 62
     7
100
AcDbLine
 10
113.2853355555566
 20
448.5184797263251
 30
0.0
 11
109.2843885858598
 21
447.4462259384463
 31
0.0
  0
LINE
  5
11DF
330
A
100
AcDbEntity
  8
MODEL
 62
     7
100
AcDbLine
 10
112.6851935101023
 20
448.7665384384464
 30
0.0
 11
109.8845306313142
 21
447.6942846505675
 31
0.0
  0
LINE
  5
11E0
330
A
100
AcDbEntity
  8
MODEL
 62
     7
100
AcDbLine
 10
109.8845306313142
 20
447.1981672263252
 30
0.0
 11
112.6851935101023
 21
448.2704210142038
 31
0.0
  0
LINE
  5
11E1
330
A
100
AcDbEntity
  8
MODEL
 62
     7
100
AcDbLine
 10
113.2853355555566
 20
448.5184797263251
 30
0.0
 11
112.6851935101023
 21
448.2704210142038
 31
0.0
  0
LINE
  5
11E2
330
A
100
AcDbEntity
  8
MODEL
 62
     7
100
AcDbLine
 10
112.6851935101023
 20
448.2704210142038
 30
0.0
 11
112.6851935101023
 21
447.1101463929918
 31
0.0
  0
LINE
  5
11E3
330
A
100
AcDbEntity
  8
MODEL
 62
     7
100
AcDbLine
 10
109.2843885858598
 20
447.4462259384463
 30
0.0
 11
109.8845306313142
 21
447.6942846505675
 31
0.0
  0
LINE
  5
11E4
330
A
100
AcDbEntity
  8
MODEL
 62
     7
100
AcDbLine
 10
109.2843885858598
 20
447.4462259384463
 30
0.0
 11
109.8845306313142
 21
447.1981672263252
 31
0.0
  0
LINE
  5
11E5
330
A
100
AcDbEntity
  8
MODEL
 62
     7
100
AcDbLine
 10
109.8845306313142
 20
447.1981672263252
 30
0.0
 11
109.8845306313142
 21
446.037892605113
 31
0.0
  0
LINE
  5
11E6
330
A
100
AcDbEntity
  8
MODEL
 62
     7
100
AcDbLine
 10
113.2853355555566
 20
450.1748717717796
 30
0.0
 11
112.6851935101023
 21
450.4249309573856
 31
0.0
  0
LINE
  5
11E7
330
A
100
AcDbEntity
  8
MODEL
 62
     7
100
AcDbLine
 10
113.2853355555566
 20
450.1748717717796
 30
0.0
 11
109.2843885858598
 21
449.102617983901
 31
0.0
  0
LINE
  5
11E8
330
A
100
AcDbEntity
  8
MODEL
 62
     7
100
AcDbLine
 10
112.6851935101023
 20
450.4249309573856
 30
0.0
 11
109.8845306313142
 21
449.352677169507
 31
0.0
  0
LINE
  5
11E9
330
A
100
AcDbEntity
  8
MODEL
 62
     7
100
AcDbLine
 10
109.8845306313142
 20
448.8545592717797
 30
0.0
 11
112.6851935101023
 21
449.9268130596584
 31
0.0
  0
LINE
  5
11EA
330
A
100
AcDbEntity
  8
MODEL
 62
     7
100
AcDbLine
 10
113.2853355555566
 20
450.1748717717796
 30
0.0
 11
112.6851935101023
 21
449.9268130596584
 31
0.0
  0
LINE
  5
11EB
330
A
100
AcDbEntity
  8
MODEL
 62
     7
100
AcDbLine
 10
112.6851935101023
 20
449.9268130596584
 30
0.0
 11
112.6851935101023
 21
448.7665384384464
 31
0.0
  0
LINE
  5
11EC
330
A
100
AcDbEntity
  8
MODEL
 62
     7
100
AcDbLine
 10
109.2843885858598
 20
449.102617983901
 30
0.0
 11
109.8845306313142
 21
449.352677169507
 31
0.0
  0
LINE
  5
11ED
330
A
100
AcDbEntity
  8
MODEL
 62
     7
100
AcDbLine
 10
109.2843885858598
 20
449.102617983901
 30
0.0
 11
109.8845306313142
 21
448.8545592717797
 31
0.0
  0
LINE
  5
11EE
330
A
100
AcDbEntity
  8
MODEL
 62
     7
100
AcDbLine
 10
109.8845306313142
 20
448.8545592717797
 30
0.0
 11
109.8845306313142
 21
447.6942846505675
 31
0.0
  0
LINE
  5
11EF
330
A
100
AcDbEntity
  8
MODEL
 62
     7
100
AcDbLine
 10
113.2853355555566
 20
451.8332642907192
 30
0.0
 11
112.6851935101023
 21
452.0813230028403
 31
0.0
  0
LINE
  5
11F0
330
A
100
AcDbEntity
  8
MODEL
 62
     7
100
AcDbLine
 10
113.2853355555566
 20
451.8332642907192
 30
0.0
 11
109.2843885858598
 21
450.7610105028402
 31
0.0
  0
LINE
  5
11F1
330
A
100
AcDbEntity
  8
MODEL
 62
     7
100
AcDbLine
 10
112.6851935101023
 20
452.0813230028403
 30
0.0
 11
109.8845306313142
 21
451.0090692149616
 31
0.0
  0
LINE
  5
11F2
330
A
100
AcDbEntity
  8
MODEL
 62
     7
100
AcDbLine
 10
109.8845306313142
 20
450.5109513172342
 30
0.0
 11
112.6851935101023
 21
451.5832051051131
 31
0.0
  0
LINE
  5
11F3
330
A
100
AcDbEntity
  8
MODEL
 62
     7
100
AcDbLine
 10
113.2853355555566
 20
451.8332642907192
 30
0.0
 11
112.6851935101023
 21
451.5832051051131
 31
0.0
  0
LINE
  5
11F4
330
A
100
AcDbEntity
  8
MODEL
 62
     7
100
AcDbLine
 10
112.6851935101023
 20
451.5832051051131
 30
0.0
 11
112.6851935101023
 21
450.4249309573856
 31
0.0
  0
LINE
  5
11F5
330
A
100
AcDbEntity
  8
MODEL
 62
     7
100
AcDbLine
 10
109.2843885858598
 20
450.7610105028402
 30
0.0
 11
109.8845306313142
 21
451.0090692149616
 31
0.0
  0
LINE
  5
11F6
330
A
100
AcDbEntity
  8
MODEL
 62
     7
100
AcDbLine
 10
109.2843885858598
 20
450.7610105028402
 30
0.0
 11
109.8845306313142
 21
450.5109513172342
 31
0.0
  0
LINE
  5
11F7
330
A
100
AcDbEntity
  8
MODEL
 62
     7
100
AcDbLine
 10
109.8845306313142
 20
450.5109513172342
 30
0.0
 11
109.8845306313142
 21
449.352677169507
 31
0.0
  0
LINE
  5
11F8
330
A
100
AcDbEntity
  8
MODEL
 62
     7
100
AcDbLine
 10
113.2853355555566
 20
453.4896563361736
 30
0.0
 11
112.6851935101023
 21
453.7377150482949
 31
0.0
  0
LINE
  5
11F9
330
A
100
AcDbEntity
  8
MODEL
 62
     7
100
AcDbLine
 10
113.2853355555566
 20
453.4896563361736
 30
0.0
 11
109.2843885858598
 21
452.4174025482949
 31
0.0
  0
LINE
  5
11FA
330
A
100
AcDbEntity
  8
MODEL
 62
     7
100
AcDbLine
 10
112.6851935101023
 20
453.7377150482949
 30
0.0
 11
109.8845306313142
 21
452.665461260416
 31
0.0
  0
LINE
  5
11FB
330
A
100
AcDbEntity
  8
MODEL
 62
     7
100
AcDbLine
 10
109.8845306313142
 20
452.1693438361736
 30
0.0
 11
112.6851935101023
 21
453.2415976240524
 31
0.0
  0
LINE
  5
11FC
330
A
100
AcDbEntity
  8
MODEL
 62
     7
100
AcDbLine
 10
113.2853355555566
 20
453.4896563361736
 30
0.0
 11
112.6851935101023
 21
453.2415976240524
 31
0.0
  0
LINE
  5
11FD
330
A
100
AcDbEntity
  8
MODEL
 62
     7
100
AcDbLine
 10
112.6851935101023
 20
453.2415976240524
 30
0.0
 11
112.6851935101023
 21
452.0813230028403
 31
0.0
  0
LINE
  5
11FE
330
A
100
AcDbEntity
  8
MODEL
 62
     7
100
AcDbLine
 10
109.2843885858598
 20
452.4174025482949
 30
0.0
 11
109.8845306313142
 21
452.665461260416
 31
0.0
  0
LINE
  5
11FF
330
A
100
AcDbEntity
  8
MODEL
 62
     7
100
AcDbLine
 10
109.2843885858598
 20
452.4174025482949
 30
0.0
 11
109.8845306313142
 21
452.1693438361736
 31
0.0
  0
LINE
  5
1200
330
A
100
AcDbEntity
  8
MODEL
 62
     7
100
AcDbLine
 10
109.8845306313142
 20
452.1693438361736
 30
0.0
 11
109.8845306313142
 21
451.0090692149616
 31
0.0
  0
LINE
  5
1201
330
A
100
AcDbEntity
  8
MODEL
 62
     7
100
AcDbLine
 10
113.2853355555566
 20
455.1460483816282
 30
0.0
 11
112.6851935101023
 21
455.3941070937494
 31
0.0
  0
LINE
  5
1202
330
A
100
AcDbEntity
  8
MODEL
 62
     7
100
AcDbLine
 10
113.2853355555566
 20
455.1460483816282
 30
0.0
 11
109.2843885858598
 21
454.0737945937494
 31
0.0
  0
LINE
  5
1203
330
A
100
AcDbEntity
  8
MODEL
 62
     7
100
AcDbLine
 10
112.6851935101023
 20
455.3941070937494
 30
0.0
 11
109.8845306313142
 21
454.3218533058707
 31
0.0
  0
LINE
  5
1204
330
A
100
AcDbEntity
  8
MODEL
 62
     7
100
AcDbLine
 10
109.8845306313142
 20
453.8257358816282
 30
0.0
 11
112.6851935101023
 21
454.8979896695068
 31
0.0
  0
LINE
  5
1205
330
A
100
AcDbEntity
  8
MODEL
 62
     7
100
AcDbLine
 10
113.2853355555566
 20
455.1460483816282
 30
0.0
 11
112.6851935101023
 21
454.8979896695068
 31
0.0
  0
LINE
  5
1206
330
A
100
AcDbEntity
  8
MODEL
 62
     7
100
AcDbLine
 10
112.6851935101023
 20
454.8979896695068
 30
0.0
 11
112.6851935101023
 21
453.7377150482949
 31
0.0
  0
LINE
  5
1207
330
A
100
AcDbEntity
  8
MODEL
 62
     7
100
AcDbLine
 10
109.2843885858598
 20
454.0737945937494
 30
0.0
 11
109.8845306313142
 21
454.3218533058707
 31
0.0
  0
LINE
  5
1208
330
A
100
AcDbEntity
  8
MODEL
 62
     7
100
AcDbLine
 10
109.2843885858598
 20
454.0737945937494
 30
0.0
 11
109.8845306313142
 21
453.8257358816282
 31
0.0
  0
LINE
  5
1209
330
A
100
AcDbEntity
  8
MODEL
 62
     7
100
AcDbLine
 10
109.8845306313142
 20
453.8257358816282
 30
0.0
 11
109.8845306313142
 21
452.665461260416
 31
0.0
  0
LINE
  5
120A
330
A
100
AcDbEntity
  8
MODEL
 62
     7
100
AcDbLine
 10
113.2853355555566
 20
456.8024404270826
 30
0.0
 11
112.6851935101023
 21
457.0504991392039
 31
0.0
  0
LINE
  5
120B
330
A
100
AcDbEntity
  8
MODEL
 62
     7
100
AcDbLine
 10
113.2853355555566
 20
456.8024404270826
 30
0.0
 11
109.2843885858598
 21
455.730186639204
 31
0.0
  0
LINE
  5
120C
330
A
100
AcDbEntity
  8
MODEL
 62
     7
100
AcDbLine
 10
112.6851935101023
 20
457.0504991392039
 30
0.0
 11
109.8845306313142
 21
455.98024582481
 31
0.0
  0
LINE
  5
120D
330
A
100
AcDbEntity
  8
MODEL
 62
     7
100
AcDbLine
 10
109.8845306313142
 20
455.4821279270827
 30
0.0
 11
112.6851935101023
 21
456.5543817149615
 31
0.0
  0
LINE
  5
120E
330
A
100
AcDbEntity
  8
MODEL
 62
     7
100
AcDbLine
 10
113.2853355555566
 20
456.8024404270826
 30
0.0
 11
112.6851935101023
 21
456.5543817149615
 31
0.0
  0
LINE
  5
120F
330
A
100
AcDbEntity
  8
MODEL
 62
     7
100
AcDbLine
 10
112.6851935101023
 20
456.5543817149615
 30
0.0
 11
112.6851935101023
 21
455.3941070937494
 31
0.0
  0
LINE
  5
1210
330
A
100
AcDbEntity
  8
MODEL
 62
     7
100
AcDbLine
 10
109.2843885858598
 20
455.730186639204
 30
0.0
 11
109.8845306313142
 21
455.98024582481
 31
0.0
  0
LINE
  5
1211
330
A
100
AcDbEntity
  8
MODEL
 62
     7
100
AcDbLine
 10
109.2843885858598
 20
455.730186639204
 30
0.0
 11
109.8845306313142
 21
455.4821279270827
 31
0.0
  0
LINE
  5
1212
330
A
100
AcDbEntity
  8
MODEL
 62
     7
100
AcDbLine
 10
109.8845306313142
 20
455.4821279270827
 30
0.0
 11
109.8845306313142
 21
454.3218533058707
 31
0.0
  0
LINE
  5
1213
330
A
100
AcDbEntity
  8
MODEL
 62
     7
100
AcDbLine
 10
113.2853355555566
 20
458.4588324725373
 30
0.0
 11
112.6851935101023
 21
458.7088916581433
 31
0.0
  0
LINE
  5
1214
330
A
100
AcDbEntity
  8
MODEL
 62
     7
100
AcDbLine
 10
113.2853355555566
 20
458.4588324725373
 30
0.0
 11
109.2843885858598
 21
457.3885791581432
 31
0.0
  0
LINE
  5
1215
330
A
100
AcDbEntity
  8
MODEL
 62
     7
100
AcDbLine
 10
112.6851935101023
 20
458.7088916581433
 30
0.0
 11
109.8845306313142
 21
457.6366378702646
 31
0.0
  0
LINE
  5
1216
330
A
100
AcDbEntity
  8
MODEL
 62
     7
100
AcDbLine
 10
109.8845306313142
 20
457.1385199725372
 30
0.0
 11
112.6851935101023
 21
458.2107737604161
 31
0.0
  0
LINE
  5
1217
330
A
100
AcDbEntity
  8
MODEL
 62
     7
100
AcDbLine
 10
113.2853355555566
 20
458.4588324725373
 30
0.0
 11
112.6851935101023
 21
458.2107737604161
 31
0.0
  0
LINE
  5
1218
330
A
100
AcDbEntity
  8
MODEL
 62
     7
100
AcDbLine
 10
112.6851935101023
 20
458.2107737604161
 30
0.0
 11
112.6851935101023
 21
457.0504991392039
 31
0.0
  0
LINE
  5
1219
330
A
100
AcDbEntity
  8
MODEL
 62
     7
100
AcDbLine
 10
109.2843885858598
 20
457.3885791581432
 30
0.0
 11
109.8845306313142
 21
457.6366378702646
 31
0.0
  0
LINE
  5
121A
330
A
100
AcDbEntity
  8
MODEL
 62
     7
100
AcDbLine
 10
109.2843885858598
 20
457.3885791581432
 30
0.0
 11
109.8845306313142
 21
457.1385199725372
 31
0.0
  0
LINE
  5
121B
330
A
100
AcDbEntity
  8
MODEL
 62
     7
100
AcDbLine
 10
109.8845306313142
 20
457.1385199725372
 30
0.0
 11
109.8845306313142
 21
455.98024582481
 31
0.0
  0
LINE
  5
121C
330
A
100
AcDbEntity
  8
MODEL
 62
     7
100
AcDbLine
 10
113.2853355555566
 20
460.1172249914766
 30
0.0
 11
112.6851935101023
 21
460.365283703598
 31
0.0
  0
LINE
  5
121D
330
A
100
AcDbEntity
  8
MODEL
 62
     7
100
AcDbLine
 10
113.2853355555566
 20
460.1172249914766
 30
0.0
 11
109.2843885858598
 21
459.0449712035979
 31
0.0
  0
LINE
  5
121E
330
A
100
AcDbEntity
  8
MODEL
 62
     7
100
AcDbLine
 10
112.6851935101023
 20
460.365283703598
 30
0.0
 11
109.8845306313142
 21
459.2930299157189
 31
0.0
  0
LINE
  5
121F
330
A
100
AcDbEntity
  8
MODEL
 62
     7
100
AcDbLine
 10
109.8845306313142
 20
458.7949120179917
 30
0.0
 11
112.6851935101023
 21
459.8671658058706
 31
0.0
  0
LINE
  5
1220
330
A
100
AcDbEntity
  8
MODEL
 62
     7
100
AcDbLine
 10
113.2853355555566
 20
460.1172249914766
 30
0.0
 11
112.6851935101023
 21
459.8671658058706
 31
0.0
  0
LINE
  5
1221
330
A
100
AcDbEntity
  8
MODEL
 62
     7
100
AcDbLine
 10
112.6851935101023
 20
459.8671658058706
 30
0.0
 11
112.6851935101023
 21
458.7088916581433
 31
0.0
  0
LINE
  5
1222
330
A
100
AcDbEntity
  8
MODEL
 62
     7
100
AcDbLine
 10
109.2843885858598
 20
459.0449712035979
 30
0.0
 11
109.8845306313142
 21
459.2930299157189
 31
0.0
  0
LINE
  5
1223
330
A
100
AcDbEntity
  8
MODEL
 62
     7
100
AcDbLine
 10
109.2843885858598
 20
459.0449712035979
 30
0.0
 11
109.8845306313142
 21
458.7949120179917
 31
0.0
  0
LINE
  5
1224
330
A
100
AcDbEntity
  8
MODEL
 62
     7
100
AcDbLine
 10
109.8845306313142
 20
458.7949120179917
 30
0.0
 11
109.8845306313142
 21
457.6366378702646
 31
0.0
  0
LINE
  5
1225
330
A
100
AcDbEntity
  8
MODEL
 62
     7
100
AcDbLine
 10
113.2853355555566
 20
461.7736170369312
 30
0.0
 11
112.6851935101023
 21
462.0216757490523
 31
0.0
  0
LINE
  5
1226
330
A
100
AcDbEntity
  8
MODEL
 62
     7
100
AcDbLine
 10
113.2853355555566
 20
461.7736170369312
 30
0.0
 11
109.2843885858598
 21
460.7013632490523
 31
0.0
  0
LINE
  5
1227
330
A
100
AcDbEntity
  8
MODEL
 62
     7
100
AcDbLine
 10
112.6851935101023
 20
462.0216757490523
 30
0.0
 11
109.8845306313142
 21
460.9494219611736
 31
0.0
  0
LINE
  5
1228
330
A
100
AcDbEntity
  8
MODEL
 62
     7
100
AcDbLine
 10
109.8845306313142
 20
460.4533045369312
 30
0.0
 11
112.6851935101023
 21
461.5255583248099
 31
0.0
  0
LINE
  5
1229
330
A
100
AcDbEntity
  8
MODEL
 62
     7
100
AcDbLine
 10
113.2853355555566
 20
461.7736170369312
 30
0.0
 11
112.6851935101023
 21
461.5255583248099
 31
0.0
  0
LINE
  5
122A
330
A
100
AcDbEntity
  8
MODEL
 62
     7
100
AcDbLine
 10
112.6851935101023
 20
461.5255583248099
 30
0.0
 11
112.6851935101023
 21
460.365283703598
 31
0.0
  0
LINE
  5
122B
330
A
100
AcDbEntity
  8
MODEL
 62
     7
100
AcDbLine
 10
109.2843885858598
 20
460.7013632490523
 30
0.0
 11
109.8845306313142
 21
460.9494219611736
 31
0.0
  0
LINE
  5
122C
330
A
100
AcDbEntity
  8
MODEL
 62
     7
100
AcDbLine
 10
109.2843885858598
 20
460.7013632490523
 30
0.0
 11
109.8845306313142
 21
460.4533045369312
 31
0.0
  0
LINE
  5
122D
330
A
100
AcDbEntity
  8
MODEL
 62
     7
100
AcDbLine
 10
109.8845306313142
 20
460.4533045369312
 30
0.0
 11
109.8845306313142
 21
459.2930299157189
 31
0.0
  0
LINE
  5
122E
330
A
100
AcDbEntity
  8
MODEL
 62
     7
100
AcDbLine
 10
113.2853355555566
 20
463.4300090823857
 30
0.0
 11
112.6851935101023
 21
463.6780677945069
 31
0.0
  0
LINE
  5
122F
330
A
100
AcDbEntity
  8
MODEL
 62
     7
100
AcDbLine
 10
113.2853355555566
 20
463.4300090823857
 30
0.0
 11
109.2843885858598
 21
462.3577552945069
 31
0.0
  0
LINE
  5
1230
330
A
100
AcDbEntity
  8
MODEL
 62
     7
100
AcDbLine
 10
112.6851935101023
 20
463.6780677945069
 30
0.0
 11
109.8845306313142
 21
462.6058140066281
 31
0.0
  0
LINE
  5
1231
330
A
100
AcDbEntity
  8
MODEL
 62
     7
100
AcDbLine
 10
109.8845306313142
 20
462.1096965823858
 30
0.0
 11
112.6851935101023
 21
463.1819503702646
 31
0.0
  0
LINE
  5
1232
330
A
100
AcDbEntity
  8
MODEL
 62
     7
100
AcDbLine
 10
113.2853355555566
 20
463.4300090823857
 30
0.0
 11
112.6851935101023
 21
463.1819503702646
 31
0.0
  0
LINE
  5
1233
330
A
100
AcDbEntity
  8
MODEL
 62
     7
100
AcDbLine
 10
112.6851935101023
 20
463.1819503702646
 30
0.0
 11
112.6851935101023
 21
462.0216757490523
 31
0.0
  0
LINE
  5
1234
330
A
100
AcDbEntity
  8
MODEL
 62
     7
100
AcDbLine
 10
109.2843885858598
 20
462.3577552945069
 30
0.0
 11
109.8845306313142
 21
462.6058140066281
 31
0.0
  0
LINE
  5
1235
330
A
100
AcDbEntity
  8
MODEL
 62
     7
100
AcDbLine
 10
109.2843885858598
 20
462.3577552945069
 30
0.0
 11
109.8845306313142
 21
462.1096965823858
 31
0.0
  0
LINE
  5
1236
330
A
100
AcDbEntity
  8
MODEL
 62
     7
100
AcDbLine
 10
109.8845306313142
 20
462.1096965823858
 30
0.0
 11
109.8845306313142
 21
460.9494219611736
 31
0.0
  0
LINE
  5
1237
330
A
100
AcDbEntity
  8
MODEL
 62
     7
100
AcDbLine
 10
113.2853355555566
 20
465.0864011278404
 30
0.0
 11
112.6851935101023
 21
465.3364603134464
 31
0.0
  0
LINE
  5
1238
330
A
100
AcDbEntity
  8
MODEL
 62
     7
100
AcDbLine
 10
113.2853355555566
 20
465.0864011278404
 30
0.0
 11
109.2843885858598
 21
464.0141473399615
 31
0.0
  0
LINE
  5
1239
330
A
100
AcDbEntity
  8
MODEL
 62
     7
100
AcDbLine
 10
112.6851935101023
 20
465.3364603134464
 30
0.0
 11
109.8845306313142
 21
464.2642065255675
 31
0.0
  0
LINE
  5
123A
330
A
100
AcDbEntity
  8
MODEL
 62
     7
100
AcDbLine
 10
109.8845306313142
 20
463.7660886278402
 30
0.0
 11
112.6851935101023
 21
464.8383424157191
 31
0.0
  0
LINE
  5
123B
330
A
100
AcDbEntity
  8
MODEL
 62
     7
100
AcDbLine
 10
113.2853355555566
 20
465.0864011278404
 30
0.0
 11
112.6851935101023
 21
464.8383424157191
 31
0.0
  0
LINE
  5
123C
330
A
100
AcDbEntity
  8
MODEL
 62
     7
100
AcDbLine
 10
112.6851935101023
 20
464.8383424157191
 30
0.0
 11
112.6851935101023
 21
463.6780677945069
 31
0.0
  0
LINE
  5
123D
330
A
100
AcDbEntity
  8
MODEL
 62
     7
100
AcDbLine
 10
109.2843885858598
 20
464.0141473399615
 30
0.0
 11
109.8845306313142
 21
464.2642065255675
 31
0.0
  0
LINE
  5
123E
330
A
100
AcDbEntity
  8
MODEL
 62
     7
100
AcDbLine
 10
109.2843885858598
 20
464.0141473399615
 30
0.0
 11
109.8845306313142
 21
463.7660886278402
 31
0.0
  0
LINE
  5
123F
330
A
100
AcDbEntity
  8
MODEL
 62
     7
100
AcDbLine
 10
109.8845306313142
 20
463.7660886278402
 30
0.0
 11
109.8845306313142
 21
462.6058140066281
 31
0.0
  0
LINE
  5
1240
330
A
100
AcDbEntity
  8
MODEL
 62
     7
100
AcDbLine
 10
113.2853355555566
 20
466.7447936467796
 30
0.0
 11
112.6851935101023
 21
466.992852358901
 31
0.0
  0
LINE
  5
1241
330
A
100
AcDbEntity
  8
MODEL
 62
     7
100
AcDbLine
 10
113.2853355555566
 20
466.7447936467796
 30
0.0
 11
109.2843885858598
 21
465.672539858901
 31
0.0
  0
LINE
  5
1242
330
A
100
AcDbEntity
  8
MODEL
 62
     7
100
AcDbLine
 10
112.6851935101023
 20
466.992852358901
 30
0.0
 11
109.8845306313142
 21
465.9205985710221
 31
0.0
  0
LINE
  5
1243
330
A
100
AcDbEntity
  8
MODEL
 62
     7
100
AcDbLine
 10
109.8845306313142
 20
465.422480673295
 30
0.0
 11
112.6851935101023
 21
466.4947344611736
 31
0.0
  0
LINE
  5
1244
330
A
100
AcDbEntity
  8
MODEL
 62
     7
100
AcDbLine
 10
113.2853355555566
 20
466.7447936467796
 30
0.0
 11
112.6851935101023
 21
466.4947344611736
 31
0.0
  0
LINE
  5
1245
330
A
100
AcDbEntity
  8
MODEL
 62
     7
100
AcDbLine
 10
112.6851935101023
 20
466.4947344611736
 30
0.0
 11
112.6851935101023
 21
465.3364603134464
 31
0.0
  0
LINE
  5
1246
330
A
100
AcDbEntity
  8
MODEL
 62
     7
100
AcDbLine
 10
109.2843885858598
 20
465.672539858901
 30
0.0
 11
109.8845306313142
 21
465.9205985710221
 31
0.0
  0
LINE
  5
1247
330
A
100
AcDbEntity
  8
MODEL
 62
     7
100
AcDbLine
 10
109.2843885858598
 20
465.672539858901
 30
0.0
 11
109.8845306313142
 21
465.422480673295
 31
0.0
  0
LINE
  5
1248
330
A
100
AcDbEntity
  8
MODEL
 62
     7
100
AcDbLine
 10
109.8845306313142
 20
465.422480673295
 30
0.0
 11
109.8845306313142
 21
464.2642065255675
 31
0.0
  0
LINE
  5
1249
330
A
100
AcDbEntity
  8
MODEL
 62
     7
100
AcDbLine
 10
112.7132001388899
 20
471.5619337982948
 30
0.0
 11
111.9370164267688
 21
471.8820095558704
 31
0.0
  0
LINE
  5
124A
330
A
100
AcDbEntity
  8
MODEL
 62
     7
100
AcDbLine
 10
113.2853355555566
 20
468.4011856922342
 30
0.0
 11
109.2843885858598
 21
467.3289319043554
 31
0.0
  0
LINE
  5
124B
330
A
100
AcDbEntity
  8
MODEL
 62
     7
100
AcDbLine
 10
111.9830273169201
 20
471.7599806732948
 30
0.0
 11
110.3606433207082
 21
471.1398338929918
 31
0.0
  0
LINE
  5
124C
330
A
100
AcDbEntity
  8
MODEL
 62
     7
100
AcDbLine
 10
110.1385907638901
 20
470.5556956354159
 30
0.0
 11
112.1130580934355
 21
471.3118746126887
 31
0.0
  0
LINE
  5
124D
330
A
100
AcDbEntity
  8
MODEL
 62
     7
100
AcDbLine
 10
112.7132001388899
 20
471.5619337982948
 30
0.0
 11
112.1130580934355
 21
471.3118746126887
 31
0.0
  0
LINE
  5
124E
330
A
100
AcDbEntity
  8
MODEL
 62
     7
100
AcDbLine
 10
112.6851935101023
 20
468.153126980113
 30
0.0
 11
112.6851935101023
 21
466.992852358901
 31
0.0
  0
LINE
  5
124F
330
A
100
AcDbEntity
  8
MODEL
 62
     7
100
AcDbLine
 10
109.678481862375
 20
470.7477410899614
 30
0.0
 11
110.3146324305566
 21
471.0118035899615
 31
0.0
  0
LINE
  5
1250
330
A
100
AcDbEntity
  8
MODEL
 62
     7
100
AcDbLine
 10
109.678481862375
 20
470.7477410899614
 30
0.0
 11
110.1485931313142
 21
470.5536951619311
 31
0.0
  0
LINE
  5
1251
330
A
100
AcDbEntity
  8
MODEL
 62
     7
100
AcDbLine
 10
109.8845306313142
 20
467.0808731922342
 30
0.0
 11
109.8845306313142
 21
465.9205985710221
 31
0.0
  0
LINE
  5
1252
330
A
100
AcDbEntity
  8
MODEL
 62
     7
100
AcDbLine
 10
112.6851935101023
 20
444.6695687414767
 30
0.0
 11
109.8845306313142
 21
444.6695687414767
 31
0.0
  0
LINE
  5
1253
330
A
100
AcDbEntity
  8
MODEL
 62
     7
100
AcDbLine
 10
111.2848620707083
 20
473.6764342717797
 30
0.0
 11
111.9830273169201
 21
471.7599806732948
 31
0.0
  0
LINE
  5
1254
330
A
100
AcDbEntity
  8
MODEL
 62
     7
100
AcDbLine
 10
111.2848620707083
 20
473.6764342717797
 30
0.0
 11
110.3146324305566
 21
471.0118035899615
 31
0.0
  0
LINE
  5
1255
330
A
100
AcDbEntity
  8
MODEL
 62
     7
100
AcDbLine
 10
112.7132001388899
 20
471.5619337982948
 30
0.0
 11
109.678481862375
 21
470.7477410899614
 31
0.0
  0
LINE
  5
1256
330
A
100
AcDbEntity
  8
MODEL
 62
     7
100
AcDbLine
 10
113.2853355555566
 20
468.4011856922342
 30
0.0
 11
112.6851935101023
 21
468.6492444043553
 31
0.0
  0
LINE
  5
1257
330
A
100
AcDbEntity
  8
MODEL
 62
     7
100
AcDbLine
 10
113.2853355555566
 20
468.4011856922342
 30
0.0
 11
112.6851935101023
 21
468.151126506628
 31
0.0
  0
LINE
  5
1258
330
A
100
AcDbEntity
  8
MODEL
 62
     7
100
AcDbLine
 10
109.8845306313142
 20
467.0808731922342
 30
0.0
 11
112.6851935101023
 21
468.153126980113
 31
0.0
  0
LINE
  5
1259
330
A
100
AcDbEntity
  8
MODEL
 62
     7
100
AcDbLine
 10
112.6851935101023
 20
468.6492444043553
 30
0.0
 11
109.8845306313142
 21
467.5769906164767
 31
0.0
  0
LINE
  5
125A
330
A
100
AcDbEntity
  8
MODEL
 62
     7
100
AcDbLine
 10
109.2843885858598
 20
467.3289319043554
 30
0.0
 11
109.8845306313142
 21
467.5769906164767
 31
0.0
  0
LINE
  5
125B
330
A
100
AcDbEntity
  8
MODEL
 62
     7
100
AcDbLine
 10
109.2843885858598
 20
467.3289319043554
 30
0.0
 11
109.8845306313142
 21
467.0808731922342
 31
0.0
  0
LINE
  5
125C
330
A
100
AcDbEntity
  8
MODEL
 62
     7
100
AcDbLine
 10
112.1410647222233
 20
471.3238774535977
 30
0.0
 11
112.5331575252537
 21
470.2476227187493
 31
0.0
  0
LINE
  5
125D
330
A
100
AcDbEntity
  8
MODEL
 62
     7
100
AcDbLine
 10
110.1485931313142
 20
470.5536951619311
 30
0.0
 11
109.8845306313142
 21
469.8275232869312
 31
0.0
  0
LINE
  5
125E
330
A
100
AcDbEntity
  8
MODEL
 62
     7
100
AcDbLine
 10
113.0852882070718
 20
441.6688585142039
 30
0.0
 11
109.4844359343446
 21
441.6688585142039
 31
0.0
  0
LINE
  5
125F
330
A
100
AcDbEntity
  8
MODEL
 62
     7
100
AcDbLine
 10
112.6851935101023
 20
444.6695687414767
 30
0.0
 11
113.0852882070718
 21
441.6688585142039
 31
0.0
  0
LINE
  5
1260
330
A
100
AcDbEntity
  8
MODEL
 62
     7
100
AcDbLine
 10
145.0428521275263
 20
428.0276298210221
 30
0.0
 11
145.0428521275263
 21
365.0127150482948
 31
0.0
  0
LINE
  5
1261
330
A
100
AcDbEntity
  8
MODEL
 62
     7
100
AcDbLine
 10
100.5323170896476
 20
428.0276298210221
 30
0.0
 11
100.5323170896476
 21
365.0127150482948
 31
0.0
  0
LINE
  5
1262
330
A
100
AcDbEntity
  8
MODEL
 62
     7
100
AcDbLine
 10
143.0423786426778
 20
363.0122415634463
 30
0.0
 11
132.2898336616172
 21
363.0122415634463
 31
0.0
  0
LINE
  5
1264
330
A
100
AcDbEntity
  8
MODEL
 62
     7
100
AcDbLine
 10
131.7897152904051
 20
378.7459655217796
 30
0.0
 11
131.7897152904051
 21
363.5123599346584
 31
0.0
  0
LINE
  5
1265
330
A
100
AcDbEntity
  8
MODEL
 62
     7
100
AcDbLine
 10
113.7854539267686
 20
378.7459655217796
 30
0.0
 11
113.7854539267686
 21
363.5123599346584
 31
0.0
  0
LINE
  5
1266
330
A
100
AcDbEntity
  8
MODEL
 62
     7
100
AcDbLine
 10
113.2853355555566
 20
363.0122415634463
 30
0.0
 11
102.5327905744961
 21
363.0122415634463
 31
0.0
  0
LINE
  5
1267
330
A
100
AcDbEntity
  8
MODEL
 62
     7
100
AcDbLine
 10
135.8706811994959
 20
363.0122415634463
 30
0.0
 11
135.8706811994959
 21
398.15055832481
 31
0.0
  0
LINE
  5
1268
330
A
100
AcDbEntity
  8
MODEL
 62
     7
100
AcDbLine
 10
109.704488017678
 20
363.0122415634463
 30
0.0
 11
109.704488017678
 21
398.15055832481
 31
0.0
  0
LINE
  5
1269
330
A
100
AcDbEntity
  8
MODEL
 62
     7
100
AcDbLine
 10
111.2848620707083
 20
428.0276298210221
 30
0.0
 11
111.2848620707083
 21
473.6764342717797
 31
0.0
  0
LINE
  5
126A
330
A
100
AcDbEntity
  8
MODEL
 62
     7
100
AcDbLine
 10
134.2903071464657
 20
428.0276298210221
 30
0.0
 11
134.2903071464657
 21
473.6764342717797
 31
0.0
  0
LINE
  5
126B
330
A
100
AcDbEntity
  8
MODEL
 62
     7
100
AcDbLine
 10
136.0907332828293
 20
441.6688585142039
 30
0.0
 11
136.0907332828293
 21
428.0276298210221
 31
0.0
  0
LINE
  5
126C
330
A
100
AcDbEntity
  8
MODEL
 62
     7
100
AcDbLine
 10
132.4898810101021
 20
441.6688585142039
 30
0.0
 11
132.4898810101021
 21
428.0276298210221
 31
0.0
  0
LINE
  5
126D
330
A
100
AcDbEntity
  8
MODEL
 62
     7
100
AcDbLine
 10
132.8899757070716
 20
468.7372652376887
 30
0.0
 11
132.8899757070716
 21
467.5769906164767
 31
0.0
  0
LINE
  5
126E
330
A
100
AcDbEntity
  8
MODEL
 62
     7
100
AcDbLine
 10
132.8899757070716
 20
444.6695687414767
 30
0.0
 11
132.4898810101021
 21
441.6688585142039
 31
0.0
  0
LINE
  5
126F
330
A
100
AcDbEntity
  8
MODEL
 62
     7
100
AcDbLine
 10
135.6906385858598
 20
469.8095190255676
 30
0.0
 11
135.6906385858598
 21
468.6492444043553
 31
0.0
  0
LINE
  5
1270
330
A
100
AcDbEntity
  8
MODEL
 62
     7
100
AcDbLine
 10
132.8899757070716
 20
469.8275232869312
 30
0.0
 11
132.8899757070716
 21
469.2333826619312
 31
0.0
  0
LINE
  5
1271
330
A
100
AcDbEntity
  8
MODEL
 62
     7
100
AcDbLine
 10
136.2907806313142
 20
470.0575777376887
 30
0.0
 11
132.2898336616172
 21
468.9853239498099
 31
0.0
  0
LINE
  5
1272
330
A
100
AcDbEntity
  8
MODEL
 62
     7
100
AcDbLine
 10
136.2907806313142
 20
470.0575777376887
 30
0.0
 11
135.6906385858598
 21
469.8095190255676
 31
0.0
  0
LINE
  5
1273
330
A
100
AcDbEntity
  8
MODEL
 62
     7
100
AcDbLine
 10
136.2907806313142
 20
470.0575777376887
 30
0.0
 11
135.4865902904052
 21
470.3916568096584
 31
0.0
  0
LINE
  5
1274
330
A
100
AcDbEntity
  8
MODEL
 62
     7
100
AcDbLine
 10
136.2907806313142
 20
445.205695635416
 30
0.0
 11
134.2903071464657
 21
444.6695687414767
 31
0.0
  0
LINE
  5
1275
330
A
100
AcDbEntity
  8
MODEL
 62
     7
100
AcDbLine
 10
132.2898336616172
 20
468.9853239498099
 30
0.0
 11
132.8899757070716
 21
469.2333826619312
 31
0.0
  0
LINE
  5
1276
330
A
100
AcDbEntity
  8
MODEL
 62
     7
100
AcDbLine
 10
132.2898336616172
 20
468.9853239498099
 30
0.0
 11
132.8899757070716
 21
468.7372652376887
 31
0.0
  0
LINE
  5
1277
330
A
100
AcDbEntity
  8
MODEL
 62
     7
100
AcDbLine
 10
136.2907806313142
 20
445.205695635416
 30
0.0
 11
135.6906385858598
 21
445.4537543475373
 31
0.0
  0
LINE
  5
1278
330
A
100
AcDbEntity
  8
MODEL
 62
     7
100
AcDbLine
 10
136.2907806313142
 20
445.205695635416
 30
0.0
 11
135.6906385858598
 21
444.95563644981
 31
0.0
  0
LINE
  5
1279
330
A
100
AcDbEntity
  8
MODEL
 62
     7
100
AcDbLine
 10
135.5386026010111
 20
470.2476227187493
 30
0.0
 11
132.8899757070716
 21
469.2333826619312
 31
0.0
  0
LINE
  5
127A
330
A
100
AcDbEntity
  8
MODEL
 62
     7
100
AcDbLine
 10
132.8899757070716
 20
468.7372652376887
 30
0.0
 11
135.6906385858598
 21
469.8095190255676
 31
0.0
  0
LINE
  5
127B
330
A
100
AcDbEntity
  8
MODEL
 62
     7
100
AcDbLine
 10
135.6906385858598
 20
444.95563644981
 30
0.0
 11
134.2903071464657
 21
444.6695687414767
 31
0.0
  0
LINE
  5
127C
330
A
100
AcDbEntity
  8
MODEL
 62
     7
100
AcDbLine
 10
134.2903071464657
 20
444.6695687414767
 30
0.0
 11
135.6906385858598
 21
445.4537543475373
 31
0.0
  0
LINE
  5
127D
330
A
100
AcDbEntity
  8
MODEL
 62
     7
100
AcDbLine
 10
135.6906385858598
 20
444.95563644981
 30
0.0
 11
135.6906385858598
 21
444.6695687414767
 31
0.0
  0
LINE
  5
127E
330
A
100
AcDbEntity
  8
MODEL
 62
     7
100
AcDbLine
 10
136.2907806313142
 20
446.8620876808706
 30
0.0
 11
135.6906385858598
 21
447.1101463929918
 31
0.0
  0
LINE
  5
127F
330
A
100
AcDbEntity
  8
MODEL
 62
     7
100
AcDbLine
 10
136.2907806313142
 20
446.8620876808706
 30
0.0
 11
132.2898336616172
 21
445.7898338929918
 31
0.0
  0
LINE
  5
1280
330
A
100
AcDbEntity
  8
MODEL
 62
     7
100
AcDbLine
 10
135.6906385858598
 20
447.1101463929918
 30
0.0
 11
132.8899757070716
 21
446.037892605113
 31
0.0
  0
LINE
  5
1281
330
A
100
AcDbEntity
  8
MODEL
 62
     7
100
AcDbLine
 10
132.8899757070716
 20
445.5417751808705
 30
0.0
 11
135.6906385858598
 21
446.6140289687493
 31
0.0
  0
LINE
  5
1282
330
A
100
AcDbEntity
  8
MODEL
 62
     7
100
AcDbLine
 10
136.2907806313142
 20
446.8620876808706
 30
0.0
 11
135.6906385858598
 21
446.6140289687493
 31
0.0
  0
LINE
  5
1283
330
A
100
AcDbEntity
  8
MODEL
 62
     7
100
AcDbLine
 10
135.6906385858598
 20
446.6140289687493
 30
0.0
 11
135.6906385858598
 21
445.4537543475373
 31
0.0
  0
LINE
  5
1284
330
A
100
AcDbEntity
  8
MODEL
 62
     7
100
AcDbLine
 10
132.2898336616172
 20
445.7898338929918
 30
0.0
 11
132.8899757070716
 21
446.037892605113
 31
0.0
  0
LINE
  5
1285
330
A
100
AcDbEntity
  8
MODEL
 62
     7
100
AcDbLine
 10
132.2898336616172
 20
445.7898338929918
 30
0.0
 11
132.8899757070716
 21
445.5417751808705
 31
0.0
  0
LINE
  5
1286
330
A
100
AcDbEntity
  8
MODEL
 62
     7
100
AcDbLine
 10
132.8899757070716
 20
445.5417751808705
 30
0.0
 11
132.8899757070716
 21
444.6695687414767
 31
0.0
  0
LINE
  5
1287
330
A
100
AcDbEntity
  8
MODEL
 62
     7
100
AcDbLine
 10
136.2907806313142
 20
448.5184797263251
 30
0.0
 11
135.6906385858598
 21
448.7665384384464
 31
0.0
  0
LINE
  5
1288
330
A
100
AcDbEntity
  8
MODEL
 62
     7
100
AcDbLine
 10
136.2907806313142
 20
448.5184797263251
 30
0.0
 11
132.2898336616172
 21
447.4462259384463
 31
0.0
  0
LINE
  5
1289
330
A
100
AcDbEntity
  8
MODEL
 62
     7
100
AcDbLine
 10
135.6906385858598
 20
448.7665384384464
 30
0.0
 11
132.8899757070716
 21
447.6942846505675
 31
0.0
  0
LINE
  5
128A
330
A
100
AcDbEntity
  8
MODEL
 62
     7
100
AcDbLine
 10
132.8899757070716
 20
447.1981672263252
 30
0.0
 11
135.6906385858598
 21
448.2704210142038
 31
0.0
  0
LINE
  5
128B
330
A
100
AcDbEntity
  8
MODEL
 62
     7
100
AcDbLine
 10
136.2907806313142
 20
448.5184797263251
 30
0.0
 11
135.6906385858598
 21
448.2704210142038
 31
0.0
  0
LINE
  5
128C
330
A
100
AcDbEntity
  8
MODEL
 62
     7
100
AcDbLine
 10
135.6906385858598
 20
448.2704210142038
 30
0.0
 11
135.6906385858598
 21
447.1101463929918
 31
0.0
  0
LINE
  5
128D
330
A
100
AcDbEntity
  8
MODEL
 62
     7
100
AcDbLine
 10
132.2898336616172
 20
447.4462259384463
 30
0.0
 11
132.8899757070716
 21
447.6942846505675
 31
0.0
  0
LINE
  5
128E
330
A
100
AcDbEntity
  8
MODEL
 62
     7
100
AcDbLine
 10
132.2898336616172
 20
447.4462259384463
 30
0.0
 11
132.8899757070716
 21
447.1981672263252
 31
0.0
  0
LINE
  5
128F
330
A
100
AcDbEntity
  8
MODEL
 62
     7
100
AcDbLine
 10
132.8899757070716
 20
447.1981672263252
 30
0.0
 11
132.8899757070716
 21
446.037892605113
 31
0.0
  0
LINE
  5
1290
330
A
100
AcDbEntity
  8
MODEL
 62
     7
100
AcDbLine
 10
136.2907806313142
 20
450.1748717717796
 30
0.0
 11
135.6906385858598
 21
450.4249309573856
 31
0.0
  0
LINE
  5
1291
330
A
100
AcDbEntity
  8
MODEL
 62
     7
100
AcDbLine
 10
136.2907806313142
 20
450.1748717717796
 30
0.0
 11
132.2898336616172
 21
449.102617983901
 31
0.0
  0
LINE
  5
1292
330
A
100
AcDbEntity
  8
MODEL
 62
     7
100
AcDbLine
 10
135.6906385858598
 20
450.4249309573856
 30
0.0
 11
132.8899757070716
 21
449.352677169507
 31
0.0
  0
LINE
  5
1293
330
A
100
AcDbEntity
  8
MODEL
 62
     7
100
AcDbLine
 10
132.8899757070716
 20
448.8545592717797
 30
0.0
 11
135.6906385858598
 21
449.9268130596584
 31
0.0
  0
LINE
  5
1294
330
A
100
AcDbEntity
  8
MODEL
 62
     7
100
AcDbLine
 10
136.2907806313142
 20
450.1748717717796
 30
0.0
 11
135.6906385858598
 21
449.9268130596584
 31
0.0
  0
LINE
  5
1295
330
A
100
AcDbEntity
  8
MODEL
 62
     7
100
AcDbLine
 10
135.6906385858598
 20
449.9268130596584
 30
0.0
 11
135.6906385858598
 21
448.7665384384464
 31
0.0
  0
LINE
  5
1296
330
A
100
AcDbEntity
  8
MODEL
 62
     7
100
AcDbLine
 10
132.2898336616172
 20
449.102617983901
 30
0.0
 11
132.8899757070716
 21
449.352677169507
 31
0.0
  0
LINE
  5
1297
330
A
100
AcDbEntity
  8
MODEL
 62
     7
100
AcDbLine
 10
132.2898336616172
 20
449.102617983901
 30
0.0
 11
132.8899757070716
 21
448.8545592717797
 31
0.0
  0
LINE
  5
1298
330
A
100
AcDbEntity
  8
MODEL
 62
     7
100
AcDbLine
 10
132.8899757070716
 20
448.8545592717797
 30
0.0
 11
132.8899757070716
 21
447.6942846505675
 31
0.0
  0
LINE
  5
1299
330
A
100
AcDbEntity
  8
MODEL
 62
     7
100
AcDbLine
 10
136.2907806313142
 20
451.8332642907192
 30
0.0
 11
135.6906385858598
 21
452.0813230028403
 31
0.0
  0
LINE
  5
129A
330
A
100
AcDbEntity
  8
MODEL
 62
     7
100
AcDbLine
 10
136.2907806313142
 20
451.8332642907192
 30
0.0
 11
132.2898336616172
 21
450.7610105028402
 31
0.0
  0
LINE
  5
129B
330
A
100
AcDbEntity
  8
MODEL
 62
     7
100
AcDbLine
 10
135.6906385858598
 20
452.0813230028403
 30
0.0
 11
132.8899757070716
 21
451.0090692149616
 31
0.0
  0
LINE
  5
129C
330
A
100
AcDbEntity
  8
MODEL
 62
     7
100
AcDbLine
 10
132.8899757070716
 20
450.5109513172342
 30
0.0
 11
135.6906385858598
 21
451.5832051051131
 31
0.0
  0
LINE
  5
129D
330
A
100
AcDbEntity
  8
MODEL
 62
     7
100
AcDbLine
 10
136.2907806313142
 20
451.8332642907192
 30
0.0
 11
135.6906385858598
 21
451.5832051051131
 31
0.0
  0
LINE
  5
129E
330
A
100
AcDbEntity
  8
MODEL
 62
     7
100
AcDbLine
 10
135.6906385858598
 20
451.5832051051131
 30
0.0
 11
135.6906385858598
 21
450.4249309573856
 31
0.0
  0
LINE
  5
129F
330
A
100
AcDbEntity
  8
MODEL
 62
     7
100
AcDbLine
 10
132.2898336616172
 20
450.7610105028402
 30
0.0
 11
132.8899757070716
 21
451.0090692149616
 31
0.0
  0
LINE
  5
12A0
330
A
100
AcDbEntity
  8
MODEL
 62
     7
100
AcDbLine
 10
132.2898336616172
 20
450.7610105028402
 30
0.0
 11
132.8899757070716
 21
450.5109513172342
 31
0.0
  0
LINE
  5
12A1
330
A
100
AcDbEntity
  8
MODEL
 62
     7
100
AcDbLine
 10
132.8899757070716
 20
450.5109513172342
 30
0.0
 11
132.8899757070716
 21
449.352677169507
 31
0.0
  0
LINE
  5
12A2
330
A
100
AcDbEntity
  8
MODEL
 62
     7
100
AcDbLine
 10
136.2907806313142
 20
453.4896563361736
 30
0.0
 11
135.6906385858598
 21
453.7377150482949
 31
0.0
  0
LINE
  5
12A3
330
A
100
AcDbEntity
  8
MODEL
 62
     7
100
AcDbLine
 10
136.2907806313142
 20
453.4896563361736
 30
0.0
 11
132.2898336616172
 21
452.4174025482949
 31
0.0
  0
LINE
  5
12A4
330
A
100
AcDbEntity
  8
MODEL
 62
     7
100
AcDbLine
 10
135.6906385858598
 20
453.7377150482949
 30
0.0
 11
132.8899757070716
 21
452.665461260416
 31
0.0
  0
LINE
  5
12A5
330
A
100
AcDbEntity
  8
MODEL
 62
     7
100
AcDbLine
 10
132.8899757070716
 20
452.1693438361736
 30
0.0
 11
135.6906385858598
 21
453.2415976240524
 31
0.0
  0
LINE
  5
12A6
330
A
100
AcDbEntity
  8
MODEL
 62
     7
100
AcDbLine
 10
136.2907806313142
 20
453.4896563361736
 30
0.0
 11
135.6906385858598
 21
453.2415976240524
 31
0.0
  0
LINE
  5
12A7
330
A
100
AcDbEntity
  8
MODEL
 62
     7
100
AcDbLine
 10
135.6906385858598
 20
453.2415976240524
 30
0.0
 11
135.6906385858598
 21
452.0813230028403
 31
0.0
  0
LINE
  5
12A8
330
A
100
AcDbEntity
  8
MODEL
 62
     7
100
AcDbLine
 10
132.2898336616172
 20
452.4174025482949
 30
0.0
 11
132.8899757070716
 21
452.665461260416
 31
0.0
  0
LINE
  5
12A9
330
A
100
AcDbEntity
  8
MODEL
 62
     7
100
AcDbLine
 10
132.2898336616172
 20
452.4174025482949
 30
0.0
 11
132.8899757070716
 21
452.1693438361736
 31
0.0
  0
LINE
  5
12AA
330
A
100
AcDbEntity
  8
MODEL
 62
     7
100
AcDbLine
 10
132.8899757070716
 20
452.1693438361736
 30
0.0
 11
132.8899757070716
 21
451.0090692149616
 31
0.0
  0
LINE
  5
12AB
330
A
100
AcDbEntity
  8
MODEL
 62
     7
100
AcDbLine
 10
136.2907806313142
 20
455.1460483816282
 30
0.0
 11
135.6906385858598
 21
455.3941070937494
 31
0.0
  0
LINE
  5
12AC
330
A
100
AcDbEntity
  8
MODEL
 62
     7
100
AcDbLine
 10
136.2907806313142
 20
455.1460483816282
 30
0.0
 11
132.2898336616172
 21
454.0737945937494
 31
0.0
  0
LINE
  5
12AD
330
A
100
AcDbEntity
  8
MODEL
 62
     7
100
AcDbLine
 10
135.6906385858598
 20
455.3941070937494
 30
0.0
 11
132.8899757070716
 21
454.3218533058707
 31
0.0
  0
LINE
  5
12AE
330
A
100
AcDbEntity
  8
MODEL
 62
     7
100
AcDbLine
 10
132.8899757070716
 20
453.8257358816282
 30
0.0
 11
135.6906385858598
 21
454.8979896695068
 31
0.0
  0
LINE
  5
12AF
330
A
100
AcDbEntity
  8
MODEL
 62
     7
100
AcDbLine
 10
136.2907806313142
 20
455.1460483816282
 30
0.0
 11
135.6906385858598
 21
454.8979896695068
 31
0.0
  0
LINE
  5
12B0
330
A
100
AcDbEntity
  8
MODEL
 62
     7
100
AcDbLine
 10
135.6906385858598
 20
454.8979896695068
 30
0.0
 11
135.6906385858598
 21
453.7377150482949
 31
0.0
  0
LINE
  5
12B1
330
A
100
AcDbEntity
  8
MODEL
 62
     7
100
AcDbLine
 10
132.2898336616172
 20
454.0737945937494
 30
0.0
 11
132.8899757070716
 21
454.3218533058707
 31
0.0
  0
LINE
  5
12B2
330
A
100
AcDbEntity
  8
MODEL
 62
     7
100
AcDbLine
 10
132.2898336616172
 20
454.0737945937494
 30
0.0
 11
132.8899757070716
 21
453.8257358816282
 31
0.0
  0
LINE
  5
12B3
330
A
100
AcDbEntity
  8
MODEL
 62
     7
100
AcDbLine
 10
132.8899757070716
 20
453.8257358816282
 30
0.0
 11
132.8899757070716
 21
452.665461260416
 31
0.0
  0
LINE
  5
12B4
330
A
100
AcDbEntity
  8
MODEL
 62
     7
100
AcDbLine
 10
136.2907806313142
 20
456.8024404270826
 30
0.0
 11
135.6906385858598
 21
457.0504991392039
 31
0.0
  0
LINE
  5
12B5
330
A
100
AcDbEntity
  8
MODEL
 62
     7
100
AcDbLine
 10
136.2907806313142
 20
456.8024404270826
 30
0.0
 11
132.2898336616172
 21
455.730186639204
 31
0.0
  0
LINE
  5
12B6
330
A
100
AcDbEntity
  8
MODEL
 62
     7
100
AcDbLine
 10
135.6906385858598
 20
457.0504991392039
 30
0.0
 11
132.8899757070716
 21
455.98024582481
 31
0.0
  0
LINE
  5
12B7
330
A
100
AcDbEntity
  8
MODEL
 62
     7
100
AcDbLine
 10
132.8899757070716
 20
455.4821279270827
 30
0.0
 11
135.6906385858598
 21
456.5543817149615
 31
0.0
  0
LINE
  5
12B8
330
A
100
AcDbEntity
  8
MODEL
 62
     7
100
AcDbLine
 10
136.2907806313142
 20
456.8024404270826
 30
0.0
 11
135.6906385858598
 21
456.5543817149615
 31
0.0
  0
LINE
  5
12B9
330
A
100
AcDbEntity
  8
MODEL
 62
     7
100
AcDbLine
 10
135.6906385858598
 20
456.5543817149615
 30
0.0
 11
135.6906385858598
 21
455.3941070937494
 31
0.0
  0
LINE
  5
12BA
330
A
100
AcDbEntity
  8
MODEL
 62
     7
100
AcDbLine
 10
132.2898336616172
 20
455.730186639204
 30
0.0
 11
132.8899757070716
 21
455.98024582481
 31
0.0
  0
LINE
  5
12BB
330
A
100
AcDbEntity
  8
MODEL
 62
     7
100
AcDbLine
 10
132.2898336616172
 20
455.730186639204
 30
0.0
 11
132.8899757070716
 21
455.4821279270827
 31
0.0
  0
LINE
  5
12BC
330
A
100
AcDbEntity
  8
MODEL
 62
     7
100
AcDbLine
 10
132.8899757070716
 20
455.4821279270827
 30
0.0
 11
132.8899757070716
 21
454.3218533058707
 31
0.0
  0
LINE
  5
12BD
330
A
100
AcDbEntity
  8
MODEL
 62
     7
100
AcDbLine
 10
136.2907806313142
 20
458.4588324725373
 30
0.0
 11
135.6906385858598
 21
458.7088916581433
 31
0.0
  0
LINE
  5
12BE
330
A
100
AcDbEntity
  8
MODEL
 62
     7
100
AcDbLine
 10
136.2907806313142
 20
458.4588324725373
 30
0.0
 11
132.2898336616172
 21
457.3885791581432
 31
0.0
  0
LINE
  5
12BF
330
A
100
AcDbEntity
  8
MODEL
 62
     7
100
AcDbLine
 10
135.6906385858598
 20
458.7088916581433
 30
0.0
 11
132.8899757070716
 21
457.6366378702646
 31
0.0
  0
LINE
  5
12C0
330
A
100
AcDbEntity
  8
MODEL
 62
     7
100
AcDbLine
 10
132.8899757070716
 20
457.1385199725372
 30
0.0
 11
135.6906385858598
 21
458.2107737604161
 31
0.0
  0
LINE
  5
12C1
330
A
100
AcDbEntity
  8
MODEL
 62
     7
100
AcDbLine
 10
136.2907806313142
 20
458.4588324725373
 30
0.0
 11
135.6906385858598
 21
458.2107737604161
 31
0.0
  0
LINE
  5
12C2
330
A
100
AcDbEntity
  8
MODEL
 62
     7
100
AcDbLine
 10
135.6906385858598
 20
458.2107737604161
 30
0.0
 11
135.6906385858598
 21
457.0504991392039
 31
0.0
  0
LINE
  5
12C3
330
A
100
AcDbEntity
  8
MODEL
 62
     7
100
AcDbLine
 10
132.2898336616172
 20
457.3885791581432
 30
0.0
 11
132.8899757070716
 21
457.6366378702646
 31
0.0
  0
LINE
  5
12C4
330
A
100
AcDbEntity
  8
MODEL
 62
     7
100
AcDbLine
 10
132.2898336616172
 20
457.3885791581432
 30
0.0
 11
132.8899757070716
 21
457.1385199725372
 31
0.0
  0
LINE
  5
12C5
330
A
100
AcDbEntity
  8
MODEL
 62
     7
100
AcDbLine
 10
132.8899757070716
 20
457.1385199725372
 30
0.0
 11
132.8899757070716
 21
455.98024582481
 31
0.0
  0
LINE
  5
12C6
330
A
100
AcDbEntity
  8
MODEL
 62
     7
100
AcDbLine
 10
136.2907806313142
 20
460.1172249914766
 30
0.0
 11
135.6906385858598
 21
460.365283703598
 31
0.0
  0
LINE
  5
12C7
330
A
100
AcDbEntity
  8
MODEL
 62
     7
100
AcDbLine
 10
136.2907806313142
 20
460.1172249914766
 30
0.0
 11
132.2898336616172
 21
459.0449712035979
 31
0.0
  0
LINE
  5
12C8
330
A
100
AcDbEntity
  8
MODEL
 62
     7
100
AcDbLine
 10
135.6906385858598
 20
460.365283703598
 30
0.0
 11
132.8899757070716
 21
459.2930299157189
 31
0.0
  0
LINE
  5
12C9
330
A
100
AcDbEntity
  8
MODEL
 62
     7
100
AcDbLine
 10
132.8899757070716
 20
458.7949120179917
 30
0.0
 11
135.6906385858598
 21
459.8671658058706
 31
0.0
  0
LINE
  5
12CA
330
A
100
AcDbEntity
  8
MODEL
 62
     7
100
AcDbLine
 10
136.2907806313142
 20
460.1172249914766
 30
0.0
 11
135.6906385858598
 21
459.8671658058706
 31
0.0
  0
LINE
  5
12CB
330
A
100
AcDbEntity
  8
MODEL
 62
     7
100
AcDbLine
 10
135.6906385858598
 20
459.8671658058706
 30
0.0
 11
135.6906385858598
 21
458.7088916581433
 31
0.0
  0
LINE
  5
12CC
330
A
100
AcDbEntity
  8
MODEL
 62
     7
100
AcDbLine
 10
132.2898336616172
 20
459.0449712035979
 30
0.0
 11
132.8899757070716
 21
459.2930299157189
 31
0.0
  0
LINE
  5
12CD
330
A
100
AcDbEntity
  8
MODEL
 62
     7
100
AcDbLine
 10
132.2898336616172
 20
459.0449712035979
 30
0.0
 11
132.8899757070716
 21
458.7949120179917
 31
0.0
  0
LINE
  5
12CE
330
A
100
AcDbEntity
  8
MODEL
 62
     7
100
AcDbLine
 10
132.8899757070716
 20
458.7949120179917
 30
0.0
 11
132.8899757070716
 21
457.6366378702646
 31
0.0
  0
LINE
  5
12CF
330
A
100
AcDbEntity
  8
MODEL
 62
     7
100
AcDbLine
 10
136.2907806313142
 20
461.7736170369312
 30
0.0
 11
135.6906385858598
 21
462.0216757490523
 31
0.0
  0
LINE
  5
12D0
330
A
100
AcDbEntity
  8
MODEL
 62
     7
100
AcDbLine
 10
136.2907806313142
 20
461.7736170369312
 30
0.0
 11
132.2898336616172
 21
460.7013632490523
 31
0.0
  0
LINE
  5
12D1
330
A
100
AcDbEntity
  8
MODEL
 62
     7
100
AcDbLine
 10
135.6906385858598
 20
462.0216757490523
 30
0.0
 11
132.8899757070716
 21
460.9494219611736
 31
0.0
  0
LINE
  5
12D2
330
A
100
AcDbEntity
  8
MODEL
 62
     7
100
AcDbLine
 10
132.8899757070716
 20
460.4533045369312
 30
0.0
 11
135.6906385858598
 21
461.5255583248099
 31
0.0
  0
LINE
  5
12D3
330
A
100
AcDbEntity
  8
MODEL
 62
     7
100
AcDbLine
 10
136.2907806313142
 20
461.7736170369312
 30
0.0
 11
135.6906385858598
 21
461.5255583248099
 31
0.0
  0
LINE
  5
12D4
330
A
100
AcDbEntity
  8
MODEL
 62
     7
100
AcDbLine
 10
135.6906385858598
 20
461.5255583248099
 30
0.0
 11
135.6906385858598
 21
460.365283703598
 31
0.0
  0
LINE
  5
12D5
330
A
100
AcDbEntity
  8
MODEL
 62
     7
100
AcDbLine
 10
132.2898336616172
 20
460.7013632490523
 30
0.0
 11
132.8899757070716
 21
460.9494219611736
 31
0.0
  0
LINE
  5
12D6
330
A
100
AcDbEntity
  8
MODEL
 62
     7
100
AcDbLine
 10
132.2898336616172
 20
460.7013632490523
 30
0.0
 11
132.8899757070716
 21
460.4533045369312
 31
0.0
  0
LINE
  5
12D7
330
A
100
AcDbEntity
  8
MODEL
 62
     7
100
AcDbLine
 10
132.8899757070716
 20
460.4533045369312
 30
0.0
 11
132.8899757070716
 21
459.2930299157189
 31
0.0
  0
LINE
  5
12D8
330
A
100
AcDbEntity
  8
MODEL
 62
     7
100
AcDbLine
 10
136.2907806313142
 20
463.4300090823857
 30
0.0
 11
135.6906385858598
 21
463.6780677945069
 31
0.0
  0
LINE
  5
12D9
330
A
100
AcDbEntity
  8
MODEL
 62
     7
100
AcDbLine
 10
136.2907806313142
 20
463.4300090823857
 30
0.0
 11
132.2898336616172
 21
462.3577552945069
 31
0.0
  0
LINE
  5
12DA
330
A
100
AcDbEntity
  8
MODEL
 62
     7
100
AcDbLine
 10
135.6906385858598
 20
463.6780677945069
 30
0.0
 11
132.8899757070716
 21
462.6058140066281
 31
0.0
  0
LINE
  5
12DB
330
A
100
AcDbEntity
  8
MODEL
 62
     7
100
AcDbLine
 10
132.8899757070716
 20
462.1096965823858
 30
0.0
 11
135.6906385858598
 21
463.1819503702646
 31
0.0
  0
LINE
  5
12DC
330
A
100
AcDbEntity
  8
MODEL
 62
     7
100
AcDbLine
 10
136.2907806313142
 20
463.4300090823857
 30
0.0
 11
135.6906385858598
 21
463.1819503702646
 31
0.0
  0
LINE
  5
12DD
330
A
100
AcDbEntity
  8
MODEL
 62
     7
100
AcDbLine
 10
135.6906385858598
 20
463.1819503702646
 30
0.0
 11
135.6906385858598
 21
462.0216757490523
 31
0.0
  0
LINE
  5
12DE
330
A
100
AcDbEntity
  8
MODEL
 62
     7
100
AcDbLine
 10
132.2898336616172
 20
462.3577552945069
 30
0.0
 11
132.8899757070716
 21
462.6058140066281
 31
0.0
  0
LINE
  5
12DF
330
A
100
AcDbEntity
  8
MODEL
 62
     7
100
AcDbLine
 10
132.2898336616172
 20
462.3577552945069
 30
0.0
 11
132.8899757070716
 21
462.1096965823858
 31
0.0
  0
LINE
  5
12E0
330
A
100
AcDbEntity
  8
MODEL
 62
     7
100
AcDbLine
 10
132.8899757070716
 20
462.1096965823858
 30
0.0
 11
132.8899757070716
 21
460.9494219611736
 31
0.0
  0
LINE
  5
12E1
330
A
100
AcDbEntity
  8
MODEL
 62
     7
100
AcDbLine
 10
136.2907806313142
 20
465.0864011278404
 30
0.0
 11
135.6906385858598
 21
465.3364603134464
 31
0.0
  0
LINE
  5
12E2
330
A
100
AcDbEntity
  8
MODEL
 62
     7
100
AcDbLine
 10
136.2907806313142
 20
465.0864011278404
 30
0.0
 11
132.2898336616172
 21
464.0141473399615
 31
0.0
  0
LINE
  5
12E3
330
A
100
AcDbEntity
  8
MODEL
 62
     7
100
AcDbLine
 10
135.6906385858598
 20
465.3364603134464
 30
0.0
 11
132.8899757070716
 21
464.2642065255675
 31
0.0
  0
LINE
  5
12E4
330
A
100
AcDbEntity
  8
MODEL
 62
     7
100
AcDbLine
 10
132.8899757070716
 20
463.7660886278402
 30
0.0
 11
135.6906385858598
 21
464.8383424157191
 31
0.0
  0
LINE
  5
12E5
330
A
100
AcDbEntity
  8
MODEL
 62
     7
100
AcDbLine
 10
136.2907806313142
 20
465.0864011278404
 30
0.0
 11
135.6906385858598
 21
464.8383424157191
 31
0.0
  0
LINE
  5
12E6
330
A
100
AcDbEntity
  8
MODEL
 62
     7
100
AcDbLine
 10
135.6906385858598
 20
464.8383424157191
 30
0.0
 11
135.6906385858598
 21
463.6780677945069
 31
0.0
  0
LINE
  5
12E7
330
A
100
AcDbEntity
  8
MODEL
 62
     7
100
AcDbLine
 10
132.2898336616172
 20
464.0141473399615
 30
0.0
 11
132.8899757070716
 21
464.2642065255675
 31
0.0
  0
LINE
  5
12E8
330
A
100
AcDbEntity
  8
MODEL
 62
     7
100
AcDbLine
 10
132.2898336616172
 20
464.0141473399615
 30
0.0
 11
132.8899757070716
 21
463.7660886278402
 31
0.0
  0
LINE
  5
12E9
330
A
100
AcDbEntity
  8
MODEL
 62
     7
100
AcDbLine
 10
132.8899757070716
 20
463.7660886278402
 30
0.0
 11
132.8899757070716
 21
462.6058140066281
 31
0.0
  0
LINE
  5
12EA
330
A
100
AcDbEntity
  8
MODEL
 62
     7
100
AcDbLine
 10
136.2907806313142
 20
466.7447936467796
 30
0.0
 11
135.6906385858598
 21
466.992852358901
 31
0.0
  0
LINE
  5
12EB
330
A
100
AcDbEntity
  8
MODEL
 62
     7
100
AcDbLine
 10
136.2907806313142
 20
466.7447936467796
 30
0.0
 11
132.2898336616172
 21
465.672539858901
 31
0.0
  0
LINE
  5
12EC
330
A
100
AcDbEntity
  8
MODEL
 62
     7
100
AcDbLine
 10
135.6906385858598
 20
466.992852358901
 30
0.0
 11
132.8899757070716
 21
465.9205985710221
 31
0.0
  0
LINE
  5
12ED
330
A
100
AcDbEntity
  8
MODEL
 62
     7
100
AcDbLine
 10
132.8899757070716
 20
465.422480673295
 30
0.0
 11
135.6906385858598
 21
466.4947344611736
 31
0.0
  0
LINE
  5
12EE
330
A
100
AcDbEntity
  8
MODEL
 62
     7
100
AcDbLine
 10
136.2907806313142
 20
466.7447936467796
 30
0.0
 11
135.6906385858598
 21
466.4947344611736
 31
0.0
  0
LINE
  5
12EF
330
A
100
AcDbEntity
  8
MODEL
 62
     7
100
AcDbLine
 10
135.6906385858598
 20
466.4947344611736
 30
0.0
 11
135.6906385858598
 21
465.3364603134464
 31
0.0
  0
LINE
  5
12F0
330
A
100
AcDbEntity
  8
MODEL
 62
     7
100
AcDbLine
 10
132.2898336616172
 20
465.672539858901
 30
0.0
 11
132.8899757070716
 21
465.9205985710221
 31
0.0
  0
LINE
  5
12F1
330
A
100
AcDbEntity
  8
MODEL
 62
     7
100
AcDbLine
 10
132.2898336616172
 20
465.672539858901
 30
0.0
 11
132.8899757070716
 21
465.422480673295
 31
0.0
  0
LINE
  5
12F2
330
A
100
AcDbEntity
  8
MODEL
 62
     7
100
AcDbLine
 10
132.8899757070716
 20
465.422480673295
 30
0.0
 11
132.8899757070716
 21
464.2642065255675
 31
0.0
  0
LINE
  5
12F3
330
A
100
AcDbEntity
  8
MODEL
 62
     7
100
AcDbLine
 10
135.7186452146474
 20
471.5619337982948
 30
0.0
 11
134.9424615025264
 21
471.8820095558704
 31
0.0
  0
LINE
  5
12F4
330
A
100
AcDbEntity
  8
MODEL
 62
     7
100
AcDbLine
 10
136.2907806313142
 20
468.4011856922342
 30
0.0
 11
132.2898336616172
 21
467.3289319043554
 31
0.0
  0
LINE
  5
12F5
330
A
100
AcDbEntity
  8
MODEL
 62
     7
100
AcDbLine
 10
134.9884723926777
 20
471.7599806732948
 30
0.0
 11
133.3660883964659
 21
471.1398338929918
 31
0.0
  0
LINE
  5
12F6
330
A
100
AcDbEntity
  8
MODEL
 62
     7
100
AcDbLine
 10
133.1440358396475
 20
470.5556956354159
 30
0.0
 11
135.1185031691929
 21
471.3118746126887
 31
0.0
  0
LINE
  5
12F7
330
A
100
AcDbEntity
  8
MODEL
 62
     7
100
AcDbLine
 10
135.7186452146474
 20
471.5619337982948
 30
0.0
 11
135.1185031691929
 21
471.3118746126887
 31
0.0
  0
LINE
  5
12F8
330
A
100
AcDbEntity
  8
MODEL
 62
     7
100
AcDbLine
 10
135.6906385858598
 20
468.153126980113
 30
0.0
 11
135.6906385858598
 21
466.992852358901
 31
0.0
  0
LINE
  5
12F9
330
A
100
AcDbEntity
  8
MODEL
 62
     7
100
AcDbLine
 10
132.6839269381322
 20
470.7477410899614
 30
0.0
 11
133.3200775063143
 21
471.0118035899615
 31
0.0
  0
LINE
  5
12FA
330
A
100
AcDbEntity
  8
MODEL
 62
     7
100
AcDbLine
 10
132.6839269381322
 20
470.7477410899614
 30
0.0
 11
133.1540382070718
 21
470.5536951619311
 31
0.0
  0
LINE
  5
12FB
330
A
100
AcDbEntity
  8
MODEL
 62
     7
100
AcDbLine
 10
132.8899757070716
 20
467.0808731922342
 30
0.0
 11
132.8899757070716
 21
465.9205985710221
 31
0.0
  0
LINE
  5
12FC
330
A
100
AcDbEntity
  8
MODEL
 62
     7
100
AcDbLine
 10
135.6906385858598
 20
444.6695687414767
 30
0.0
 11
132.8899757070716
 21
444.6695687414767
 31
0.0
  0
LINE
  5
12FD
330
A
100
AcDbEntity
  8
MODEL
 62
     7
100
AcDbLine
 10
134.2903071464657
 20
473.6764342717797
 30
0.0
 11
134.9884723926777
 21
471.7599806732948
 31
0.0
  0
LINE
  5
12FE
330
A
100
AcDbEntity
  8
MODEL
 62
     7
100
AcDbLine
 10
134.2903071464657
 20
473.6764342717797
 30
0.0
 11
133.3200775063143
 21
471.0118035899615
 31
0.0
  0
LINE
  5
12FF
330
A
100
AcDbEntity
  8
MODEL
 62
     7
100
AcDbLine
 10
135.7186452146474
 20
471.5619337982948
 30
0.0
 11
132.6839269381322
 21
470.7477410899614
 31
0.0
  0
LINE
  5
1300
330
A
100
AcDbEntity
  8
MODEL
 62
     7
100
AcDbLine
 10
136.2907806313142
 20
468.4011856922342
 30
0.0
 11
135.6906385858598
 21
468.6492444043553
 31
0.0
  0
LINE
  5
1301
330
A
100
AcDbEntity
  8
MODEL
 62
     7
100
AcDbLine
 10
136.2907806313142
 20
468.4011856922342
 30
0.0
 11
135.6906385858598
 21
468.151126506628
 31
0.0
  0
LINE
  5
1302
330
A
100
AcDbEntity
  8
MODEL
 62
     7
100
AcDbLine
 10
132.8899757070716
 20
467.0808731922342
 30
0.0
 11
135.6906385858598
 21
468.153126980113
 31
0.0
  0
LINE
  5
1303
330
A
100
AcDbEntity
  8
MODEL
 62
     7
100
AcDbLine
 10
135.6906385858598
 20
468.6492444043553
 30
0.0
 11
132.8899757070716
 21
467.5769906164767
 31
0.0
  0
LINE
  5
1304
330
A
100
AcDbEntity
  8
MODEL
 62
     7
100
AcDbLine
 10
132.2898336616172
 20
467.3289319043554
 30
0.0
 11
132.8899757070716
 21
467.5769906164767
 31
0.0
  0
LINE
  5
1305
330
A
100
AcDbEntity
  8
MODEL
 62
     7
100
AcDbLine
 10
132.2898336616172
 20
467.3289319043554
 30
0.0
 11
132.8899757070716
 21
467.0808731922342
 31
0.0
  0
LINE
  5
1306
330
A
100
AcDbEntity
  8
MODEL
 62
     7
100
AcDbLine
 10
135.1465097979809
 20
471.3238774535977
 30
0.0
 11
135.5386026010111
 21
470.2476227187493
 31
0.0
  0
LINE
  5
1307
330
A
100
AcDbEntity
  8
MODEL
 62
     7
100
AcDbLine
 10
133.1540382070718
 20
470.5536951619311
 30
0.0
 11
132.8899757070716
 21
469.8275232869312
 31
0.0
  0
LINE
  5
1308
330
A
100
AcDbEntity
  8
MODEL
 62
     7
100
AcDbLine
 10
136.0907332828293
 20
441.6688585142039
 30
0.0
 11
132.4898810101021
 21
441.6688585142039
 31
0.0
  0
LINE
  5
1309
330
A
100
AcDbEntity
  8
MODEL
 62
     7
100
AcDbLine
 10
135.6906385858598
 20
444.6695687414767
 30
0.0
 11
136.0907332828293
 21
441.6688585142039
 31
0.0
  0
ARC
  5
130A
330
A
100
AcDbEntity
  8
MODEL
 62
     7
100
AcDbCircle
 10
216.1786225500264
 20
268.7602060745595
 30
0.0
 40
2.000473484848485
100
AcDbArc
 50
180.0001430000032
 51
260.0002219999919
  0
ARC
  5
130B
330
A
100
AcDbEntity
  8
MODEL
 62
     7
100
AcDbCircle
 10
216.1786225500264
 20
297.562281133745
 30
0.0
 40
2.000473484848485
100
AcDbArc
 50
90.00007900000504
 51
180.0001570000012
  0
ARC
  5
130C
330
A
100
AcDbEntity
  8
MODEL
 62
     7
100
AcDbCircle
 10
257.7969330377156
 20
301.813287289048
 30
0.0
 40
2.000473484848485
100
AcDbArc
 50
90.00007900000504
 51
126.3506559999931
  0
CIRCLE
  5
130D
330
A
100
AcDbEntity
  8
MODEL
 62
     7
100
AcDbCircle
 10
122.7875846085869
 20
281.5584932549572
 30
0.0
 40
22.00520833333334
  0
ARC
  5
130E
330
A
100
AcDbEntity
  8
MODEL
 62
     7
100
AcDbCircle
 10
110.7847436994961
 20
297.562281133745
 30
0.0
 40
2.000473484848485
100
AcDbArc
 50
90.00007900000504
 51
126.8700099999956
  0
ARC
  5
130F
330
A
100
AcDbEntity
  8
MODEL
 62
     7
100
AcDbCircle
 10
111.7849804419203
 20
297.562281133745
 30
0.0
 40
2.000473484848485
100
AcDbArc
 50
0.0
 51
90.00007900000504
  0
ARC
  5
1310
330
A
100
AcDbEntity
  8
MODEL
 62
     7
100
AcDbCircle
 10
133.7901887752536
 20
297.562281133745
 30
0.0
 40
2.000473484848485
100
AcDbArc
 50
90.00007899999852
 51
180.0001570000012
  0
ARC
  5
1311
330
A
100
AcDbEntity
  8
MODEL
 62
     7
100
AcDbCircle
 10
134.7904255176778
 20
297.562281133745
 30
0.0
 40
2.000473484848485
100
AcDbArc
 50
53.13014699999773
 51
90.00007899999852
  0
ARC
  5
1312
330
A
100
AcDbEntity
  8
MODEL
 62
     7
100
AcDbCircle
 10
111.7849804419203
 20
267.930313650317
 30
0.0
 40
2.000473484848485
100
AcDbArc
 50
314.0213240000035
 51
0.0
  0
ARC
  5
1313
330
A
100
AcDbEntity
  8
MODEL
 62
     7
100
AcDbCircle
 10
109.9828579040416
 20
266.188751446245
 30
0.0
 40
2.000473484848485
100
AcDbArc
 50
230.2018439999973
 51
314.021324
  0
ARC
  5
1314
330
A
100
AcDbEntity
  8
MODEL
 62
     7
100
AcDbCircle
 10
135.5923113131323
 20
266.188751446245
 30
0.0
 40
2.000473484848485
100
AcDbArc
 50
225.9785299999974
 51
309.798006000001
  0
ARC
  5
1315
330
A
100
AcDbEntity
  8
MODEL
 62
     7
100
AcDbCircle
 10
133.7901887752536
 20
267.930313650317
 30
0.0
 40
2.000473484848485
100
AcDbArc
 50
179.9998570000001
 51
225.9785300000009
  0
ARC
  5
1316
330
A
100
AcDbEntity
  8
MODEL
 62
     7
100
AcDbCircle
 10
143.0423786426778
 20
365.0127150482948
 30
0.0
 40
2.000473484848485
100
AcDbArc
 50
269.9999210000015
 51
359.9999960000001
  0
ARC
  5
1317
330
A
100
AcDbEntity
  8
MODEL
 62
     7
100
AcDbCircle
 10
102.5327905744961
 20
365.0127150482948
 30
0.0
 40
2.000473484848485
100
AcDbArc
 50
179.9998569999968
 51
269.9999279999956
  0
ARC
  5
1318
330
A
100
AcDbEntity
  8
MODEL
 62
     7
100
AcDbCircle
 10
122.7875846085869
 20
383.0169764119311
 30
0.0
 40
12.0148837594697
100
AcDbArc
 50
319.3997370000002
 51
220.6004070000003
  0
ARC
  5
1319
330
A
100
AcDbEntity
  8
MODEL
 62
     7
100
AcDbCircle
 10
122.7875846085869
 20
383.0169764119311
 30
0.0
 40
9.918075473484848
100
AcDbArc
 50
335.7946910000006
 51
204.2054659999999
  0
ARC
  5
131A
330
A
100
AcDbEntity
  8
MODEL
 62
     7
100
AcDbCircle
 10
132.2898336616172
 20
374.8725007253782
 30
0.0
 40
0.5001183712121212
100
AcDbArc
 50
139.3998940000039
 51
180.0001570000044
  0
ARC
  5
131B
330
A
100
AcDbEntity
  8
MODEL
 62
     7
100
AcDbCircle
 10
132.2898336616172
 20
378.7454574015146
 30
0.0
 40
0.5001183712121212
100
AcDbArc
 50
155.7948340000235
 51
180.0001570000044
  0
ARC
  5
131C
330
A
100
AcDbEntity
  8
MODEL
 62
     7
100
AcDbCircle
 10
113.2853355555566
 20
374.8725007253782
 30
0.0
 40
0.5001183712121212
100
AcDbArc
 50
359.9999959999903
 51
40.60025999998243
  0
ARC
  5
131D
330
A
100
AcDbEntity
  8
MODEL
 62
     7
100
AcDbCircle
 10
113.2853355555566
 20
378.7454574015146
 30
0.0
 40
0.5001183712121212
100
AcDbArc
 50
359.9999959999903
 51
24.20531799999691
  0
ARC
  5
131E
330
A
100
AcDbEntity
  8
MODEL
 62
     7
100
AcDbCircle
 10
122.7875846085869
 20
383.0169764119311
 30
0.0
 40
20.00475085227273
100
AcDbArc
 50
49.15967200000031
 51
130.8404849999999
  0
ARC
  5
131F
330
A
100
AcDbEntity
  8
MODEL
 62
     7
100
AcDbCircle
 10
132.2898336616172
 20
363.5123599346584
 30
0.0
 40
0.5001183712121212
100
AcDbArc
 50
179.9998569999968
 51
269.9999280000216
  0
ARC
  5
1320
330
A
100
AcDbEntity
  8
MODEL
 62
     7
100
AcDbCircle
 10
113.2853355555566
 20
363.5123599346584
 30
0.0
 40
0.5001183712121212
100
AcDbArc
 50
269.999920999982
 51
359.9999960000034
  0
ARC
  5
1321
330
A
100
AcDbEntity
  8
MODEL
 62
     7
100
AcDbCircle
 10
122.7875846085869
 20
390.1311482395827
 30
0.0
 40
15.3448839251894
100
AcDbArc
 50
31.51061299999984
 51
148.4895439999996
  0
LINE
  5
1322
330
A
100
AcDbEntity
  8
MODEL
 62
     7
100
AcDbLine
 10
243.9829894652725
 20
259.3028336432147
 30
0.0
 11
243.8806672469959
 21
260.0096729424572
 31
0.0
  0
LINE
  5
1323
330
A
100
AcDbEntity
  8
MODEL
 62
     7
100
AcDbLine
 10
243.8806672469959
 20
260.0096729424572
 30
0.0
 11
243.5435994676399
 21
260.6413984632904
 31
0.0
  0
LINE
  5
1324
330
A
100
AcDbEntity
  8
MODEL
 62
     7
100
AcDbLine
 10
243.5435994676399
 20
260.6413984632904
 30
0.0
 11
243.0603430874315
 21
261.1721680892375
 31
0.0
  0
LINE
  5
1325
330
A
100
AcDbEntity
  8
MODEL
 62
     7
100
AcDbLine
 10
243.0603430874315
 20
261.1721680892375
 30
0.0
 11
242.4937889917877
 21
261.614144699086
 31
0.0
  0
LINE
  5
1326
330
A
100
AcDbEntity
  8
MODEL
 62
     7
100
AcDbLine
 10
242.4937889917877
 20
261.614144699086
 30
0.0
 11
241.8780632578861
 21
261.9846643960556
 31
0.0
  0
LINE
  5
1327
330
A
100
AcDbEntity
  8
MODEL
 62
     7
100
AcDbLine
 10
241.8780632578861
 20
261.9846643960556
 30
0.0
 11
241.2303799600642
 21
262.2980565717185
 31
0.0
  0
LINE
  5
1328
330
A
100
AcDbEntity
  8
MODEL
 62
     7
100
AcDbLine
 10
241.2303799600642
 20
262.2980565717185
 30
0.0
 11
240.5620577772991
 21
262.5637874666049
 31
0.0
  0
LINE
  5
1329
330
A
100
AcDbEntity
  8
MODEL
 62
     7
100
AcDbLine
 10
240.5620577772991
 20
262.5637874666049
 30
0.0
 11
239.8785600026779
 21
262.7893508543889
 31
0.0
  0
LINE
  5
132A
330
A
100
AcDbEntity
  8
MODEL
 62
     7
100
AcDbLine
 10
239.8785600026779
 20
262.7893508543889
 30
0.0
 11
239.1849918445338
 21
262.979611886586
 31
0.0
  0
LINE
  5
132B
330
A
100
AcDbEntity
  8
MODEL
 62
     7
100
AcDbLine
 10
239.1849918445338
 20
262.979611886586
 30
0.0
 11
238.4829096712383
 21
263.1387455513586
 31
0.0
  0
LINE
  5
132C
330
A
100
AcDbEntity
  8
MODEL
 62
     7
100
AcDbLine
 10
238.4829096712383
 20
263.1387455513586
 30
0.0
 11
237.7749301021095
 21
263.2694264817563
 31
0.0
  0
LINE
  5
132D
330
A
100
AcDbEntity
  8
MODEL
 62
     7
100
AcDbLine
 10
237.7749301021095
 20
263.2694264817563
 30
0.0
 11
237.0625975026777
 21
263.373795184408
 31
0.0
  0
LINE
  5
132E
330
A
100
AcDbEntity
  8
MODEL
 62
     7
100
AcDbLine
 10
237.0625975026777
 20
263.373795184408
 30
0.0
 11
236.347034138568
 21
263.453464040942
 31
0.0
  0
LINE
  5
132F
330
A
100
AcDbEntity
  8
MODEL
 62
     7
100
AcDbLine
 10
236.347034138568
 20
263.453464040942
 30
0.0
 11
235.6291862337383
 21
263.5095993274005
 31
0.0
  0
LINE
  5
1330
330
A
100
AcDbEntity
  8
MODEL
 62
     7
100
AcDbLine
 10
235.6291862337383
 20
263.5095993274005
 30
0.0
 11
234.9099019889466
 21
263.5430192374382
 31
0.0
  0
LINE
  5
1331
330
A
100
AcDbEntity
  8
MODEL
 62
     7
100
AcDbLine
 10
234.9099019889466
 20
263.5430192374382
 30
0.0
 11
234.1899735916929
 21
263.5542338917942
 31
0.0
  0
LINE
  5
1332
330
A
100
AcDbEntity
  8
MODEL
 62
     7
100
AcDbLine
 10
249.3171679927344
 20
299.5627546185935
 30
0.0
 11
249.8703809307082
 21
299.574895492173
 31
0.0
  0
LINE
  5
1333
330
A
100
AcDbEntity
  8
MODEL
 62
     7
100
AcDbLine
 10
249.8703809307082
 20
299.574895492173
 30
0.0
 11
250.4225936319391
 21
299.6114421422677
 31
0.0
  0
LINE
  5
1334
330
A
100
AcDbEntity
  8
MODEL
 62
     7
100
AcDbLine
 10
250.4225936319391
 20
299.6114421422677
 30
0.0
 11
250.9728378672612
 21
299.6727746588398
 31
0.0
  0
LINE
  5
1335
330
A
100
AcDbEntity
  8
MODEL
 62
     7
100
AcDbLine
 10
250.9728378672612
 20
299.6727746588398
 30
0.0
 11
251.5200193776778
 21
299.759549197192
 31
0.0
  0
LINE
  5
1336
330
A
100
AcDbEntity
  8
MODEL
 62
     7
100
AcDbLine
 10
251.5200193776778
 20
299.759549197192
 30
0.0
 11
252.0628518587383
 21
299.8727119812829
 31
0.0
  0
LINE
  5
1337
330
A
100
AcDbEntity
  8
MODEL
 62
     7
100
AcDbLine
 10
252.0628518587383
 20
299.8727119812829
 30
0.0
 11
252.5997649387573
 21
300.0135373127223
 31
0.0
  0
LINE
  5
1338
330
A
100
AcDbEntity
  8
MODEL
 62
     7
100
AcDbLine
 10
252.5997649387573
 20
300.0135373127223
 30
0.0
 11
253.1287981537193
 21
300.1836635792943
 31
0.0
  0
LINE
  5
1339
330
A
100
AcDbEntity
  8
MODEL
 62
     7
100
AcDbLine
 10
253.1287981537193
 20
300.1836635792943
 30
0.0
 11
253.6455364586436
 21
300.3843470783472
 31
0.0
  0
LINE
  5
133A
330
A
100
AcDbEntity
  8
MODEL
 62
     7
100
AcDbLine
 10
253.6455364586436
 20
300.3843470783472
 30
0.0
 11
254.148061399458
 21
300.6183604661313
 31
0.0
  0
LINE
  5
133B
330
A
100
AcDbEntity
  8
MODEL
 62
     7
100
AcDbLine
 10
254.148061399458
 20
300.6183604661313
 30
0.0
 11
254.6320679572232
 21
300.8885944268321
 31
0.0
  0
LINE
  5
133C
330
A
100
AcDbEntity
  8
MODEL
 62
     7
100
AcDbLine
 10
254.6320679572232
 20
300.8885944268321
 30
0.0
 11
255.0916947446286
 21
301.1984497653739
 31
0.0
  0
LINE
  5
133D
330
A
100
AcDbEntity
  8
MODEL
 62
     7
100
AcDbLine
 10
255.0916947446286
 20
301.1984497653739
 30
0.0
 11
255.5188138379049
 21
301.5516933733285
 31
0.0
  0
LINE
  5
133E
330
A
100
AcDbEntity
  8
MODEL
 62
     7
100
AcDbLine
 10
255.5188138379049
 20
301.5516933733285
 30
0.0
 11
255.9020785514468
 21
301.9519521091239
 31
0.0
  0
LINE
  5
133F
330
A
100
AcDbEntity
  8
MODEL
 62
     7
100
AcDbLine
 10
255.9020785514468
 20
301.9519521091239
 30
0.0
 11
256.225887192545
 21
302.4014364959609
 31
0.0
  0
LINE
  5
1340
330
A
100
AcDbEntity
  8
MODEL
 62
     7
100
AcDbLine
 10
256.225887192545
 20
302.4014364959609
 30
0.0
 11
256.4706491243634
 21
302.8997744457715
 31
0.0
  0
LINE
  5
1341
330
A
100
AcDbEntity
  8
MODEL
 62
     7
100
AcDbLine
 10
256.4706491243634
 20
302.8997744457715
 30
0.0
 11
256.6128347777724
 21
303.4350831460556
 31
0.0
  0
LINE
  5
1342
330
A
100
AcDbEntity
  8
MODEL
 62
     7
100
AcDbLine
 10
113.7854539267686
 20
263.5542318913208
 30
0.0
 11
114.2186684627537
 21
262.3280116616806
 31
0.0
  0
LINE
  5
1343
330
A
100
AcDbEntity
  8
MODEL
 62
     7
100
AcDbLine
 10
114.2186684627537
 20
262.3280116616806
 30
0.0
 11
115.1728603069772
 21
261.4202368037261
 31
0.0
  0
LINE
  5
1344
330
A
100
AcDbEntity
  8
MODEL
 62
     7
100
AcDbLine
 10
115.1728603069772
 20
261.4202368037261
 30
0.0
 11
116.3236166753483
 21
260.7696008070404
 31
0.0
  0
LINE
  5
1345
330
A
100
AcDbEntity
  8
MODEL
 62
     7
100
AcDbLine
 10
116.3236166753483
 20
260.7696008070404
 30
0.0
 11
117.5595832118067
 21
260.297136981283
 31
0.0
  0
LINE
  5
1346
330
A
100
AcDbEntity
  8
MODEL
 62
     7
100
AcDbLine
 10
117.5595832118067
 20
260.297136981283
 30
0.0
 11
118.8393341114278
 21
259.9586328619647
 31
0.0
  0
LINE
  5
1347
330
A
100
AcDbEntity
  8
MODEL
 62
     7
100
AcDbLine
 10
118.8393341114278
 20
259.9586328619647
 30
0.0
 11
120.1432367274315
 21
259.7297946990859
 31
0.0
  0
LINE
  5
1348
330
A
100
AcDbEntity
  8
MODEL
 62
     7
100
AcDbLine
 10
120.1432367274315
 20
259.7297946990859
 30
0.0
 11
121.4607545659732
 21
259.5969812639534
 31
0.0
  0
LINE
  5
1349
330
A
100
AcDbEntity
  8
MODEL
 62
     7
100
AcDbLine
 10
121.4607545659732
 20
259.5969812639534
 30
0.0
 11
122.7875846085869
 21
259.5532849216238
 31
0.0
  0
LINE
  5
134A
330
A
100
AcDbEntity
  8
MODEL
 62
     7
100
AcDbLine
 10
122.7875846085869
 20
259.5532849216238
 30
0.0
 11
124.1108478069771
 21
259.5967452080822
 31
0.0
  0
LINE
  5
134B
330
A
100
AcDbEntity
  8
MODEL
 62
     7
100
AcDbLine
 10
124.1108478069771
 20
259.5967452080822
 30
0.0
 11
125.4265112065982
 21
259.7290545238965
 31
0.0
  0
LINE
  5
134C
330
A
100
AcDbEntity
  8
MODEL
 62
     7
100
AcDbLine
 10
125.4265112065982
 20
259.7290545238965
 30
0.0
 11
126.730619871371
 21
259.9575025944458
 31
0.0
  0
LINE
  5
134D
330
A
100
AcDbEntity
  8
MODEL
 62
     7
100
AcDbLine
 10
126.730619871371
 20
259.9575025944458
 30
0.0
 11
128.0109389054621
 21
260.2956646327981
 31
0.0
  0
LINE
  5
134E
330
A
100
AcDbEntity
  8
MODEL
 62
     7
100
AcDbLine
 10
128.0109389054621
 20
260.2956646327981
 30
0.0
 11
129.2486178472232
 21
260.7682564888587
 31
0.0
  0
LINE
  5
134F
330
A
100
AcDbEntity
  8
MODEL
 62
     7
100
AcDbLine
 10
129.2486178472232
 20
260.7682564888587
 30
0.0
 11
130.400234419193
 21
261.4187724571352
 31
0.0
  0
LINE
  5
1350
330
A
100
AcDbEntity
  8
MODEL
 62
     7
100
AcDbLine
 10
130.400234419193
 20
261.4187724571352
 30
0.0
 11
131.3560226412573
 21
262.3273535059041
 31
0.0
  0
LINE
  5
1351
330
A
100
AcDbEntity
  8
MODEL
 62
     7
100
AcDbLine
 10
131.3560226412573
 20
262.3273535059041
 30
0.0
 11
131.7897152904051
 21
263.5542318913208
 31
0.0
  0
TEXT
  5
1352
330
A
100
AcDbEntity
  8
DIM
100
AcDbText
 10
118.2713254741476
 20
509.288330821989
 30
0.0
 40
6.401515151515152
  1
23
  7
ＭＳ ゴシック
100
AcDbText
  0
TEXT
  5
1353
330
A
100
AcDbEntity
  8
DIM
100
AcDbText
 10
353.2964505329807
 20
270.584475854389
 30
0.0
 40
6.401515151515161
  1
φ45
 50
89.90007799999998
  7
ＭＳ ゴシック
100
AcDbText
  0
TEXT
  5
1354
330
A
100
AcDbEntity
  8
DIM
100
AcDbText
 10
248.9149467924503
 20
211.3762560153738
 30
0.0
 40
6.401515151515152
  1
45
  7
ＭＳ ゴシック
100
AcDbText
  0
TEXT
  5
1355
330
A
100
AcDbEntity
  8
DIM
100
AcDbText
 10
238.9125793682081
 20
186.4154521327981
 30
0.0
 40
6.401515151515152
  1
65
  7
ＭＳ ゴシック
100
AcDbText
  0
VIEWPORT
  5
349
330
B
100
AcDbEntity
 67
     1
  8
0
100
AcDbViewport
 10
202.5
 20
128.5
 30
0.0
 40
486.0
 41
308.4
 68
     1
 69
     1
 12
202.5
 22
128.5
 13
0.0
 23
0.0
 14
0.5
 24
0.5
 15
0.0
 25
0.0
 16
0.0
 26
0.0
 36
1.0
 17
0.0
 27
0.0
 37
0.0
 42
50.0
 43
0.0
 44
0.0
 45
308.4
 50
0.0
 51
0.0
 72
   100
 90
   557152
  1

281
     0
 71
     1
 74
     0
110
0.0
120
0.0
130
0.0
111
1.0
121
0.0
131
0.0
112
0.0
122
1.0
132
0.0
 79
     0
146
0.0
170
     0
 61
     5
348
26C
292
     1
282
     1
141
0.0
142
0.0
 63
   256
  0
VIEWPORT
  5
34A
330
B
100
AcDbEntity
 67
     1
  8
0
100
AcDbViewport
 10
202.5
 20
128.5
 30
0.0
 40
324.0
 41
205.6
 68
     2
 69
     2
 12
986.6781359294573
 22
1427.077061889956
 13
0.0
 23
0.0
 14
0.5
 24
0.5
 15
0.0
 25
0.0
 16
0.0
 26
0.0
 36
1.0
 17
0.0
 27
0.0
 37
0.0
 42
50.0
 43
0.0
 44
0.0
 45
2890.021615685494
 50
0.0
 51
0.0
 72
   100
 90
   557152
  1

281
     0
 71
     1
 74
     0
110
0.0
120
0.0
130
0.0
111
1.0
121
0.0
131
0.0
112
0.0
122
1.0
132
0.0
 79
     0
146
0.0
170
     0
 61
     5
348
26C
292
     1
282
     1
141
0.0
142
0.0
 63
   256
  0
ENDSEC
  0
SECTION
  2
OBJECTS
  0
DICTIONARY
  5
19
330
0
100
AcDbDictionary
281
     1
  3
ACAD_COLOR
350
674
  3
ACAD_DETAILVIEWSTYLE
350
BBF
  3
ACAD_GROUP
350
1A
  3
ACAD_IMAGE_VARS
350
27B
  3
ACAD_LAYOUT
350
1E
  3
ACAD_MATERIAL
350
263
  3
ACAD_MLEADERSTYLE
350
336
  3
ACAD_MLINESTYLE
350
1B
  3
ACAD_PLOTSETTINGS
350
22
  3
ACAD_PLOTSTYLENAME
350
1F
  3
ACAD_SCALELIST
350
241
  3
ACAD_SECTIONVIEWSTYLE
350
BC0
  3
ACAD_TABLESTYLE
350
278
  3
ACAD_VISUALSTYLE
350
267
  3
ACDB_RECOMPOSE_DATA
350
1392
  3
AcDbVariableDictionary
350
330
  3
APPDATA
350
27A
  0
SUN
  5
904
330
15
100
AcDbSun
 90
        1
290
     0
 63
     7
421
 16777215
 40
1.0
291
     1
 91
  2455826
 92
 54000000
292
     0
 70
     2
 71
   256
280
     1
  0
DICTIONARY
  5
2E1
330
2
100
AcDbDictionary
280
     1
281
     1
  3
ACAD_LAYERSTATES
360
2E2
  3
ACLYDICTIONARY
360
D05
  0
DICTIONARY
  5
674
102
{ACAD_REACTORS
330
19
102
}
330
19
100
AcDbDictionary
281
     1
  0
DICTIONARY
  5
BBF
102
{ACAD_REACTORS
330
19
102
}
330
19
100
AcDbDictionary
281
     1
  0
DICTIONARY
  5
1A
102
{ACAD_REACTORS
330
19
102
}
330
19
100
AcDbDictionary
281
     1
  0
RASTERVARIABLES
  5
27B
102
{ACAD_REACTORS
330
19
102
}
330
19
100
AcDbRasterVariables
 90
        0
 70
     1
 71
     1
 72
     1
  0
DICTIONARY
  5
1E
102
{ACAD_REACTORS
330
19
102
}
330
19
100
AcDbDictionary
281
     1
  3
Layout1
350
21
  3
Model
350
20
  0
DICTIONARY
  5
263
102
{ACAD_REACTORS
330
19
102
}
330
19
100
AcDbDictionary
281
     1
  3
ByBlock
350
265
  3
ByLayer
350
264
  3
Global
350
266
  0
DICTIONARY
  5
336
102
{ACAD_REACTORS
330
19
102
}
330
19
100
AcDbDictionary
281
     1
  0
DICTIONARY
  5
1B
102
{ACAD_REACTORS
330
19
102
}
330
19
100
AcDbDictionary
281
     1
  3
Standard
350
1C
  0
DICTIONARY
  5
22
102
{ACAD_REACTORS
330
19
102
}
330
19
100
AcDbDictionary
281
     1
  0
ACDBDICTIONARYWDFLT
  5
1F
102
{ACAD_REACTORS
330
19
102
}
330
19
100
AcDbDictionary
281
     1
  3
Normal
350
1D
100
AcDbDictionaryWithDefault
340
1D
  0
DICTIONARY
  5
241
102
{ACAD_REACTORS
330
19
102
}
330
19
100
AcDbDictionary
281
     1
  3
A0
350
242
  3
A1
350
243
  3
A2
350
244
  3
A3
350
245
  3
A4
350
246
  3
A5
350
247
  3
A6
350
248
  3
A7
350
249
  3
A8
350
24A
  3
A9
350
24B
  3
B0
350
24C
  3
B1
350
24D
  3
B2
350
24E
  3
B3
350
24F
  3
B4
350
250
  3
B5
350
251
  3
B6
350
252
  3
B7
350
253
  3
B8
350
254
  3
B9
350
255
  3
C0
350
256
  3
C1
350
257
  3
C2
350
258
  3
C3
350
259
  3
C4
350
25A
  3
C5
350
25B
  3
C6
350
25C
  3
C7
350
25D
  3
C8
350
25E
  3
C9
350
25F
  3
D0
350
260
  3
D1
350
261
  3
D2
350
262
  0
DICTIONARY
  5
BC0
102
{ACAD_REACTORS
330
19
102
}
330
19
100
AcDbDictionary
281
     1
  0
DICTIONARY
  5
278
102
{ACAD_REACTORS
330
19
102
}
330
19
100
AcDbDictionary
281
     1
  3
Standard
350
279
  0
DICTIONARY
  5
267
102
{ACAD_REACTORS
330
19
102
}
330
19
100
AcDbDictionary
281
     1
  3
2dWireframe
350
26C
  3
3D Hidden
350
26E
  3
3dWireframe
350
26D
  3
Basic
350
26F
  3
Brighten
350
273
  3
ColorChange
350
277
  3
Conceptual
350
271
  3
Dim
350
272
  3
EdgeColorOff
350
8FE
  3
Facepattern
350
276
  3
Flat
350
268
  3
FlatWithEdges
350
269
  3
Gouraud
350
26A
  3
GouraudWithEdges
350
26B
  3
Hidden
350
8FB
  3
JitterOff
350
8FC
  3
Linepattern
350
275
  3
OverhangOff
350
8FD
  3
Realistic
350
270
  3
Shaded
350
903
  3
Shaded with edges
350
902
  3
Shades of Gray
350
8FF
  3
Sketchy
350
900
  3
Thicken
350
274
  3
Wireframe
350
8FA
  3
X-Ray
350
901
  0
XRECORD
  5
1392
102
{ACAD_REACTORS
330
19
102
}
330
19
100
AcDbXrecord
280
     1
 90
        1
330
279
  0
DICTIONARY
  5
330
102
{ACAD_REACTORS
330
19
102
}
330
19
100
AcDbDictionary
281
     1
  3
CANNOSCALE
350
331
  3
CTABLESTYLE
350
335
  3
HPTRANSPARENCY
350
D6B
  3
XCLIPFRAME
350
896
  0
DICTIONARY
  5
27A
102
{ACAD_REACTORS
330
19
102
}
330
19
100
AcDbDictionary
281
     1
  0
DICTIONARY
  5
2E2
102
{ACAD_REACTORS
330
2E1
102
}
330
2E1
100
AcDbDictionary
281
     1
  3
ARGON_LAYERP_2
350
88B
  3
ARGON_LAYERP_3
350
88F
  3
ARGON_LAYERP_4
350
892
  3
ARGON_LAYERP_5
350
8F6
  3
ARGON_LAYERP_6
350
BC1
  3
ARGON_LAYERP_7
350
C9E
  3
ARGON_LAYERP_8
350
C9F
  3
ARGON_LAYERP_9
350
7AA
  0
DICTIONARY
  5
D05
102
{ACAD_REACTORS
330
2E1
102
}
330
2E1
100
AcDbDictionary
281
     1
1001
ACAD
1000
<All
  0
LAYOUT
  5
21
102
{ACAD_REACTORS
330
1E
102
}
330
1E
100
AcDbPlotSettings
  1

  2
none_device
  4
ISO_A3_(420.00_x_297.00_MM)
  6

 40
7.5
 41
20.0
 42
7.5
 43
20.0
 44
420.0
 45
297.0
 46
0.0
 47
0.0
 48
0.0
 49
0.0
140
0.0
141
0.0
142
1.0
143
1.0
 70
     0
 72
     1
 73
     0
 74
     0
  7

 75
     0
 76
     0
 77
     2
 78
   300
147
1.0
148
0.0
149
0.0
100
AcDbLayout
  1
Layout1
 70
     0
 71
     0
 10
-7.5
 20
-20.0
 11
412.5
 21
277.0
 12
0.0
 22
0.0
 32
0.0
 14
0.0
 24
0.0
 34
0.0
 15
0.0
 25
0.0
 35
0.0
146
0.0
 13
0.0
 23
0.0
 33
0.0
 16
0.0
 26
0.0
 36
0.0
 17
0.0
 27
0.0
 37
0.0
 76
     0
330
B
331
349
  0
LAYOUT
  5
20
102
{ACAD_REACTORS
330
1E
102
}
330
1E
100
AcDbPlotSettings
  1

  2
none_device
  4
ISO_A3_(420.00_x_297.00_MM)
  6

 40
7.5
 41
20.0
 42
7.5
 43
20.0
 44
420.0
 45
297.0
 46
0.0
 47
0.0
 48
0.0
 49
0.0
140
0.0
141
0.0
142
1.0
143
1.0
 70
  1024
 72
     1
 73
     0
 74
     0
  7

 75
     0
 76
     0
 77
     2
 78
   300
147
1.0
148
0.0
149
0.0
100
AcDbLayout
  1
Model
 70
     0
 71
     1
 10
0.0
 20
0.0
 11
420.0000000000001
 21
594.0000000000001
 12
0.0
 22
0.0
 32
0.0
 14
14.44042890944974
 24
12.75842966491423
 34
0.0
 15
404.4404289095462
 25
579.4293347012853
 35
0.0
146
0.0
 13
0.0
 23
0.0
 33
0.0
 16
0.0
 26
0.0
 36
0.0
 17
0.0
 27
0.0
 37
0.0
 76
     0
330
A
331
15
  0
MATERIAL
  5
265
102
{ACAD_REACTORS
330
263
102
}
330
263
100
AcDbMaterial
  1
ByBlock
 72
     1
 94
      127
  0
MATERIAL
  5
264
102
{ACAD_REACTORS
330
263
102
}
330
263
100
AcDbMaterial
  1
ByLayer
 72
     1
 94
      127
  0
MATERIAL
  5
266
102
{ACAD_REACTORS
330
263
102
}
330
263
100
AcDbMaterial
  1
Global
 72
     1
 94
      127
  0
MLINESTYLE
  5
1C
102
{ACAD_REACTORS
330
1B
102
}
330
1B
100
AcDbMlineStyle
  2
Standard
 70
     0
  3

 62
     0
 51
90.0
 52
90.0
 71
     2
 49
0.5
 62
   256
  6
BYLAYER
 49
-0.5
 62
   256
  6
BYLAYER
  0
ACDBPLACEHOLDER
  5
1D
102
{ACAD_REACTORS
330
1F
102
}
330
1F
  0
SCALE
  5
242
102
{ACAD_REACTORS
330
241
102
}
330
241
100
AcDbScale
 70
     0
300
1:1
140
1.0
141
1.0
290
     1
  0
SCALE
  5
243
102
{ACAD_REACTORS
330
241
102
}
330
241
100
AcDbScale
 70
     0
300
1:2
140
1.0
141
2.0
290
     0
  0
SCALE
  5
244
102
{ACAD_REACTORS
330
241
102
}
330
241
100
AcDbScale
 70
     0
300
1:4
140
1.0
141
4.0
290
     0
  0
SCALE
  5
245
102
{ACAD_REACTORS
330
241
102
}
330
241
100
AcDbScale
 70
     0
300
1:5
140
1.0
141
5.0
290
     0
  0
SCALE
  5
246
102
{ACAD_REACTORS
330
241
102
}
330
241
100
AcDbScale
 70
     0
300
1:8
140
1.0
141
8.0
290
     0
  0
SCALE
  5
247
102
{ACAD_REACTORS
330
241
102
}
330
241
100
AcDbScale
 70
     0
300
1:10
140
1.0
141
10.0
290
     0
  0
SCALE
  5
248
102
{ACAD_REACTORS
330
241
102
}
330
241
100
AcDbScale
 70
     0
300
1:16
140
1.0
141
16.0
290
     0
  0
SCALE
  5
249
102
{ACAD_REACTORS
330
241
102
}
330
241
100
AcDbScale
 70
     0
300
1:20
140
1.0
141
20.0
290
     0
  0
SCALE
  5
24A
102
{ACAD_REACTORS
330
241
102
}
330
241
100
AcDbScale
 70
     0
300
1:30
140
1.0
141
30.0
290
     0
  0
SCALE
  5
24B
102
{ACAD_REACTORS
330
241
102
}
330
241
100
AcDbScale
 70
     0
300
1:40
140
1.0
141
40.0
290
     0
  0
SCALE
  5
24C
102
{ACAD_REACTORS
330
241
102
}
330
241
100
AcDbScale
 70
     0
300
1:50
140
1.0
141
50.0
290
     0
  0
SCALE
  5
24D
102
{ACAD_REACTORS
330
241
102
}
330
241
100
AcDbScale
 70
     0
300
1:100
140
1.0
141
100.0
290
     0
  0
SCALE
  5
24E
102
{ACAD_REACTORS
330
241
102
}
330
241
100
AcDbScale
 70
     0
300
2:1
140
2.0
141
1.0
290
     0
  0
SCALE
  5
24F
102
{ACAD_REACTORS
330
241
102
}
330
241
100
AcDbScale
 70
     0
300
4:1
140
4.0
141
1.0
290
     0
  0
SCALE
  5
250
102
{ACAD_REACTORS
330
241
102
}
330
241
100
AcDbScale
 70
     0
300
8:1
140
8.0
141
1.0
290
     0
  0
SCALE
  5
251
102
{ACAD_REACTORS
330
241
102
}
330
241
100
AcDbScale
 70
     0
300
10:1
140
10.0
141
1.0
290
     0
  0
SCALE
  5
252
102
{ACAD_REACTORS
330
241
102
}
330
241
100
AcDbScale
 70
     0
300
100:1
140
100.0
141
1.0
290
     0
  0
SCALE
  5
253
102
{ACAD_REACTORS
330
241
102
}
330
241
100
AcDbScale
 70
     0
300
1/128" = 1'-0"
140
0.0078125
141
12.0
290
     0
  0
SCALE
  5
254
102
{ACAD_REACTORS
330
241
102
}
330
241
100
AcDbScale
 70
     0
300
1/64" = 1'-0"
140
0.015625
141
12.0
290
     0
  0
SCALE
  5
255
102
{ACAD_REACTORS
330
241
102
}
330
241
100
AcDbScale
 70
     0
300
1/32" = 1'-0"
140
0.03125
141
12.0
290
     0
  0
SCALE
  5
256
102
{ACAD_REACTORS
330
241
102
}
330
241
100
AcDbScale
 70
     0
300
1/16" = 1'-0"
140
0.0625
141
12.0
290
     0
  0
SCALE
  5
257
102
{ACAD_REACTORS
330
241
102
}
330
241
100
AcDbScale
 70
     0
300
3/32" = 1'-0"
140
0.09375
141
12.0
290
     0
  0
SCALE
  5
258
102
{ACAD_REACTORS
330
241
102
}
330
241
100
AcDbScale
 70
     0
300
1/8" = 1'-0"
140
0.125
141
12.0
290
     0
  0
SCALE
  5
259
102
{ACAD_REACTORS
330
241
102
}
330
241
100
AcDbScale
 70
     0
300
3/16" = 1'-0"
140
0.1875
141
12.0
290
     0
  0
SCALE
  5
25A
102
{ACAD_REACTORS
330
241
102
}
330
241
100
AcDbScale
 70
     0
300
1/4" = 1'-0"
140
0.25
141
12.0
290
     0
  0
SCALE
  5
25B
102
{ACAD_REACTORS
330
241
102
}
330
241
100
AcDbScale
 70
     0
300
3/8" = 1'-0"
140
0.375
141
12.0
290
     0
  0
SCALE
  5
25C
102
{ACAD_REACTORS
330
241
102
}
330
241
100
AcDbScale
 70
     0
300
1/2" = 1'-0"
140
0.5
141
12.0
290
     0
  0
SCALE
  5
25D
102
{ACAD_REACTORS
330
241
102
}
330
241
100
AcDbScale
 70
     0
300
3/4" = 1'-0"
140
0.75
141
12.0
290
     0
  0
SCALE
  5
25E
102
{ACAD_REACTORS
330
241
102
}
330
241
100
AcDbScale
 70
     0
300
1" = 1'-0"
140
1.0
141
12.0
290
     0
  0
SCALE
  5
25F
102
{ACAD_REACTORS
330
241
102
}
330
241
100
AcDbScale
 70
     0
300
1-1/2" = 1'-0"
140
1.5
141
12.0
290
     0
  0
SCALE
  5
260
102
{ACAD_REACTORS
330
241
102
}
330
241
100
AcDbScale
 70
     0
300
3" = 1'-0"
140
3.0
141
12.0
290
     0
  0
SCALE
  5
261
102
{ACAD_REACTORS
330
241
102
}
330
241
100
AcDbScale
 70
     0
300
6" = 1'-0"
140
6.0
141
12.0
290
     0
  0
SCALE
  5
262
102
{ACAD_REACTORS
330
241
102
}
330
241
100
AcDbScale
 70
     0
300
1'-0" = 1'-0"
140
12.0
141
12.0
290
     0
  0
TABLESTYLE
  5
279
102
{ACAD_REACTORS
330
278
102
}
102
{ACAD_XDICTIONARY
360
1390
102
}
330
278
100
AcDbTableStyle
  3
Standard
 70
     0
 71
     0
 40
0.06
 41
0.06
280
     0
281
     0
  7
Standard
140
4.5
170
     2
 62
     0
 63
   257
283
     0
 90
        4
 91
        0
  1

274
    -2
284
     1
 64
     0
275
    -2
285
     1
 65
     0
276
    -2
286
     1
 66
     0
277
    -2
287
     1
 67
     0
278
    -2
288
     1
 68
     0
279
    -2
289
     1
 69
     0
  7
Standard
140
6.0
170
     5
 62
     0
 63
   257
283
     0
 90
        4
 91
        0
  1

274
    -2
284
     1
 64
     0
275
    -2
285
     1
 65
     0
276
    -2
286
     1
 66
     0
277
    -2
287
     1
 67
     0
278
    -2
288
     1
 68
     0
279
    -2
289
     1
 69
     0
  7
Standard
140
4.5
170
     5
 62
     0
 63
   257
283
     0
 90
        4
 91
        0
  1

274
    -2
284
     1
 64
     0
275
    -2
285
     1
 65
     0
276
    -2
286
     1
 66
     0
277
    -2
287
     1
 67
     0
278
    -2
288
     1
 68
     0
279
    -2
289
     1
 69
     0
  0
VISUALSTYLE
  5
26C
102
{ACAD_REACTORS
330
267
102
}
330
267
100
AcDbVisualStyle
  2
2dWireframe
 70
     4
 71
     0
 72
     2
 73
     0
 90
        0
 40
-0.6
 41
-30.0
 62
     5
 63
     7
421
 16777215
 74
     1
 91
        4
 64
     7
 65
   257
 75
     1
175
     1
 42
1.0
 92
        0
 66
   257
 43
1.0
 76
     1
 77
     6
 78
     2
 67
     7
 79
     5
170
     0
171
     0
290
     0
174
     0
 93
        1
 44
0.0
173
     0
291
     0
 45
0.0
  0
VISUALSTYLE
  5
26E
102
{ACAD_REACTORS
330
267
102
}
330
267
100
AcDbVisualStyle
  2
3D Hidden
 70
     6
 71
     1
 72
     2
 73
     2
 90
        0
 40
-0.6
 41
-30.0
 62
     5
 63
     7
421
 16777215
 74
     2
 91
        2
 64
     7
 65
   257
 75
     2
175
     1
 42
40.0
 92
        0
 66
   257
 43
1.0
 76
     1
 77
     6
 78
     2
 67
     7
 79
     3
170
     0
171
     0
290
     0
174
     0
 93
        1
 44
0.0
173
     0
291
     0
 45
0.0
  0
VISUALSTYLE
  5
26D
102
{ACAD_REACTORS
330
267
102
}
330
267
100
AcDbVisualStyle
  2
3dWireframe
 70
     5
 71
     0
 72
     2
 73
     0
 90
        0
 40
-0.6
 41
-30.0
 62
     5
 63
     7
421
 16777215
 74
     1
 91
        4
 64
     7
 65
   257
 75
     1
175
     1
 42
1.0
 92
        0
 66
   257
 43
1.0
 76
     1
 77
     6
 78
     2
 67
     7
 79
     5
170
     0
171
     0
290
     0
174
     0
 93
        1
 44
0.0
173
     0
291
     0
 45
0.0
  0
VISUALSTYLE
  5
26F
102
{ACAD_REACTORS
330
267
102
}
330
267
100
AcDbVisualStyle
  2
Basic
 70
     7
 71
     1
 72
     0
 73
     1
 90
        0
 40
-0.6
 41
-30.0
 62
     5
 63
     7
421
 16777215
 74
     0
 91
        4
 64
     7
 65
   257
 75
     1
175
     1
 42
1.0
 92
        8
 66
     7
 43
1.0
 76
     1
 77
     6
 78
     2
 67
     7
 79
     5
170
     0
171
     0
290
     0
174
     0
 93
        1
 44
0.0
173
     0
291
     1
 45
0.0
  0
VISUALSTYLE
  5
273
102
{ACAD_REACTORS
330
267
102
}
330
267
100
AcDbVisualStyle
  2
Brighten
 70
    12
 71
     2
 72
     2
 73
     0
 90
        0
 40
-0.6
 41
-30.0
 62
     5
 63
     7
421
 16777215
 74
     1
 91
        4
 64
     7
 65
   257
 75
     1
175
     1
 42
1.0
 92
        8
 66
     7
 43
1.0
 76
     1
 77
     6
 78
     2
 67
     7
 79
     5
170
     0
171
     0
290
     0
174
     0
 93
        1
 44
50.0
173
     0
291
     1
 45
0.0
  0
VISUALSTYLE
  5
277
102
{ACAD_REACTORS
330
267
102
}
330
267
100
AcDbVisualStyle
  2
ColorChange
 70
    16
 71
     2
 72
     2
 73
     3
 90
        0
 40
-0.6
 41
-30.0
 62
     5
 63
     8
421
  8421504
 74
     1
 91
        4
 64
     7
 65
   257
 75
     1
175
     1
 42
1.0
 92
        8
 66
     8
424
  8421504
 43
1.0
 76
     1
 77
     6
 78
     2
 67
     7
 79
     5
170
     0
171
     0
290
     0
174
     0
 93
        1
 44
0.0
173
     0
291
     1
 45
0.0
  0
VISUALSTYLE
  5
271
102
{ACAD_REACTORS
330
267
102
}
330
267
100
AcDbVisualStyle
  2
Conceptual
 70
     9
 71
     3
 72
     2
 73
     0
 90
        0
 40
-0.6
 41
-30.0
 62
     5
 63
     7
421
 16777215
 74
     2
 91
        2
 64
     7
 65
   257
 75
     1
175
     1
 42
40.0
 92
        8
 66
     7
 43
1.0
 76
     1
 77
     6
 78
     2
 67
     7
 79
     3
170
     0
171
     0
290
     0
174
     0
 93
        1
 44
0.0
173
     0
291
     0
 45
0.0
  0
VISUALSTYLE
  5
272
102
{ACAD_REACTORS
330
267
102
}
330
267
100
AcDbVisualStyle
  2
Dim
 70
    11
 71
     2
 72
     2
 73
     0
 90
        0
 40
-0.6
 41
-30.0
 62
     5
 63
     7
421
 16777215
 74
     1
 91
        4
 64
     7
 65
   257
 75
     1
175
     1
 42
1.0
 92
        8
 66
     7
 43
1.0
 76
     1
 77
     6
 78
     2
 67
     7
 79
     5
170
     0
171
     0
290
     0
174
     0
 93
        1
 44
-50.0
173
     0
291
     1
 45
0.0
  0
VISUALSTYLE
  5
8FE
102
{ACAD_REACTORS
330
267
102
}
330
267
100
AcDbVisualStyle
  2
EdgeColorOff
 70
    22
 71
     2
 72
     2
 73
     0
 90
        0
 40
0.6
 41
30.0
 62
     5
 63
     7
421
 16777215
 74
     1
 91
        4
 64
     7
 65
   257
 75
     1
175
     1
 42
1.0
 92
        8
 66
     7
 43
1.0
 76
     1
 77
     6
 78
     2
 67
     7
 79
     5
170
     0
171
     0
290
     0
174
     0
 93
        1
 44
0.0
173
     0
291
     1
 45
0.0
  0
VISUALSTYLE
  5
276
102
{ACAD_REACTORS
330
267
102
}
330
267
100
AcDbVisualStyle
  2
Facepattern
 70
    15
 71
     2
 72
     2
 73
     0
 90
        0
 40
-0.6
 41
-30.0
 62
     5
 63
     7
421
 16777215
 74
     1
 91
        4
 64
     7
 65
   257
 75
     1
175
     1
 42
1.0
 92
        8
 66
     7
 43
1.0
 76
     1
 77
     6
 78
     2
 67
     7
 79
     5
170
     0
171
     0
290
     0
174
     0
 93
        1
 44
0.0
173
     0
291
     1
 45
0.0
  0
VISUALSTYLE
  5
268
102
{ACAD_REACTORS
330
267
102
}
330
267
100
AcDbVisualStyle
  2
Flat
 70
     0
 71
     2
 72
     1
 73
     1
 90
        2
 40
-0.6
 41
30.0
 62
     5
 63
     7
421
 16777215
 74
     0
 91
        4
 64
     7
 65
   257
 75
     1
175
     1
 42
1.0
 92
        8
 66
     7
 43
1.0
 76
     1
 77
     6
 78
     2
 67
     7
 79
     5
170
     0
171
     0
290
     0
174
     0
 93
       13
 44
0.0
173
     0
291
     1
 45
0.0
  0
VISUALSTYLE
  5
269
102
{ACAD_REACTORS
330
267
102
}
330
267
100
AcDbVisualStyle
  2
FlatWithEdges
 70
     1
 71
     2
 72
     1
 73
     1
 90
        2
 40
-0.6
 41
30.0
 62
     5
 63
     7
421
 16777215
 74
     1
 91
        4
 64
     7
 65
   257
 75
     1
175
     1
 42
1.0
 92
        0
 66
   257
 43
1.0
 76
     1
 77
     6
 78
     2
 67
     7
 79
     5
170
     0
171
     0
290
     0
174
     0
 93
       13
 44
0.0
173
     0
291
     1
 45
0.0
  0
VISUALSTYLE
  5
26A
102
{ACAD_REACTORS
330
267
102
}
330
267
100
AcDbVisualStyle
  2
Gouraud
 70
     2
 71
     2
 72
     2
 73
     1
 90
        2
 40
-0.6
 41
30.0
 62
     5
 63
     7
421
 16777215
 74
     0
 91
        4
 64
     7
 65
   257
 75
     1
175
     1
 42
1.0
 92
        0
 66
     7
 43
1.0
 76
     1
 77
     6
 78
     2
 67
     7
 79
     5
170
     0
171
     0
290
     0
174
     0
 93
       13
 44
0.0
173
     0
291
     1
 45
0.0
  0
VISUALSTYLE
  5
26B
102
{ACAD_REACTORS
330
267
102
}
330
267
100
AcDbVisualStyle
  2
GouraudWithEdges
 70
     3
 71
     2
 72
     2
 73
     1
 90
        2
 40
-0.6
 41
30.0
 62
     5
 63
     7
421
 16777215
 74
     1
 91
        4
 64
     7
 65
   257
 75
     1
175
     1
 42
1.0
 92
        0
 66
   257
 43
1.0
 76
     1
 77
     6
 78
     2
 67
     7
 79
     5
170
     0
171
     0
290
     0
174
     0
 93
       13
 44
0.0
173
     0
291
     1
 45
0.0
  0
VISUALSTYLE
  5
8FB
102
{ACAD_REACTORS
330
267
102
}
330
267
100
AcDbVisualStyle
  2
Hidden
 70
     6
 71
     1
 72
     2
 73
     2
 90
        0
 40
0.6
 41
30.0
 62
     5
 63
     7
421
 16777215
 74
     2
 91
        2
 64
     7
 65
   257
 75
     2
175
     1
 42
40.0
 92
        0
 66
   257
 43
1.0
 76
     1
 77
     6
 78
     2
 67
     7
 79
     3
170
     0
171
     0
290
     0
174
     0
 93
        1
 44
0.0
173
     0
291
     0
 45
0.0
  0
VISUALSTYLE
  5
8FC
102
{ACAD_REACTORS
330
267
102
}
330
267
100
AcDbVisualStyle
  2
JitterOff
 70
    20
 71
     2
 72
     2
 73
     0
 90
        0
 40
0.6
 41
30.0
 62
     5
 63
     7
421
 16777215
 74
     1
 91
        4
 64
     7
 65
   257
 75
     1
175
     1
 42
1.0
 92
       10
 66
     7
 43
1.0
 76
     1
 77
     6
 78
     2
 67
     7
 79
     5
170
     0
171
     0
290
     0
174
     0
 93
        1
 44
0.0
173
     0
291
     1
 45
0.0
  0
VISUALSTYLE
  5
275
102
{ACAD_REACTORS
330
267
102
}
330
267
100
AcDbVisualStyle
  2
Linepattern
 70
    14
 71
     2
 72
     2
 73
     0
 90
        0
 40
-0.6
 41
-30.0
 62
     5
 63
     7
421
 16777215
 74
     1
 91
        4
 64
     7
 65
   257
 75
     7
175
     7
 42
1.0
 92
        8
 66
     7
 43
1.0
 76
     1
 77
     6
 78
     2
 67
     7
 79
     5
170
     0
171
     0
290
     0
174
     0
 93
        1
 44
0.0
173
     0
291
     1
 45
0.0
  0
VISUALSTYLE
  5
8FD
102
{ACAD_REACTORS
330
267
102
}
330
267
100
AcDbVisualStyle
  2
OverhangOff
 70
    21
 71
     2
 72
     2
 73
     0
 90
        0
 40
0.6
 41
30.0
 62
     5
 63
     7
421
 16777215
 74
     1
 91
        4
 64
     7
 65
   257
 75
     1
175
     1
 42
1.0
 92
        9
 66
     7
 43
1.0
 76
     1
 77
     6
 78
     2
 67
     7
 79
     5
170
     0
171
     0
290
     0
174
     0
 93
        1
 44
0.0
173
     0
291
     1
 45
0.0
  0
VISUALSTYLE
  5
270
102
{ACAD_REACTORS
330
267
102
}
330
267
100
AcDbVisualStyle
  2
Realistic
 70
     8
 71
     2
 72
     2
 73
     0
 90
        0
 40
-0.6
 41
-30.0
 62
     5
 63
     7
421
 16777215
 74
     1
 91
        0
 64
     7
 65
   257
 75
     1
175
     1
 42
1.0
 92
        8
 66
     8
424
  7895160
 43
1.0
 76
     1
 77
     6
 78
     2
 67
     7
 79
     5
170
     0
171
     0
290
     0
174
     0
 93
       13
 44
0.0
173
     0
291
     0
 45
0.0
  0
VISUALSTYLE
  5
903
102
{ACAD_REACTORS
330
267
102
}
330
267
100
AcDbVisualStyle
  2
Shaded
 70
    27
 71
     2
 72
     2
 73
     1
 90
        2
 40
0.6
 41
30.0
 62
     5
 63
     7
421
 16777215
 74
     0
 91
        4
 64
     7
 65
   257
 75
     1
175
     1
 42
1.0
 92
        8
 66
   257
 43
1.0
 76
     1
 77
     6
 78
     2
 67
     8
425
  7895160
 79
     3
170
     0
171
     0
290
     0
174
     0
 93
        5
 44
0.0
173
     0
291
     0
 45
0.0
  0
VISUALSTYLE
  5
902
102
{ACAD_REACTORS
330
267
102
}
330
267
100
AcDbVisualStyle
  2
Shaded with edges
 70
    26
 71
     2
 72
     2
 73
     1
 90
        2
 40
0.6
 41
30.0
 62
     5
 63
     7
421
 16777215
 74
     1
 91
       10
 64
     7
 65
   257
 75
     2
175
     1
 42
1.0
 92
        8
 66
   257
 43
1.0
 76
     1
 77
     6
 78
     2
 67
     7
 79
     3
170
     0
171
     0
290
     0
174
     0
 93
        5
 44
0.0
173
     0
291
     0
 45
0.0
  0
VISUALSTYLE
  5
8FF
102
{ACAD_REACTORS
330
267
102
}
330
267
100
AcDbVisualStyle
  2
Shades of Gray
 70
    23
 71
     2
 72
     2
 73
     3
 90
        0
 40
0.6
 41
30.0
 62
     5
 63
     7
421
 16777215
 74
     2
 91
        2
 64
     7
 65
     7
 75
     1
175
     1
 42
40.0
 92
        8
 66
     7
 43
1.0
 76
     1
 77
     6
 78
     2
 67
     7
 79
     3
170
     0
171
     0
290
     0
174
     0
 93
        1
 44
0.0
173
     0
291
     0
 45
0.0
  0
VISUALSTYLE
  5
900
102
{ACAD_REACTORS
330
267
102
}
330
267
100
AcDbVisualStyle
  2
Sketchy
 70
    24
 71
     1
 72
     2
 73
     2
 90
        0
 40
0.6
 41
30.0
 62
     5
 63
     7
421
 16777215
 74
     2
 91
        2
 64
     7
 65
     7
 75
     1
175
     1
 42
40.0
 92
       11
 66
     7
 43
1.0
 76
     1
 77
     6
 78
     2
 67
     7
 79
     6
170
     0
171
     0
290
     0
174
     0
 93
        1
 44
0.0
173
     0
291
     0
 45
0.0
  0
VISUALSTYLE
  5
274
102
{ACAD_REACTORS
330
267
102
}
330
267
100
AcDbVisualStyle
  2
Thicken
 70
    13
 71
     2
 72
     2
 73
     0
 90
        0
 40
-0.6
 41
-30.0
 62
     5
 63
     7
421
 16777215
 74
     1
 91
        4
 64
     7
 65
   257
 75
     1
175
     1
 42
1.0
 92
       12
 66
     7
 43
1.0
 76
     1
 77
     6
 78
     2
 67
     7
 79
     5
170
     0
171
     0
290
     0
174
     0
 93
        1
 44
0.0
173
     0
291
     1
 45
0.0
  0
VISUALSTYLE
  5
8FA
102
{ACAD_REACTORS
330
267
102
}
330
267
100
AcDbVisualStyle
  2
Wireframe
 70
     5
 71
     0
 72
     2
 73
     0
 90
        0
 40
0.6
 41
30.0
 62
     5
 63
     7
421
 16777215
 74
     1
 91
        4
 64
     7
 65
   257
 75
     1
175
     1
 42
1.0
 92
        0
 66
   257
 43
1.0
 76
     1
 77
     6
 78
     2
 67
     7
 79
     3
170
     0
171
     0
290
     0
174
     0
 93
        1
 44
0.0
173
     0
291
     0
 45
0.0
  0
VISUALSTYLE
  5
901
102
{ACAD_REACTORS
330
267
102
}
330
267
100
AcDbVisualStyle
  2
X-Ray
 70
    25
 71
     2
 72
     2
 73
     1
 90
        1
 40
0.5
 41
30.0
 62
     5
 63
     7
421
 16777215
 74
     1
 91
        0
 64
     7
 65
   257
 75
     1
175
     1
 42
1.0
 92
        8
 66
     7
 43
1.0
 76
     1
 77
     6
 78
     2
 67
     7
 79
     3
170
     0
171
     0
290
     0
174
     0
 93
       13
 44
0.0
173
     0
291
     0
 45
0.0
  0
DICTIONARYVAR
  5
331
102
{ACAD_REACTORS
330
330
102
}
330
330
100
DictionaryVariables
280
     0
  1
1:1
  0
DICTIONARYVAR
  5
335
102
{ACAD_REACTORS
330
330
102
}
330
330
100
DictionaryVariables
280
     0
  1
Standard
  0
DICTIONARYVAR
  5
D6B
102
{ACAD_REACTORS
330
330
102
}
330
330
100
DictionaryVariables
280
     0
  1
ByLayer
  0
DICTIONARYVAR
  5
896
102
{ACAD_REACTORS
330
330
102
}
330
330
100
DictionaryVariables
280
     0
  1
0
  0
XRECORD
  5
88B
102
{ACAD_REACTORS
330
2E2
102
}
330
2E2
100
AcDbXrecord
280
     1
 91
     1023
301

290
     0
302
MODEL
330
14
 90
        8
 62
     7
370
    -3
331
13
  1
Color_7
330
0
 90
        0
 62
     7
370
    -3
331
13
  1
Color_7
330
4B
 90
        8
 62
     7
370
    -3
331
13
  1
Color_7
330
4C
 90
        8
 62
     7
370
    -3
331
13
  1
Color_7
330
4D
 90
        8
 62
     7
370
    -3
331
13
  1
Color_7
330
0
 90
        9
 62
     1
370
    -3
331
13
  1
Color_1
330
0
 90
        8
 62
     4
370
    -3
331
13
  1
Color_4
330
667
 90
        8
 62
     7
370
    -3
331
13
  1
Color_7
330
0
 90
        9
 62
     1
370
    -3
331
13
  1
Color_1
  0
XRECORD
  5
88F
102
{ACAD_REACTORS
330
2E2
102
}
330
2E2
100
AcDbXrecord
280
     1
 91
     1023
301

290
     0
302
MODEL
330
14
 90
        8
 62
     7
370
    -3
331
13
  1
Color_7
330
0
 90
        0
 62
     7
370
    -3
331
13
  1
Color_7
330
4B
 90
        8
 62
     7
370
     0
331
13
  1
Color_7
330
4C
 90
        8
 62
     7
370
     9
331
13
  1
Color_7
330
4D
 90
        8
 62
     7
370
    -3
331
13
  1
Color_7
330
667
 90
        8
 62
     7
370
    -3
331
13
  1
Color_7
330
88C
 90
        8
 62
     7
370
     9
331
45
  1
Color_7
  0
XRECORD
  5
892
102
{ACAD_REACTORS
330
2E2
102
}
330
2E2
100
AcDbXrecord
280
     1
 91
     1023
301

290
     0
302
MODEL
330
14
 90
        8
 62
     7
370
    -3
331
13
  1
Color_7
330
0
 90
        0
 62
     7
370
    -3
331
13
  1
Color_7
330
4B
 90
        8
 62
     7
370
     0
331
13
  1
Color_7
330
4C
 90
        8
 62
     7
370
     9
331
13
  1
Color_7
330
4D
 90
        8
 62
     7
370
    -3
331
13
  1
Color_7
330
667
 90
        8
 62
     3
370
    -3
331
13
  1
Color_3
330
88C
 90
        8
 62
     7
370
     9
331
45
  1
Color_7
  0
XRECORD
  5
8F6
102
{ACAD_REACTORS
330
2E2
102
}
330
2E2
100
AcDbXrecord
280
     1
 91
     1023
301

290
     0
302
MODEL
330
14
 90
        8
 62
     7
370
    -3
331
13
  1
Color_7
330
0
 90
        0
 62
     7
370
    -3
331
13
  1
Color_7
330
4B
 90
        8
 62
     7
370
     0
331
13
  1
Color_7
330
4C
 90
        8
 62
     7
370
     9
331
13
  1
Color_7
330
4D
 90
        8
 62
     7
370
    -3
331
13
  1
Color_7
330
667
 90
        8
 62
     7
370
    -3
331
13
  1
Color_7
330
88C
 90
        8
 62
     7
370
     9
331
45
  1
Color_7
  0
XRECORD
  5
BC1
102
{ACAD_REACTORS
330
2E2
102
}
330
2E2
100
AcDbXrecord
280
     1
 91
     1023
301

290
     0
302
MODEL
330
14
 90
        8
 62
     7
370
    -3
331
13
  1
Color_7
330
0
 90
        0
 62
     7
370
    -3
331
13
  1
Color_7
330
4B
 90
        8
 62
     7
370
     0
331
13
  1
Color_7
330
4C
 90
        8
 62
     7
370
     9
331
13
  1
Color_7
330
4D
 90
        8
 62
     7
370
    -3
331
13
  1
Color_7
330
667
 90
        8
 62
     7
370
    -3
331
13
  1
Color_7
330
88C
 90
        8
 62
     7
370
     9
331
45
  1
Color_7
330
0
 90
        8
 62
     7
370
    -3
331
13
  1
Color_7
  0
XRECORD
  5
C9E
102
{ACAD_REACTORS
330
2E2
102
}
330
2E2
100
AcDbXrecord
280
     1
 91
     1023
301

290
     0
302
DIM
330
14
 90
        8
 62
     7
370
    -3
331
13
  1
Color_7
330
0
 90
        0
 62
     7
370
    -3
331
13
  1
Color_7
330
4B
 90
        8
 62
     7
370
     0
331
13
  1
Color_7
330
4C
 90
        8
 62
     7
370
     9
331
13
  1
Color_7
330
4D
 90
        8
 62
     7
370
    -3
331
13
  1
Color_7
330
667
 90
        8
 62
     7
370
    -3
331
13
  1
Color_7
330
88C
 90
        8
 62
     7
370
     9
331
45
  1
Color_7
330
0
 90
        8
 62
     7
370
    -3
331
13
  1
Color_7
  0
XRECORD
  5
C9F
102
{ACAD_REACTORS
330
2E2
102
}
330
2E2
100
AcDbXrecord
280
     1
 91
     1023
301

290
     0
302
MODEL
330
14
 90
        8
 62
     7
370
    -3
331
13
  1
Color_7
330
0
 90
        0
 62
     7
370
    -3
331
13
  1
Color_7
330
4B
 90
        8
 62
     7
370
     0
331
13
  1
Color_7
330
4C
 90
        8
 62
     7
370
     9
331
13
  1
Color_7
330
4D
 90
        8
 62
     7
370
    -3
331
13
  1
Color_7
330
667
 90
        8
 62
     7
370
    -3
331
13
  1
Color_7
330
88C
 90
        8
 62
     7
370
     9
331
45
  1
Color_7
330
0
 90
        8
 62
     7
370
    -3
331
13
  1
Color_7
  0
XRECORD
  5
7AA
102
{ACAD_REACTORS
330
2E2
102
}
330
2E2
100
AcDbXrecord
280
     1
 91
     1023
301

290
     0
302
MODEL
330
14
 90
        8
 62
     7
370
    -3
331
13
  1
Color_7
330
0
 90
        0
 62
     7
370
    -3
331
13
  1
Color_7
330
4B
 90
        8
 62
     7
370
     0
331
13
  1
Color_7
330
4C
 90
        8
 62
     7
370
     9
331
13
  1
Color_7
330
4D
 90
        8
 62
     7
370
    -3
331
13
  1
Color_7
330
667
 90
        8
 62
     7
370
    -3
331
13
  1
Color_7
330
88C
 90
        8
 62
     7
370
     9
331
45
  1
Color_7
330
0
 90
        8
 62
     7
370
    -3
331
13
  1
Color_7
  0
DICTIONARY
  5
1390
330
279
100
AcDbDictionary
280
     1
281
     1
  3
ACAD_ROUNDTRIP_2008_TABLESTYLE_CELLSTYLEMAP
360
1391
  0
CELLSTYLEMAP
  5
1391
102
{ACAD_REACTORS
330
1390
102
}
330
1390
100
AcDbCellStyleMap
 90
        3
300
CELLSTYLE
  1
TABLEFORMAT_BEGIN
 90
        5
170
     1
 91
        0
 92
    32768
 62
   257
 93
        1
300
CONTENTFORMAT
  1
CONTENTFORMAT_BEGIN
 90
        0
 91
        0
 92
        4
 93
        0
300

 40
0.0
140
1.0
 94
        5
 62
     0
340
17
144
6.0
309
CONTENTFORMAT_END
171
     1
301
MARGIN
  1
CELLMARGIN_BEGIN
 40
0.06
 40
0.06
 40
0.06
 40
0.06
 40
0.18
 40
0.18
309
CELLMARGIN_END
 94
        6
 95
        1
302
GRIDFORMAT
  1
GRIDFORMAT_BEGIN
 90
        0
 91
        1
 62
     0
 92
       -2
340
0
 93
        0
 40
0.045
309
GRIDFORMAT_END
 95
        2
302
GRIDFORMAT
  1
GRIDFORMAT_BEGIN
 90
        0
 91
        1
 62
     0
 92
       -2
340
0
 93
        0
 40
0.045
309
GRIDFORMAT_END
 95
        4
302
GRIDFORMAT
  1
GRIDFORMAT_BEGIN
 90
        0
 91
        1
 62
     0
 92
       -2
340
0
 93
        0
 40
0.045
309
GRIDFORMAT_END
 95
        8
302
GRIDFORMAT
  1
GRIDFORMAT_BEGIN
 90
        0
 91
        1
 62
     0
 92
       -2
340
0
 93
        0
 40
0.045
309
GRIDFORMAT_END
 95
       16
302
GRIDFORMAT
  1
GRIDFORMAT_BEGIN
 90
        0
 91
        1
 62
     0
 92
       -2
340
0
 93
        0
 40
0.045
309
GRIDFORMAT_END
 95
       32
302
GRIDFORMAT
  1
GRIDFORMAT_BEGIN
 90
        0
 91
        1
 62
     0
 92
       -2
340
0
 93
        0
 40
0.045
309
GRIDFORMAT_END
309
TABLEFORMAT_END
  1
CELLSTYLE_BEGIN
 90
        1
 91
        1
300
_TITLE
309
CELLSTYLE_END
300
CELLSTYLE
  1
TABLEFORMAT_BEGIN
 90
        5
170
     1
 91
        0
 92
        0
 62
   257
 93
        1
300
CONTENTFORMAT
  1
CONTENTFORMAT_BEGIN
 90
        0
 91
        0
 92
        4
 93
        0
300

 40
0.0
140
1.0
 94
        5
 62
     0
340
17
144
4.5
309
CONTENTFORMAT_END
171
     1
301
MARGIN
  1
CELLMARGIN_BEGIN
 40
0.06
 40
0.06
 40
0.06
 40
0.06
 40
0.18
 40
0.18
309
CELLMARGIN_END
 94
        6
 95
        1
302
GRIDFORMAT
  1
GRIDFORMAT_BEGIN
 90
        0
 91
        1
 62
     0
 92
       -2
340
0
 93
        0
 40
0.045
309
GRIDFORMAT_END
 95
        2
302
GRIDFORMAT
  1
GRIDFORMAT_BEGIN
 90
        0
 91
        1
 62
     0
 92
       -2
340
0
 93
        0
 40
0.045
309
GRIDFORMAT_END
 95
        4
302
GRIDFORMAT
  1
GRIDFORMAT_BEGIN
 90
        0
 91
        1
 62
     0
 92
       -2
340
0
 93
        0
 40
0.045
309
GRIDFORMAT_END
 95
        8
302
GRIDFORMAT
  1
GRIDFORMAT_BEGIN
 90
        0
 91
        1
 62
     0
 92
       -2
340
0
 93
        0
 40
0.045
309
GRIDFORMAT_END
 95
       16
302
GRIDFORMAT
  1
GRIDFORMAT_BEGIN
 90
        0
 91
        1
 62
     0
 92
       -2
340
0
 93
        0
 40
0.045
309
GRIDFORMAT_END
 95
       32
302
GRIDFORMAT
  1
GRIDFORMAT_BEGIN
 90
        0
 91
        1
 62
     0
 92
       -2
340
0
 93
        0
 40
0.045
309
GRIDFORMAT_END
309
TABLEFORMAT_END
  1
CELLSTYLE_BEGIN
 90
        2
 91
        1
300
_HEADER
309
CELLSTYLE_END
300
CELLSTYLE
  1
TABLEFORMAT_BEGIN
 90
        5
170
     1
 91
        0
 92
        0
 62
   257
 93
        1
300
CONTENTFORMAT
  1
CONTENTFORMAT_BEGIN
 90
        0
 91
        0
 92
        4
 93
        0
300

 40
0.0
140
1.0
 94
        2
 62
     0
340
17
144
4.5
309
CONTENTFORMAT_END
171
     1
301
MARGIN
  1
CELLMARGIN_BEGIN
 40
0.06
 40
0.06
 40
0.06
 40
0.06
 40
0.18
 40
0.18
309
CELLMARGIN_END
 94
        6
 95
        1
302
GRIDFORMAT
  1
GRIDFORMAT_BEGIN
 90
        0
 91
        1
 62
     0
 92
       -2
340
0
 93
        0
 40
0.045
309
GRIDFORMAT_END
 95
        2
302
GRIDFORMAT
  1
GRIDFORMAT_BEGIN
 90
        0
 91
        1
 62
     0
 92
       -2
340
0
 93
        0
 40
0.045
309
GRIDFORMAT_END
 95
        4
302
GRIDFORMAT
  1
GRIDFORMAT_BEGIN
 90
        0
 91
        1
 62
     0
 92
       -2
340
0
 93
        0
 40
0.045
309
GRIDFORMAT_END
 95
        8
302
GRIDFORMAT
  1
GRIDFORMAT_BEGIN
 90
        0
 91
        1
 62
     0
 92
       -2
340
0
 93
        0
 40
0.045
309
GRIDFORMAT_END
 95
       16
302
GRIDFORMAT
  1
GRIDFORMAT_BEGIN
 90
        0
 91
        1
 62
     0
 92
       -2
340
0
 93
        0
 40
0.045
309
GRIDFORMAT_END
 95
       32
302
GRIDFORMAT
  1
GRIDFORMAT_BEGIN
 90
        0
 91
        1
 62
     0
 92
       -2
340
0
 93
        0
 40
0.045
309
GRIDFORMAT_END
309
TABLEFORMAT_END
  1
CELLSTYLE_BEGIN
 90
        3
 91
        2
300
_DATA
309
CELLSTYLE_END
  0
ENDSEC
  0
EOF
