  0
SECTION
  2
HEADER
  9
$ACADVER
  1
AC1021
  9
$ACADMAINTVER
 70
    25
  9
$DWGCODEPAGE
  3
ANSI_932
  9
$LASTSAVEDBY
  1
Shimosaki
  9
$INSBASE
 10
0.0
 20
0.0
 30
0.0
  9
$EXTMIN
 10
14.44042890944974
 20
12.75842966491423
 30
0.0
  9
$EXTMAX
 10
404.4404289095462
 20
579.4293347012853
 30
0.0
  9
$LIMMIN
 10
0.0
 20
0.0
  9
$LIMMAX
 10
420.0000000000001
 20
594.0000000000001
  9
$ORTHOMODE
 70
     0
  9
$REGENMODE
 70
     1
  9
$FILLMODE
 70
     1
  9
$QTEXTMODE
 70
     0
  9
$MIRRTEXT
 70
     1
  9
$LTSCALE
 40
50.8
  9
$ATTMODE
 70
     1
  9
$TEXTSIZE
 40
2.5
  9
$TRACEWID
 40
1.0
  9
$TEXTSTYLE
  7
ＭＳ ゴシック
  9
$CLAYER
  8
MODEL
  9
$CELTYPE
  6
ByLayer
  9
$CECOLOR
 62
   256
  9
$CELTSCALE
 40
1.0
  9
$DISPSILH
 70
     0
  9
$DIMSCALE
 40
1.0
  9
$DIMASZ
 40
2.0
  9
$DIMEXO
 40
5.0
  9
$DIMDLI
 40
0.0
  9
$DIMRND
 40
0.0
  9
$DIMDLE
 40
0.0
  9
$DIMEXE
 40
0.0
  9
$DIMTP
 40
0.0
  9
$DIMTM
 40
0.0
  9
$DIMTXT
 40
6.0
  9
$DIMCEN
 40
0.0
  9
$DIMTSZ
 40
0.0
  9
$DIMTOL
 70
     0
  9
$DIMLIM
 70
     0
  9
$DIMTIH
 70
     0
  9
$DIMTOH
 70
     0
  9
$DIMSE1
 70
     0
  9
$DIMSE2
 70
     0
  9
$DIMTAD
 70
     1
  9
$DIMZIN
 70
    11
  9
$DIMBLK
  1
DOT
  9
$DIMASO
 70
     1
  9
$DIMSHO
 70
     1
  9
$DIMPOST
  1
<>
  9
$DIMAPOST
  1
[]
  9
$DIMALT
 70
     0
  9
$DIMALTD
 70
     1
  9
$DIMALTF
 40
1.0
  9
$DIMLFAC
 40
1.0
  9
$DIMTOFL
 70
     0
  9
$DIMTVP
 40
0.0
  9
$DIMTIX
 70
     1
  9
$DIMSOXD
 70
     0
  9
$DIMSAH
 70
     0
  9
$DIMBLK1
  1

  9
$DIMBLK2
  1

  9
$DIMSTYLE
  2
tfrom線あり
  9
$DIMCLRD
 70
     0
  9
$DIMCLRE
 70
     0
  9
$DIMCLRT
 70
     0
  9
$DIMTFAC
 40
1.0
  9
$DIMGAP
 40
5.0
  9
$DIMJUST
 70
     0
  9
$DIMSD1
 70
     0
  9
$DIMSD2
 70
     0
  9
$DIMTOLJ
 70
     1
  9
$DIMTZIN
 70
    11
  9
$DIMALTZ
 70
    11
  9
$DIMALTTZ
 70
    11
  9
$DIMUPT
 70
     0
  9
$DIMDEC
 70
     0
  9
$DIMTDEC
 70
     1
  9
$DIMALTU
 70
     2
  9
$DIMALTTD
 70
     2
  9
$DIMTXSTY
  7
ＭＳ ゴシック
  9
$DIMAUNIT
 70
     0
  9
$DIMADEC
 70
     2
  9
$DIMALTRND
 40
0.0
  9
$DIMAZIN
 70
     0
  9
$DIMDSEP
 70
    46
  9
$DIMATFIT
 70
     0
  9
$DIMFRAC
 70
     2
  9
$DIMLDRBLK
  1
DOT
  9
$DIMLUNIT
 70
     2
  9
$DIMLWD
 70
    -2
  9
$DIMLWE
 70
    -2
  9
$DIMTMOVE
 70
     0
  9
$DIMFXL
 40
1.0
  9
$DIMFXLON
 70
     0
  9
$DIMJOGANG
 40
0.7853981633974483
  9
$DIMTFILL
 70
     0
  9
$DIMTFILLCLR
 70
     0
  9
$DIMARCSYM
 70
     0
  9
$DIMLTYPE
  6

  9
$DIMLTEX1
  6

  9
$DIMLTEX2
  6

  9
$LUNITS
 70
     2
  9
$LUPREC
 70
     0
  9
$SKETCHINC
 40
0.1
  9
$FILLETRAD
 40
0.0
  9
$AUNITS
 70
     0
  9
$AUPREC
 70
     0
  9
$MENU
  1
acad
  9
$ELEVATION
 40
0.0
  9
$PELEVATION
 40
0.0
  9
$THICKNESS
 40
0.0
  9
$LIMCHECK
 70
     0
  9
$CHAMFERA
 40
0.0
  9
$CHAMFERB
 40
0.0
  9
$CHAMFERC
 40
0.0
  9
$CHAMFERD
 40
0.0
  9
$SKPOLY
 70
     0
  9
$TDCREATE
 40
2447893.375
  9
$TDUCREATE
 40
0.0
  9
$TDUPDATE
 40
2457218.474578356
  9
$TDUUPDATE
 40
2457218.099578356
  9
$TDINDWG
 40
0.1187814583
  9
$TDUSRTIMER
 40
2457218.095913287
  9
$USRTIMER
 70
     1
  9
$ANGBASE
 50
0.0
  9
$ANGDIR
 70
     0
  9
$PDMODE
 70
     1
  9
$PDSIZE
 40
-2.0
  9
$PLINEWID
 40
0.0
  9
$SPLFRAME
 70
     0
  9
$SPLINETYPE
 70
     6
  9
$SPLINESEGS
 70
     8
  9
$HANDSEED
  5
194F
  9
$SURFTAB1
 70
     6
  9
$SURFTAB2
 70
     6
  9
$SURFTYPE
 70
     6
  9
$SURFU
 70
     6
  9
$SURFV
 70
     6
  9
$UCSBASE
  2

  9
$UCSNAME
  2

  9
$UCSORG
 10
0.0
 20
0.0
 30
0.0
  9
$UCSXDIR
 10
1.0
 20
0.0
 30
0.0
  9
$UCSYDIR
 10
0.0
 20
1.0
 30
0.0
  9
$UCSORTHOREF
  2

  9
$UCSORTHOVIEW
 70
     0
  9
$UCSORGTOP
 10
0.0
 20
0.0
 30
0.0
  9
$UCSORGBOTTOM
 10
0.0
 20
0.0
 30
0.0
  9
$UCSORGLEFT
 10
0.0
 20
0.0
 30
0.0
  9
$UCSORGRIGHT
 10
0.0
 20
0.0
 30
0.0
  9
$UCSORGFRONT
 10
0.0
 20
0.0
 30
0.0
  9
$UCSORGBACK
 10
0.0
 20
0.0
 30
0.0
  9
$PUCSBASE
  2

  9
$PUCSNAME
  2

  9
$PUCSORG
 10
0.0
 20
0.0
 30
0.0
  9
$PUCSXDIR
 10
1.0
 20
0.0
 30
0.0
  9
$PUCSYDIR
 10
0.0
 20
1.0
 30
0.0
  9
$PUCSORTHOREF
  2

  9
$PUCSORTHOVIEW
 70
     0
  9
$PUCSORGTOP
 10
0.0
 20
0.0
 30
0.0
  9
$PUCSORGBOTTOM
 10
0.0
 20
0.0
 30
0.0
  9
$PUCSORGLEFT
 10
0.0
 20
0.0
 30
0.0
  9
$PUCSORGRIGHT
 10
0.0
 20
0.0
 30
0.0
  9
$PUCSORGFRONT
 10
0.0
 20
0.0
 30
0.0
  9
$PUCSORGBACK
 10
0.0
 20
0.0
 30
0.0
  9
$USERI1
 70
     0
  9
$USERI2
 70
     0
  9
$USERI3
 70
     0
  9
$USERI4
 70
     0
  9
$USERI5
 70
     0
  9
$USERR1
 40
0.0
  9
$USERR2
 40
0.0
  9
$USERR3
 40
0.0
  9
$USERR4
 40
0.0
  9
$USERR5
 40
0.0
  9
$WORLDVIEW
 70
     1
  9
$SHADEDGE
 70
     3
  9
$SHADEDIF
 70
    70
  9
$TILEMODE
 70
     1
  9
$MAXACTVP
 70
    64
  9
$PINSBASE
 10
0.0
 20
0.0
 30
0.0
  9
$PLIMCHECK
 70
     0
  9
$PEXTMIN
 10
0.0
 20
0.0
 30
0.0
  9
$PEXTMAX
 10
0.0
 20
0.0
 30
0.0
  9
$PLIMMIN
 10
-7.5
 20
-20.0
  9
$PLIMMAX
 10
412.5
 20
277.0
  9
$UNITMODE
 70
     0
  9
$VISRETAIN
 70
     0
  9
$PLINEGEN
 70
     1
  9
$PSLTSCALE
 70
     0
  9
$TREEDEPTH
 70
  3020
  9
$CMLSTYLE
  2
Standard
  9
$CMLJUST
 70
     0
  9
$CMLSCALE
 40
1.0
  9
$PROXYGRAPHICS
 70
     0
  9
$MEASUREMENT
 70
     1
  9
$CELWEIGHT
370
    -1
  9
$ENDCAPS
280
     0
  9
$JOINSTYLE
280
     0
  9
$LWDISPLAY
290
     1
  9
$INSUNITS
 70
     4
  9
$HYPERLINKBASE
  1

  9
$STYLESHEET
  1

  9
$XEDIT
290
     1
  9
$CEPSNTYPE
380
     0
  9
$PSTYLEMODE
290
     1
  9
$FINGERPRINTGUID
  2

  9
$VERSIONGUID
  2

  9
$EXTNAMES
290
     1
  9
$PSVPSCALE
 40
0.0
  9
$OLESTARTUP
290
     0
  9
$SORTENTS
280
   127
  9
$INDEXCTL
280
     0
  9
$HIDETEXT
280
     1
  9
$XCLIPFRAME
290
     0
  9
$HALOGAP
280
     0
  9
$OBSCOLOR
 70
   257
  9
$OBSLTYPE
280
     0
  9
$INTERSECTIONDISPLAY
280
     0
  9
$INTERSECTIONCOLOR
 70
   257
  9
$DIMASSOC
280
     2
  9
$PROJECTNAME
  1

  9
$CAMERADISPLAY
290
     0
  9
$LENSLENGTH
 40
50.0
  9
$CAMERAHEIGHT
 40
0.0
  9
$STEPSPERSEC
 40
2.0
  9
$STEPSIZE
 40
6.0
  9
$3DDWFPREC
 40
2.0
  9
$PSOLWIDTH
 40
0.25
  9
$PSOLHEIGHT
 40
4.0
  9
$LOFTANG1
 40
1.570796326794897
  9
$LOFTANG2
 40
1.570796326794897
  9
$LOFTMAG1
 40
0.0
  9
$LOFTMAG2
 40
0.0
  9
$LOFTPARAM
 70
     7
  9
$LOFTNORMALS
280
     1
  9
$LATITUDE
 40
37.795
  9
$LONGITUDE
 40
-122.394
  9
$NORTHDIRECTION
 40
0.0
  9
$TIMEZONE
 70
 -8000
  9
$LIGHTGLYPHDISPLAY
280
     1
  9
$TILEMODELIGHTSYNCH
280
     1
  9
$SOLIDHIST
280
     1
  9
$SHOWHIST
280
     1
  9
$DWFFRAME
280
     2
  9
$DGNFRAME
280
     2
  9
$REALWORLDSCALE
290
     1
  9
$INTERFERECOLOR
 62
   256
  9
$CSHADOW
280
     0
  9
$SHADOWPLANELOCATION
 40
0.0
  0
ENDSEC
  0
SECTION
  2
CLASSES
  0
CLASS
  1
LWPOLYLINE
  2
AcDbPolyline
  3
ObjectDBX Classes
 90
        0
 91
        1
280
     0
281
     1
  0
CLASS
  1
IMAGE
  2
AcDbRasterImage
  3
ISM
 90
      127
 91
        5
280
     0
281
     1
  0
CLASS
  1
OLE2FRAME
  2
AcDbOle2Frame
  3
ObjectDBX Classes
 90
        0
 91
        1
280
     0
281
     1
  0
CLASS
  1
HATCH
  2
AcDbHatch
  3
ObjectDBX Classes
 90
        0
 91
        1
280
     0
281
     1
  0
CLASS
  1
DICTIONARYVAR
  2
AcDbDictionaryVar
  3
ObjectDBX Classes
 90
        0
 91
        4
280
     0
281
     0
  0
CLASS
  1
RASTERVARIABLES
  2
AcDbRasterVariables
  3
ISM
 90
        0
 91
        7
280
     0
281
     0
  0
CLASS
  1
IMAGEDEF
  2
AcDbRasterImageDef
  3
ISM
 90
        0
 91
        4
280
     0
281
     0
  0
CLASS
  1
IMAGEDEF_REACTOR
  2
AcDbRasterImageDefReactor
  3
ISM
 90
        1
 91
        4
280
     0
281
     0
  0
CLASS
  1
IDBUFFER
  2
AcDbIdBuffer
  3
ObjectDBX Classes
 90
        0
 91
        4
280
     0
281
     0
  0
CLASS
  1
SPATIAL_FILTER
  2
AcDbSpatialFilter
  3
ObjectDBX Classes
 90
        0
 91
        4
280
     0
281
     0
  0
CLASS
  1
XRECORD
  2
AcDbXrecord
  3
ObjectDBX Classes
 90
        0
 91
        1
280
     0
281
     0
  0
CLASS
  1
SORTENTSTABLE
  2
AcDbSortentsTable
  3
ObjectDBX Classes
 90
        0
 91
        4
280
     0
281
     0
  0
CLASS
  1
LAYER_INDEX
  2
AcDbLayerIndex
  3
ObjectDBX Classes
 90
        0
 91
        4
280
     0
281
     0
  0
CLASS
  1
SPATIAL_INDEX
  2
AcDbSpatialIndex
  3
AutoCAD 2000
 90
        0
 91
        4
280
     0
281
     0
  0
CLASS
  1
OBJECT_PTR
  2
CAseDLPNTableRecord
  3
ASE-LPNTableRecord
 90
        1
 91
        4
280
     0
281
     0
  0
CLASS
  1
LAYOUT
  2
AcDbLayout
  3
ObjectDBX Classes
 90
        0
 91
        1
280
     0
281
     0
  0
CLASS
  1
PLOTSETTINGS
  2
AcDbPlotSettings
  3
ObjectDBX Classes
 90
        0
 91
        4
280
     0
281
     0
  0
CLASS
  1
ACDBDICTIONARYWDFLT
  2
AcDbDictionaryWithDefault
  3
ObjectDBX Classes
 90
        0
 91
        7
280
     0
281
     0
  0
CLASS
  1
ACDBPLACEHOLDER
  2
AcDbPlaceHolder
  3
ObjectDBX Classes
 90
        0
 91
        1
280
     0
281
     0
  0
CLASS
  1
SCALE
  2
AcDbScale
  3
ObjectDBX Classes
 90
     1153
 91
        7
280
     0
281
     0
  0
CLASS
  1
MATERIAL
  2
AcDbMaterial
  3
ObjectDBX Classes
 90
     1153
 91
        7
280
     0
281
     0
  0
CLASS
  1
VISUALSTYLE
  2
AcDbVisualStyle
  3
ObjectDBX Classes
 90
     4095
 91
        7
280
     0
281
     0
  0
CLASS
  1
TABLESTYLE
  2
AcDbTableStyle
  3
ObjectDBX Classes
 90
     4095
 91
        7
280
     0
281
     0
  0
CLASS
  1
DIMASSOC
  2
AcDbDimAssoc
  3
"AcDbDimAssoc|Product Desc:     AcDim ARX App For Dimension|Company:          Autodesk, Inc.|WEB Address:      www.autodesk.com"
 90
        0
 91
        4
280
     0
281
     0
  0
CLASS
  1
CELLSTYLEMAP
  2
AcDbCellStyleMap
  3
ObjectDBX Classes
 90
     1152
 91
        4
280
     0
281
     0
  0
CLASS
  1
SUN
  2
AcDbSun
  3
SCENEOE
 90
     1153
 91
        7
280
     0
281
     0
  0
ENDSEC
  0
SECTION
  2
TABLES
  0
TABLE
  2
VPORT
  5
7
330
0
100
AcDbSymbolTable
 70
     1
  0
VPORT
  5
15
330
7
100
AcDbSymbolTableRecord
100
AcDbViewportTableRecord
  2
*ACTIVE
 70
     0
 10
0.0
 20
0.0
 11
1.0
 21
1.0
 12
329.6572083688322
 22
187.7447052352682
 13
0.0
 23
0.0
 14
1.0
 24
1.0
 15
0.0
 25
0.0
 16
0.0
 26
0.0
 36
1.0
 17
-91.02013567090012
 27
73.59871453016603
 37
-46.86809886248109
 40
462.4034585096787
 41
2.184105960264901
 42
50.0
 43
0.0
 44
0.0
 50
0.0
 51
0.0
 71
    16
 72
  2000
 73
     1
 74
     1
 75
     0
 76
     0
 77
     0
 78
     0
281
     0
 65
     1
110
0.0
120
0.0
130
0.0
111
1.0
121
0.0
131
0.0
112
0.0
122
1.0
132
0.0
 79
     0
146
0.0
348
26C
 60
     3
 61
     5
292
     1
282
     1
141
0.0
142
0.0
 63
   256
361
904
  0
ENDTAB
  0
TABLE
  2
LTYPE
  5
4
330
0
100
AcDbSymbolTable
 70
    20
  0
LTYPE
  5
11
330
4
100
AcDbSymbolTableRecord
100
AcDbLinetypeTableRecord
  2
ByBlock
 70
     0
  3

 72
    65
 73
     0
 40
0.0
  0
LTYPE
  5
12
330
4
100
AcDbSymbolTableRecord
100
AcDbLinetypeTableRecord
  2
ByLayer
 70
     0
  3

 72
    65
 73
     0
 40
0.0
  0
LTYPE
  5
13
330
4
100
AcDbSymbolTableRecord
100
AcDbLinetypeTableRecord
  2
Continuous
 70
     0
  3
Solid line
 72
    65
 73
     0
 40
0.0
  0
LTYPE
  5
3A
330
4
100
AcDbSymbolTableRecord
100
AcDbLinetypeTableRecord
  2
STYLE_01
 70
     0
  3

 72
    65
 73
     2
 40
0.2460629921259842
 49
0.1230314960629921
 74
     0
 49
-0.1230314960629921
 74
     0
  0
LTYPE
  5
3B
330
4
100
AcDbSymbolTableRecord
100
AcDbLinetypeTableRecord
  2
STYLE_02
 70
     0
  3

 72
    65
 73
     2
 40
0.6944250000000001
 49
0.48607
 74
     0
 49
-0.2083550000000001
 74
     0
  0
LTYPE
  5
3C
330
4
100
AcDbSymbolTableRecord
100
AcDbLinetypeTableRecord
  2
STYLE_03
 70
     0
  3

 72
    65
 73
     2
 40
1.25
 49
1.04164
 74
     0
 49
-0.2083599999999999
 74
     0
  0
LTYPE
  5
3D
330
4
100
AcDbSymbolTableRecord
100
AcDbLinetypeTableRecord
  2
STYLE_04
 70
     0
  3

 72
    65
 73
     2
 40
1.52771
 49
1.319425
 74
     0
 49
-0.208285
 74
     0
  0
LTYPE
  5
3E
330
4
100
AcDbSymbolTableRecord
100
AcDbLinetypeTableRecord
  2
STYLE_05
 70
     0
  3

 72
    65
 73
     2
 40
0.20828
 49
0.069425
 74
     0
 49
-0.138855
 74
     0
  0
LTYPE
  5
3F
330
4
100
AcDbSymbolTableRecord
100
AcDbLinetypeTableRecord
  2
STYLE_06
 70
     0
  3

 72
    65
 73
     4
 40
1.04164
 49
0.625
 74
     0
 49
-0.20828
 74
     0
 49
0.06943
 74
     0
 49
-0.13893
 74
     0
  0
LTYPE
  5
40
330
4
100
AcDbSymbolTableRecord
100
AcDbLinetypeTableRecord
  2
STYLE_07
 70
     0
  3

 72
    65
 73
     6
 40
1.875
 49
0.625
 74
     0
 49
-0.20828
 74
     0
 49
0.6250000000000001
 74
     0
 49
-0.2083599999999999
 74
     0
 49
0.06943
 74
     0
 49
-0.1389299999999999
 74
     0
  0
LTYPE
  5
41
330
4
100
AcDbSymbolTableRecord
100
AcDbLinetypeTableRecord
  2
STYLE_08
 70
     0
  3

 72
    65
 73
     6
 40
1.25
 49
0.625
 74
     0
 49
-0.20828
 74
     0
 49
0.06943
 74
     0
 49
-0.13893
 74
     0
 49
0.0694299999999999
 74
     0
 49
-0.13893
 74
     0
  0
LTYPE
  5
42
330
4
100
AcDbSymbolTableRecord
100
AcDbLinetypeTableRecord
  2
STYLE_09
 70
     0
  3

 72
    65
 73
     4
 40
5.0
 49
3.75
 74
     0
 49
-0.2777849999999998
 74
     0
 49
0.6944300000000003
 74
     0
 49
-0.2777849999999998
 74
     0
  0
LTYPE
  5
43
330
4
100
AcDbSymbolTableRecord
100
AcDbLinetypeTableRecord
  2
STYLE_10
 70
     0
  3

 72
    65
 73
     6
 40
5.9375
 49
3.75
 74
     0
 49
-0.2777849999999998
 74
     0
 49
0.6944300000000003
 74
     0
 49
-0.2777849999999998
 74
     0
 49
0.625
 74
     0
 49
-0.3125
 74
     0
  0
LTYPE
  5
44
330
4
100
AcDbSymbolTableRecord
100
AcDbLinetypeTableRecord
  2
STYLE_11
 70
     0
  3

 72
    65
 73
     2
 40
0.0694444881889764
 49
0.0347222440944882
 74
     0
 49
-0.0347222440944882
 74
     0
  0
LTYPE
  5
45
330
4
100
AcDbSymbolTableRecord
100
AcDbLinetypeTableRecord
  2
STYLE_12
 70
     0
  3

 72
    65
 73
     2
 40
0.3937007874015748
 49
0.1968503937007874
 74
     0
 49
-0.1968503937007874
 74
     0
  0
LTYPE
  5
46
330
4
100
AcDbSymbolTableRecord
100
AcDbLinetypeTableRecord
  2
STYLE_13
 70
     0
  3

 72
    65
 73
     2
 40
0.5905511811023622
 49
0.2952755905511811
 74
     0
 49
-0.2952755905511811
 74
     0
  0
LTYPE
  5
47
330
4
100
AcDbSymbolTableRecord
100
AcDbLinetypeTableRecord
  2
STYLE_14
 70
     0
  3

 72
    65
 73
     2
 40
1.968503937007874
 49
0.9842519685039369
 74
     0
 49
-0.9842519685039369
 74
     0
  0
LTYPE
  5
48
330
4
100
AcDbSymbolTableRecord
100
AcDbLinetypeTableRecord
  2
STYLE_15
 70
     0
  3

 72
    65
 73
     2
 40
0.1875
 49
0.125
 74
     0
 49
-0.0625
 74
     0
  0
LTYPE
  5
49
330
4
100
AcDbSymbolTableRecord
100
AcDbLinetypeTableRecord
  2
STYLE_16
 70
     0
  3

 72
    65
 73
     2
 40
0.3690944881889764
 49
0.2460629921259843
 74
     0
 49
-0.1230314960629922
 74
     0
  0
LTYPE
  5
908
330
4
100
AcDbSymbolTableRecord
100
AcDbLinetypeTableRecord
  2
AI-LINETYPE-1
 70
     0
  3
Adobe Illustrator Linetype No. 1
 72
    65
 73
     4
 40
2.116668062491661
 49
1.058334031245831
 74
     0
 49
-0.3527780104152769
 74
     0
 49
0.3527780104152769
 74
     0
 49
-0.3527780104152769
 74
     0
  0
LTYPE
  5
909
330
4
100
AcDbSymbolTableRecord
100
AcDbLinetypeTableRecord
  2
AI-LINETYPE-2
 70
     0
  3
Adobe Illustrator Linetype No. 2
 72
    65
 73
     4
 40
2.116668062491661
 49
1.058334031245831
 74
     0
 49
-0.3527780104152769
 74
     0
 49
0.3527780104152769
 74
     0
 49
-0.3527780104152769
 74
     0
  0
LTYPE
  5
E70
330
4
100
AcDbSymbolTableRecord
100
AcDbLinetypeTableRecord
  2
CENTER
 70
     0
  3
____ _ ____ _ ____ _ ____ _ ____ _ ____ _ ____
 72
    65
 73
     4
 40
2.0
 49
1.25
 74
     0
 49
-0.25
 74
     0
 49
0.25
 74
     0
 49
-0.25
 74
     0
  0
ENDTAB
  0
TABLE
  2
LAYER
  5
2
102
{ACAD_XDICTIONARY
360
2E1
102
}
330
0
100
AcDbSymbolTable
 70
     7
  0
LAYER
  5
14
330
2
100
AcDbSymbolTableRecord
100
AcDbLayerTableRecord
  2
0
 70
     0
 62
     7
  6
Continuous
370
    -3
390
1D
347
266
  0
LAYER
  5
4B
330
2
100
AcDbSymbolTableRecord
100
AcDbLayerTableRecord
  2
TEMPLATE
 70
     0
 62
     7
  6
Continuous
370
    20
390
1D
347
266
  0
LAYER
  5
4C
330
2
100
AcDbSymbolTableRecord
100
AcDbLayerTableRecord
  2
DIM
 70
     0
 62
     7
  6
Continuous
370
    13
390
1D
347
266
  0
LAYER
  5
4D
330
2
100
AcDbSymbolTableRecord
100
AcDbLayerTableRecord
  2
MODEL
 70
     0
 62
     7
  6
Continuous
370
    20
390
1D
347
266
  0
LAYER
  5
667
330
2
100
AcDbSymbolTableRecord
100
AcDbLayerTableRecord
  2
LOGO
 70
     0
 62
     7
  6
Continuous
370
    -3
390
1D
347
266
  0
LAYER
  5
88C
330
2
100
AcDbSymbolTableRecord
100
AcDbLayerTableRecord
  2
HIDDEN
 70
     0
 62
     7
  6
STYLE_12
370
    20
390
1D
347
266
1001
AcAecLayerStandard
1000

1000

  0
LAYER
  5
DDE
330
2
100
AcDbSymbolTableRecord
100
AcDbLayerTableRecord
  2
Defpoints
 70
     0
 62
     7
  6
Continuous
290
     0
370
    -3
390
1D
347
266
  0
ENDTAB
  0
TABLE
  2
STYLE
  5
3
330
0
100
AcDbSymbolTable
 70
     4
  0
STYLE
  5
17
330
3
100
AcDbSymbolTableRecord
100
AcDbTextStyleTableRecord
  2
Standard
 70
     0
 40
0.0
 41
1.0
 50
0.0
 71
     0
 42
2.5
  3
txt
  4
BIGFONT.SHX
  0
STYLE
  5
39
330
3
100
AcDbSymbolTableRecord
100
AcDbTextStyleTableRecord
  2
ＭＳ ゴシック
 70
     0
 40
0.0
 41
1.0
 50
0.0
 71
     0
 42
2.5
  3
msgothic.ttc
  4
ＭＳ ゴシック
1001
ACAD
1000
ＭＳ ゴシック
1071
        0
  0
STYLE
  5
384
330
3
100
AcDbSymbolTableRecord
100
AcDbTextStyleTableRecord
  2
ARIAL
 70
     0
 40
0.0
 41
1.0
 50
0.0
 71
     0
 42
12.0
  3
ARIAL.TTF
  4

1001
ACAD
1000
Arial
1071
       34
  0
STYLE
  5
385
330
3
100
AcDbSymbolTableRecord
100
AcDbTextStyleTableRecord
  2
ROMANS
 70
     0
 40
0.0
 41
1.0
 50
0.0
 71
     0
 42
5.0
  3
romans.shx
  4

  0
ENDTAB
  0
TABLE
  2
VIEW
  5
5
330
0
100
AcDbSymbolTable
 70
     0
  0
ENDTAB
  0
TABLE
  2
UCS
  5
6
330
0
100
AcDbSymbolTable
 70
     0
  0
ENDTAB
  0
TABLE
  2
APPID
  5
8
330
0
100
AcDbSymbolTable
 70
     2
  0
APPID
  5
16
330
8
100
AcDbSymbolTableRecord
100
AcDbRegAppTableRecord
  2
ACAD
 70
     0
  0
APPID
  5
7AC
330
8
100
AcDbSymbolTableRecord
100
AcDbRegAppTableRecord
  2
AcAecLayerStandard
 70
     0
  0
ENDTAB
  0
TABLE
  2
DIMSTYLE
  5
9
330
0
100
AcDbSymbolTable
 70
     5
100
AcDbDimStyleTable
  0
DIMSTYLE
105
18
330
9
100
AcDbSymbolTableRecord
100
AcDbDimStyleTableRecord
  2
Standard
 70
     0
178
     0
340
17
  0
DIMSTYLE
105
56
330
9
100
AcDbSymbolTableRecord
100
AcDbDimStyleTableRecord
  2
tform線あり
 70
     0
  3
<>
  4
[]
 41
9.999389648437498
 42
25.0
 43
0.9999999999999999
 44
0.0
 73
     0
 74
     0
 77
     1
 78
    11
140
24.4326171875
141
0.0
143
1.0
146
0.8
147
0.4999999999999999
171
     1
172
     1
174
     1
178
     0
179
     2
271
     1
272
     1
276
     2
284
    11
285
    11
286
    11
289
     0
340
39
341
4E
342
4E
  0
DIMSTYLE
105
57
330
9
100
AcDbSymbolTableRecord
100
AcDbDimStyleTableRecord
  2
tfrom線あり
 70
     0
  3
<>
  4
[]
 41
2.0
 42
5.0
 43
0.0
 44
0.0
 73
     0
 74
     0
 77
     1
 78
    11
140
6.0
141
0.0
143
1.0
147
5.0
171
     1
174
     1
178
     0
179
     2
271
     0
272
     1
276
     2
284
    11
285
    11
286
    11
289
     0
340
39
341
4E
342
4E
  0
DIMSTYLE
105
5C
330
9
100
AcDbSymbolTableRecord
100
AcDbDimStyleTableRecord
  2
JIS
 70
     0
  3
<>
  4
[]
 41
9.0
 42
0.0
 43
6.99999999999994
 44
19.9999999999962
 73
     0
 74
     0
 77
     1
 78
    11
140
24.4326171875
141
0.0
143
1.0
147
10.0
171
     1
174
     1
178
     0
179
     2
271
     1
272
     1
276
     2
284
    11
285
    11
286
    11
289
     0
340
39
341
4E
342
4E
  0
DIMSTYLE
105
383
330
9
100
AcDbSymbolTableRecord
100
AcDbDimStyleTableRecord
  2
ARIAL
 70
     0
 41
10.0
 42
3.0
 43
0.5
 44
3.0
 73
     0
 74
     0
 77
     1
 78
     8
140
12.0
141
0.0
146
0.5
147
4.0
171
     1
172
     1
178
     0
271
     1
289
     0
340
384
  0
ENDTAB
  0
TABLE
  2
BLOCK_RECORD
  5
1
330
0
100
AcDbSymbolTable
 70
    17
  0
BLOCK_RECORD
  5
A
330
1
100
AcDbSymbolTableRecord
100
AcDbBlockTableRecord
  2
*MODEL_SPACE
340
20
 70
     0
280
     1
281
     0
  0
BLOCK_RECORD
  5
B
330
1
100
AcDbSymbolTableRecord
100
AcDbBlockTableRecord
  2
*PAPER_SPACE
340
21
 70
     0
280
     1
281
     0
  0
BLOCK_RECORD
  5
4E
330
1
100
AcDbSymbolTableRecord
100
AcDbBlockTableRecord
  2
_DOT
340
0
102
{BLKREFS
331
DE8
331
DE9
331
E01
331
E02
331
E10
331
E11
331
E35
331
E36
331
E42
331
E43
331
E51
331
E52
331
1360
331
1361
331
136F
331
1370
331
137E
331
137F
331
1944
331
1943
102
}
 70
     0
280
     1
281
     0
  0
BLOCK_RECORD
  5
68A
330
1
100
AcDbSymbolTableRecord
100
AcDbBlockTableRecord
  2
名称未設定-1
340
0
102
{BLKREFS
331
6B5
102
}
 70
     1
280
     1
281
     0
  0
BLOCK_RECORD
  5
68D
330
1
100
AcDbSymbolTableRecord
100
AcDbBlockTableRecord
  2
block 2
340
0
102
{BLKREFS
331
68C
102
}
 70
     0
280
     1
281
     0
  0
BLOCK_RECORD
  5
690
330
1
100
AcDbSymbolTableRecord
100
AcDbBlockTableRecord
  2
block 3
340
0
102
{BLKREFS
331
68F
102
}
 70
     0
280
     1
281
     0
  0
BLOCK_RECORD
  5
693
330
1
100
AcDbSymbolTableRecord
100
AcDbBlockTableRecord
  2
block 4
340
0
102
{BLKREFS
331
692
102
}
 70
     0
280
     1
281
     0
  0
BLOCK_RECORD
  5
6A2
330
1
100
AcDbSymbolTableRecord
100
AcDbBlockTableRecord
  2
block 5
340
0
102
{BLKREFS
331
6A1
102
}
 70
     0
280
     1
281
     0
  0
BLOCK_RECORD
  5
DE2
330
1
100
AcDbSymbolTableRecord
100
AcDbBlockTableRecord
  2
*D6
340
0
 70
     0
280
     1
281
     0
  0
BLOCK_RECORD
  5
DFB
330
1
100
AcDbSymbolTableRecord
100
AcDbBlockTableRecord
  2
*D7
340
0
 70
     0
280
     1
281
     0
  0
BLOCK_RECORD
  5
E0A
330
1
100
AcDbSymbolTableRecord
100
AcDbBlockTableRecord
  2
*D8
340
0
 70
     0
280
     1
281
     0
  0
BLOCK_RECORD
  5
E2F
330
1
100
AcDbSymbolTableRecord
100
AcDbBlockTableRecord
  2
*D9
340
0
 70
     0
280
     1
281
     0
  0
BLOCK_RECORD
  5
E3C
330
1
100
AcDbSymbolTableRecord
100
AcDbBlockTableRecord
  2
*D10
340
0
 70
     0
280
     1
281
     0
  0
BLOCK_RECORD
  5
E4B
330
1
100
AcDbSymbolTableRecord
100
AcDbBlockTableRecord
  2
*D11
340
0
 70
     0
280
     1
281
     0
  0
BLOCK_RECORD
  5
1359
330
1
100
AcDbSymbolTableRecord
100
AcDbBlockTableRecord
  2
*D12
340
0
 70
     0
280
     1
281
     0
  0
BLOCK_RECORD
  5
1369
330
1
100
AcDbSymbolTableRecord
100
AcDbBlockTableRecord
  2
*D13
340
0
 70
     0
280
     1
281
     0
  0
BLOCK_RECORD
  5
1378
330
1
100
AcDbSymbolTableRecord
100
AcDbBlockTableRecord
  2
*D14
340
0
 70
     0
280
     1
281
     0
  0
BLOCK_RECORD
  5
193D
330
1
100
AcDbSymbolTableRecord
100
AcDbBlockTableRecord
  2
*D16
340
0
 70
     0
280
     1
281
     0
  0
ENDTAB
  0
ENDSEC
  0
SECTION
  2
BLOCKS
  0
BLOCK
  5
D
330
A
100
AcDbEntity
  8
0
390
1D
100
AcDbBlockBegin
  2
*MODEL_SPACE
 70
     0
 10
0.0
 20
0.0
 30
0.0
  3
*MODEL_SPACE
  1
*MODEL_SPACE
  0
ENDBLK
  5
E
330
A
100
AcDbEntity
  8
0
390
1D
100
AcDbBlockEnd
  0
BLOCK
  5
F
330
B
100
AcDbEntity
 67
     1
  8
0
390
1D
100
AcDbBlockBegin
  2
*PAPER_SPACE
 70
     0
 10
0.0
 20
0.0
 30
0.0
  3
*PAPER_SPACE
  1
*PAPER_SPACE
  0
ENDBLK
  5
10
330
B
100
AcDbEntity
 67
     1
  8
0
390
1D
100
AcDbBlockEnd
  0
BLOCK
  5
E24
330
4E
100
AcDbEntity
  8
0
390
1D
100
AcDbBlockBegin
  2
_DOT
 70
     0
 10
0.0
 20
0.0
 30
0.0
  3
_DOT
  1
_DOT
  0
POLYLINE
  5
E26
330
4E
100
AcDbEntity
  8
0
  6
ByBlock
 62
     0
370
    -2
390
1D
100
AcDb2dPolyline
 66
     1
 10
0.0
 20
0.0
 30
0.0
 70
     1
 40
0.5
 41
0.5
  0
VERTEX
  5
E27
330
E26
100
AcDbEntity
  8
0
  6
ByBlock
 62
     0
370
    -2
390
1D
100
AcDbVertex
100
AcDb2dVertex
 10
-0.25
 20
0.0
 30
0.0
 42
1.0
  0
VERTEX
  5
E28
330
E26
100
AcDbEntity
  8
0
  6
ByBlock
 62
     0
370
    -2
390
1D
100
AcDbVertex
100
AcDb2dVertex
 10
0.25
 20
0.0
 30
0.0
 42
1.0
  0
SEQEND
  5
E29
330
E26
100
AcDbEntity
  8
0
390
1D
  0
LINE
  5
E2A
330
4E
100
AcDbEntity
  8
0
  6
ByBlock
 62
     0
370
    -2
390
1D
100
AcDbLine
 10
-0.5
 20
0.0
 30
0.0
 11
-1.0
 21
0.0
 31
0.0
  0
ENDBLK
  5
E2B
330
4E
100
AcDbEntity
  8
0
390
1D
100
AcDbBlockEnd
  0
BLOCK
  5
68B
330
68A
100
AcDbEntity
  8
0
100
AcDbBlockBegin
  2
名称未設定-1
 70
     0
 10
0.0
 20
0.0
 30
0.0
  3
名称未設定-1
  1
名称未設定-1
  0
INSERT
  5
68F
330
68A
100
AcDbEntity
  8
LOGO
100
AcDbBlockReference
  2
block 3
 10
0.0
 20
0.0
 30
0.0
  0
ENDBLK
  5
6B1
330
68A
100
AcDbEntity
  8
0
100
AcDbBlockEnd
  0
BLOCK
  5
68E
330
68D
100
AcDbEntity
  8
0
100
AcDbBlockBegin
  2
block 2
 70
     0
 10
0.0
 20
0.0
 30
0.0
  3
block 2
  1
block 2
  0
ENDBLK
  5
6B0
330
68D
100
AcDbEntity
  8
0
100
AcDbBlockEnd
  0
BLOCK
  5
691
330
690
100
AcDbEntity
  8
0
100
AcDbBlockBegin
  2
block 3
 70
     0
 10
0.0
 20
0.0
 30
0.0
  3
block 3
  1
block 3
  0
INSERT
  5
692
330
690
100
AcDbEntity
  8
LOGO
100
AcDbBlockReference
  2
block 4
 10
0.0
 20
0.0
 30
0.0
  0
INSERT
  5
6A1
330
690
100
AcDbEntity
  8
LOGO
100
AcDbBlockReference
  2
block 5
 10
0.0
 20
0.0
 30
0.0
  0
ENDBLK
  5
6AF
330
690
100
AcDbEntity
  8
0
100
AcDbBlockEnd
  0
BLOCK
  5
694
330
693
100
AcDbEntity
  8
0
100
AcDbBlockBegin
  2
block 4
 70
     0
 10
0.0
 20
0.0
 30
0.0
  3
block 4
  1
block 4
  0
POLYLINE
  5
695
330
693
100
AcDbEntity
  8
LOGO
370
     0
100
AcDb2dPolyline
 66
     1
 10
0.0
 20
0.0
 30
0.0
  0
VERTEX
  5
696
330
695
100
AcDbEntity
  8
LOGO
370
     0
100
AcDbVertex
100
AcDb2dVertex
 10
83.79545727667795
 20
167.6444858234922
 30
0.0
  0
VERTEX
  5
697
330
695
100
AcDbEntity
  8
LOGO
370
     0
100
AcDbVertex
100
AcDb2dVertex
 10
83.79545727667795
 20
159.7968976406313
 30
0.0
  0
VERTEX
  5
698
330
695
100
AcDbEntity
  8
LOGO
370
     0
100
AcDbVertex
100
AcDb2dVertex
 10
71.3631329975216
 20
159.7968976406313
 30
0.0
  0
VERTEX
  5
699
330
695
100
AcDbEntity
  8
LOGO
370
     0
100
AcDbVertex
100
AcDb2dVertex
 10
71.3631329975216
 20
127.8027915271048
 30
0.0
  0
VERTEX
  5
69A
330
695
100
AcDbEntity
  8
LOGO
370
     0
100
AcDbVertex
100
AcDb2dVertex
 10
60.43011526263018
 20
127.8027915271048
 30
0.0
  0
VERTEX
  5
69B
330
695
100
AcDbEntity
  8
LOGO
370
     0
100
AcDbVertex
100
AcDb2dVertex
 10
60.43011526263018
 20
159.7968976406313
 30
0.0
  0
VERTEX
  5
69C
330
695
100
AcDbEntity
  8
LOGO
370
     0
100
AcDbVertex
100
AcDb2dVertex
 10
48.21793273020759
 20
159.7968976406313
 30
0.0
  0
VERTEX
  5
69D
330
695
100
AcDbEntity
  8
LOGO
370
     0
100
AcDbVertex
100
AcDb2dVertex
 10
48.21793273020759
 20
167.6444858234922
 30
0.0
  0
VERTEX
  5
69E
330
695
100
AcDbEntity
  8
LOGO
370
     0
100
AcDbVertex
100
AcDb2dVertex
 10
83.79545727667795
 20
167.6444858234922
 30
0.0
  0
SEQEND
  5
69F
330
695
100
AcDbEntity
  8
LOGO
370
     0
  0
HATCH
  5
6A0
330
693
100
AcDbEntity
  8
LOGO
 62
   250
420
  2234388
100
AcDbHatch
 10
0.0
 20
0.0
 30
0.0
210
0.0
220
0.0
230
1.0
  2
SOLID
 70
     1
 71
     0
 91
        1
 92
        1
 93
        8
 72
     1
 10
83.79545727667795
 20
167.6444858234922
 11
83.79545727667795
 21
159.7968976406313
 72
     1
 10
83.79545727667795
 20
159.7968976406313
 11
71.3631329975216
 21
159.7968976406313
 72
     1
 10
71.3631329975216
 20
159.7968976406313
 11
71.3631329975216
 21
127.8027915271048
 72
     1
 10
71.3631329975216
 20
127.8027915271048
 11
60.43011526263018
 21
127.8027915271048
 72
     1
 10
60.43011526263018
 20
127.8027915271048
 11
60.43011526263018
 21
159.7968976406313
 72
     1
 10
60.43011526263018
 20
159.7968976406313
 11
48.21793273020759
 21
159.7968976406313
 72
     1
 10
48.21793273020759
 20
159.7968976406313
 11
48.21793273020759
 21
167.6444858234922
 72
     1
 10
48.21793273020759
 20
167.6444858234922
 11
83.79545727667795
 21
167.6444858234922
 97
        0
 75
     2
 76
     1
 98
        0
  0
ENDBLK
  5
6AE
330
693
100
AcDbEntity
  8
0
100
AcDbBlockEnd
  0
BLOCK
  5
6A3
330
6A2
100
AcDbEntity
  8
0
100
AcDbBlockBegin
  2
block 5
 70
     0
 10
0.0
 20
0.0
 30
0.0
  3
block 5
  1
block 5
  0
SPLINE
  5
6A4
330
6A2
100
AcDbEntity
  8
LOGO
370
     0
100
AcDbSpline
210
0.0
220
0.0
230
1.0
 70
    11
 71
     3
 72
    56
 73
    52
 74
     0
 42
0.000000001
 43
0.0000000001
 40
0.0
 40
0.0
 40
0.0
 40
0.0
 40
1.0
 40
1.0
 40
1.0
 40
2.0
 40
2.0
 40
2.0
 40
3.0
 40
3.0
 40
3.0
 40
4.0
 40
4.0
 40
4.0
 40
5.0
 40
5.0
 40
5.0
 40
6.0
 40
6.0
 40
6.0
 40
7.0
 40
7.0
 40
7.0
 40
8.0
 40
8.0
 40
8.0
 40
9.0
 40
9.0
 40
9.0
 40
10.0
 40
10.0
 40
10.0
 40
11.0
 40
11.0
 40
11.0
 40
12.0
 40
12.0
 40
12.0
 40
13.0
 40
13.0
 40
13.0
 40
14.0
 40
14.0
 40
14.0
 40
15.0
 40
15.0
 40
15.0
 40
16.0
 40
16.0
 40
16.0
 40
17.0
 40
17.0
 40
17.0
 40
17.0
 10
100.4504378777679
 20
166.69157178364
 30
0.0
 10
101.9848844191641
 20
167.1313385124438
 30
0.0
 10
103.9637485713373
 20
166.7649523658846
 30
0.0
 10
103.9637485713373
 20
166.7649523658846
 30
0.0
 10
103.9637485713373
 20
166.7649523658846
 30
0.0
 10
103.0132460999156
 20
163.911205638077
 30
0.0
 10
103.0132460999156
 20
163.911205638077
 30
0.0
 10
103.0132460999156
 20
163.911205638077
 30
0.0
 10
101.0674548862189
 20
164.3601018759394
 30
0.0
 10
99.57090442016032
 20
163.1805004036133
 30
0.0
 10
98.40508333886608
 20
162.258247733807
 30
0.0
 10
97.65301849830304
 20
159.804132345923
 30
0.0
 10
97.3598406791005
 20
158.8699940888517
 30
0.0
 10
97.3598406791005
 20
158.8699940888517
 30
0.0
 10
96.07137411762282
 20
154.9119212747295
 30
0.0
 10
96.07137411762282
 20
154.9119212747295
 30
0.0
 10
96.07137411762282
 20
154.9119212747295
 30
0.0
 10
100.3012651448482
 20
154.9119212747295
 30
0.0
 10
100.3012651448482
 20
154.9119212747295
 30
0.0
 10
100.3012651448482
 20
154.9119212747295
 30
0.0
 10
99.64152892419852
 20
152.4199098115079
 30
0.0
 10
99.64152892419852
 20
152.4199098115079
 30
0.0
 10
99.64152892419852
 20
152.4199098115079
 30
0.0
 10
95.38097652692731
 20
152.4199098115079
 30
0.0
 10
95.38097652692731
 20
152.4199098115079
 30
0.0
 10
95.38097652692731
 20
152.4199098115079
 30
0.0
 10
87.75353009080013
 20
127.8027915271048
 30
0.0
 10
87.75353009080013
 20
127.8027915271048
 30
0.0
 10
87.75353009080013
 20
127.8027915271048
 30
0.0
 10
85.36538832498108
 20
127.8027915271048
 30
0.0
 10
85.36538832498108
 20
127.8027915271048
 30
0.0
 10
85.36538832498108
 20
127.8027915271048
 30
0.0
 10
93.00006946639998
 20
152.4199098115079
 30
0.0
 10
93.00006946639998
 20
152.4199098115079
 30
0.0
 10
93.00006946639998
 20
152.4199098115079
 30
0.0
 10
89.85297266450198
 20
152.4199098115079
 30
0.0
 10
89.85297266450198
 20
152.4199098115079
 30
0.0
 10
89.85297266450198
 20
152.4199098115079
 30
0.0
 10
90.51270888515164
 20
154.9119212747295
 30
0.0
 10
90.51270888515164
 20
154.9119212747295
 30
0.0
 10
90.51270888515164
 20
154.9119212747295
 30
0.0
 10
93.6904670570955
 20
154.9119212747295
 30
0.0
 10
93.6904670570955
 20
154.9119212747295
 30
0.0
 10
93.6904670570955
 20
154.9119212747295
 30
0.0
 10
94.81598049462158
 20
158.3616699146644
 30
0.0
 10
94.81598049462158
 20
158.3616699146644
 30
0.0
 10
95.7237637538445
 20
161.2605474231013
 30
0.0
 10
96.4968436907311
 20
162.8139420021662
 30
0.0
 10
97.15657991138076
 20
163.9844139654337
 30
0.0
 10
97.81183750494507
 20
165.1523021053827
 30
0.0
 10
99.1047826935081
 20
166.3084769129547
 30
0.0
 10
100.4504378777679
 20
166.69157178364
 30
0.0
  0
HATCH
  5
6A5
330
6A2
100
AcDbEntity
  8
LOGO
 62
   250
420
  2234388
100
AcDbHatch
 10
0.0
 20
0.0
 30
0.0
210
0.0
220
0.0
230
1.0
  2
SOLID
 70
     1
 71
     0
 91
        1
 92
        1
 93
        1
 72
     4
 94
        3
 73
     0
 74
     1
 95
       56
 96
       52
 40
0.0
 40
0.0
 40
0.0
 40
0.0
 40
1.0
 40
1.0
 40
1.0
 40
2.0
 40
2.0
 40
2.0
 40
3.0
 40
3.0
 40
3.0
 40
4.0
 40
4.0
 40
4.0
 40
5.0
 40
5.0
 40
5.0
 40
6.0
 40
6.0
 40
6.0
 40
7.0
 40
7.0
 40
7.0
 40
8.0
 40
8.0
 40
8.0
 40
9.0
 40
9.0
 40
9.0
 40
10.0
 40
10.0
 40
10.0
 40
11.0
 40
11.0
 40
11.0
 40
12.0
 40
12.0
 40
12.0
 40
13.0
 40
13.0
 40
13.0
 40
14.0
 40
14.0
 40
14.0
 40
15.0
 40
15.0
 40
15.0
 40
16.0
 40
16.0
 40
16.0
 40
17.0
 40
17.0
 40
17.0
 40
17.0
 10
100.4504378777679
 20
166.69157178364
 10
101.9848844191641
 20
167.1313385124438
 10
103.9637485713373
 20
166.7649523658846
 10
103.9637485713373
 20
166.7649523658846
 10
103.9637485713373
 20
166.7649523658846
 10
103.0132460999156
 20
163.911205638077
 10
103.0132460999156
 20
163.911205638077
 10
103.0132460999156
 20
163.911205638077
 10
101.0674548862189
 20
164.3601018759394
 10
99.57090442016032
 20
163.1805004036133
 10
98.40508333886608
 20
162.258247733807
 10
97.65301849830304
 20
159.804132345923
 10
97.3598406791005
 20
158.8699940888517
 10
97.3598406791005
 20
158.8699940888517
 10
96.07137411762282
 20
154.9119212747295
 10
96.07137411762282
 20
154.9119212747295
 10
96.07137411762282
 20
154.9119212747295
 10
100.3012651448482
 20
154.9119212747295
 10
100.3012651448482
 20
154.9119212747295
 10
100.3012651448482
 20
154.9119212747295
 10
99.64152892419852
 20
152.4199098115079
 10
99.64152892419852
 20
152.4199098115079
 10
99.64152892419852
 20
152.4199098115079
 10
95.38097652692731
 20
152.4199098115079
 10
95.38097652692731
 20
152.4199098115079
 10
95.38097652692731
 20
152.4199098115079
 10
87.75353009080013
 20
127.8027915271048
 10
87.75353009080013
 20
127.8027915271048
 10
87.75353009080013
 20
127.8027915271048
 10
85.36538832498108
 20
127.8027915271048
 10
85.36538832498108
 20
127.8027915271048
 10
85.36538832498108
 20
127.8027915271048
 10
93.00006946639998
 20
152.4199098115079
 10
93.00006946639998
 20
152.4199098115079
 10
93.00006946639998
 20
152.4199098115079
 10
89.85297266450198
 20
152.4199098115079
 10
89.85297266450198
 20
152.4199098115079
 10
89.85297266450198
 20
152.4199098115079
 10
90.51270888515164
 20
154.9119212747295
 10
90.51270888515164
 20
154.9119212747295
 10
90.51270888515164
 20
154.9119212747295
 10
93.6904670570955
 20
154.9119212747295
 10
93.6904670570955
 20
154.9119212747295
 10
93.6904670570955
 20
154.9119212747295
 10
94.81598049462158
 20
158.3616699146644
 10
94.81598049462158
 20
158.3616699146644
 10
95.7237637538445
 20
161.2605474231013
 10
96.4968436907311
 20
162.8139420021662
 10
97.15657991138076
 20
163.9844139654337
 10
97.81183750494507
 20
165.1523021053827
 10
99.1047826935081
 20
166.3084769129547
 10
100.4504378777679
 20
166.69157178364
 97
        0
 75
     2
 76
     1
 98
        0
  0
SPLINE
  5
6A6
330
6A2
100
AcDbEntity
  8
LOGO
370
     0
100
AcDbSpline
210
0.0
220
0.0
230
1.0
 70
    11
 71
     3
 72
    38
 73
    34
 74
     0
 42
0.000000001
 43
0.0000000001
 40
0.0
 40
0.0
 40
0.0
 40
0.0
 40
1.0
 40
1.0
 40
1.0
 40
2.0
 40
2.0
 40
2.0
 40
3.0
 40
3.0
 40
3.0
 40
4.0
 40
4.0
 40
4.0
 40
5.0
 40
5.0
 40
5.0
 40
6.0
 40
6.0
 40
6.0
 40
7.0
 40
7.0
 40
7.0
 40
8.0
 40
8.0
 40
8.0
 40
9.0
 40
9.0
 40
9.0
 40
10.0
 40
10.0
 40
10.0
 40
11.0
 40
11.0
 40
11.0
 40
11.0
 10
126.377554584636
 20
154.8151140277308
 30
0.0
 10
126.377554584636
 20
154.8151140277308
 30
0.0
 10
128.8311532078563
 20
154.8151140277308
 30
0.0
 10
128.8311532078563
 20
154.8151140277308
 30
0.0
 10
128.8311532078563
 20
154.8151140277308
 30
0.0
 10
127.7345785914971
 20
151.3062819612468
 30
0.0
 10
127.7345785914971
 20
151.3062819612468
 30
0.0
 10
128.571392836906
 20
152.2922689395754
 30
0.0
 10
129.8860421413442
 20
153.604506675583
 30
0.0
 10
131.0163787157314
 20
154.2664822097754
 30
0.0
 10
132.7044766171327
 20
155.2500576196734
 30
0.0
 10
133.6642808525008
 20
155.3847609420097
 30
0.0
 10
134.7284715499351
 20
155.3565111403944
 30
0.0
 10
134.7284715499351
 20
155.3565111403944
 30
0.0
 10
133.6877075172549
 20
152.0345756272799
 30
0.0
 10
133.6877075172549
 20
152.0345756272799
 30
0.0
 10
133.011434827367
 20
152.3184516825359
 30
0.0
 10
130.930940291334
 20
151.7768823149844
 30
0.0
 10
129.739280976855
 20
150.9162968950455
 30
0.0
 10
128.66613302525
 20
150.1454562717016
 30
0.0
 10
127.9192358313239
 20
149.4857200510519
 30
0.0
 10
127.0393578639405
 20
147.8282835196966
 30
0.0
 10
126.164647543194
 20
146.1699857139017
 30
0.0
 10
125.4742499524985
 20
143.5262176944419
 30
0.0
 10
124.2822461282437
 20
139.6959580071401
 30
0.0
 10
124.2822461282437
 20
139.6959580071401
 30
0.0
 10
120.5753209406769
 20
127.8027915271048
 30
0.0
 10
120.5753209406769
 20
127.8027915271048
 30
0.0
 10
120.5753209406769
 20
127.8027915271048
 30
0.0
 10
118.1964809388044
 20
127.8027915271048
 30
0.0
 10
118.1964809388044
 20
127.8027915271048
 30
0.0
 10
118.1964809388044
 20
127.8027915271048
 30
0.0
 10
126.377554584636
 20
154.8151140277308
 30
0.0
 10
126.377554584636
 20
154.8151140277308
 30
0.0
  0
HATCH
  5
6A7
330
6A2
100
AcDbEntity
  8
LOGO
 62
   250
420
  2234388
100
AcDbHatch
 10
0.0
 20
0.0
 30
0.0
210
0.0
220
0.0
230
1.0
  2
SOLID
 70
     1
 71
     0
 91
        1
 92
        1
 93
        1
 72
     4
 94
        3
 73
     0
 74
     1
 95
       38
 96
       34
 40
0.0
 40
0.0
 40
0.0
 40
0.0
 40
1.0
 40
1.0
 40
1.0
 40
2.0
 40
2.0
 40
2.0
 40
3.0
 40
3.0
 40
3.0
 40
4.0
 40
4.0
 40
4.0
 40
5.0
 40
5.0
 40
5.0
 40
6.0
 40
6.0
 40
6.0
 40
7.0
 40
7.0
 40
7.0
 40
8.0
 40
8.0
 40
8.0
 40
9.0
 40
9.0
 40
9.0
 40
10.0
 40
10.0
 40
10.0
 40
11.0
 40
11.0
 40
11.0
 40
11.0
 10
126.377554584636
 20
154.8151140277308
 10
126.377554584636
 20
154.8151140277308
 10
128.8311532078563
 20
154.8151140277308
 10
128.8311532078563
 20
154.8151140277308
 10
128.8311532078563
 20
154.8151140277308
 10
127.7345785914971
 20
151.3062819612468
 10
127.7345785914971
 20
151.3062819612468
 10
128.571392836906
 20
152.2922689395754
 10
129.8860421413442
 20
153.604506675583
 10
131.0163787157314
 20
154.2664822097754
 10
132.7044766171327
 20
155.2500576196734
 10
133.6642808525008
 20
155.3847609420097
 10
134.7284715499351
 20
155.3565111403944
 10
134.7284715499351
 20
155.3565111403944
 10
133.6877075172549
 20
152.0345756272799
 10
133.6877075172549
 20
152.0345756272799
 10
133.011434827367
 20
152.3184516825359
 10
130.930940291334
 20
151.7768823149844
 10
129.739280976855
 20
150.9162968950455
 10
128.66613302525
 20
150.1454562717016
 10
127.9192358313239
 20
149.4857200510519
 10
127.0393578639405
 20
147.8282835196966
 10
126.164647543194
 20
146.1699857139017
 10
125.4742499524985
 20
143.5262176944419
 10
124.2822461282437
 20
139.6959580071401
 10
124.2822461282437
 20
139.6959580071401
 10
120.5753209406769
 20
127.8027915271048
 10
120.5753209406769
 20
127.8027915271048
 10
120.5753209406769
 20
127.8027915271048
 10
118.1964809388044
 20
127.8027915271048
 10
118.1964809388044
 20
127.8027915271048
 10
118.1964809388044
 20
127.8027915271048
 10
126.377554584636
 20
154.8151140277308
 10
126.377554584636
 20
154.8151140277308
 97
        0
 75
     2
 76
     1
 98
        0
  0
SPLINE
  5
6A8
330
6A2
100
AcDbEntity
  8
LOGO
370
     0
100
AcDbSpline
210
0.0
220
0.0
230
1.0
 70
    11
 71
     3
 72
   104
 73
   100
 74
     0
 42
0.000000001
 43
0.0000000001
 40
0.0
 40
0.0
 40
0.0
 40
0.0
 40
1.0
 40
1.0
 40
1.0
 40
2.0
 40
2.0
 40
2.0
 40
3.0
 40
3.0
 40
3.0
 40
4.0
 40
4.0
 40
4.0
 40
5.0
 40
5.0
 40
5.0
 40
6.0
 40
6.0
 40
6.0
 40
7.0
 40
7.0
 40
7.0
 40
8.0
 40
8.0
 40
8.0
 40
9.0
 40
9.0
 40
9.0
 40
10.0
 40
10.0
 40
10.0
 40
11.0
 40
11.0
 40
11.0
 40
12.0
 40
12.0
 40
12.0
 40
13.0
 40
13.0
 40
13.0
 40
14.0
 40
14.0
 40
14.0
 40
15.0
 40
15.0
 40
15.0
 40
16.0
 40
16.0
 40
16.0
 40
17.0
 40
17.0
 40
17.0
 40
18.0
 40
18.0
 40
18.0
 40
19.0
 40
19.0
 40
19.0
 40
20.0
 40
20.0
 40
20.0
 40
21.0
 40
21.0
 40
21.0
 40
22.0
 40
22.0
 40
22.0
 40
23.0
 40
23.0
 40
23.0
 40
24.0
 40
24.0
 40
24.0
 40
25.0
 40
25.0
 40
25.0
 40
26.0
 40
26.0
 40
26.0
 40
27.0
 40
27.0
 40
27.0
 40
28.0
 40
28.0
 40
28.0
 40
29.0
 40
29.0
 40
29.0
 40
30.0
 40
30.0
 40
30.0
 40
31.0
 40
31.0
 40
31.0
 40
32.0
 40
32.0
 40
32.0
 40
33.0
 40
33.0
 40
33.0
 40
33.0
 10
139.8926730891197
 20
154.8294111834263
 30
0.0
 10
139.8926730891197
 20
154.8294111834263
 30
0.0
 10
142.0344903652445
 20
154.8294111834263
 30
0.0
 10
142.0344903652445
 20
154.8294111834263
 30
0.0
 10
142.0344903652445
 20
154.8294111834263
 30
0.0
 10
140.9516961399171
 20
151.3157559800812
 30
0.0
 10
140.9516961399171
 20
151.3157559800812
 30
0.0
 10
141.8928968473923
 20
152.7887075264977
 30
0.0
 10
142.7341897198865
 20
153.4484437471474
 30
0.0
 10
143.8552245303272
 20
154.2926649527359
 30
0.0
 10
144.9803934580775
 20
155.1296514530327
 30
0.0
 10
146.3139908001845
 20
155.3044901642492
 30
0.0
 10
147.241066606852
 20
155.3044901642492
 30
0.0
 10
148.3855280820469
 20
155.3044901642492
 30
0.0
 10
149.4969166187653
 20
155.0752189084569
 30
0.0
 10
150.0784491203092
 20
153.8172414621372
 30
0.0
 10
150.5228667310863
 20
152.833838307127
 30
0.0
 10
150.5414702589793
 20
152.7201500811143
 30
0.0
 10
150.4140016419347
 20
150.7765981809602
 30
0.0
 10
151.5818897818837
 20
152.7699317437168
 30
0.0
 10
152.4424752018226
 20
153.6256940267945
 30
0.0
 10
153.9038856707499
 20
154.4507949398263
 30
0.0
 10
155.4455669174378
 20
155.3044901642492
 30
0.0
 10
156.339225275853
 20
155.3659851592288
 30
0.0
 10
157.3748216618963
 20
155.2147453676543
 30
0.0
 10
158.911679771723
 20
154.9877134254046
 30
0.0
 10
159.8859534176746
 20
154.4390816074493
 30
0.0
 10
160.3965169054045
 20
152.7816450760939
 30
0.0
 10
160.9070803931344
 20
151.1219692311958
 30
0.0
 10
160.6328506116007
 20
150.2303779314354
 30
0.0
 10
159.9992971339115
 20
147.597634224801
 30
0.0
 10
159.7105979417943
 20
146.4014962832367
 30
0.0
 10
159.2947746424084
 20
144.9400858143094
 30
0.0
 10
158.7463150793409
 20
143.2092687007094
 30
0.0
 10
158.7463150793409
 20
143.2092687007094
 30
0.0
 10
153.9038856707499
 20
127.8027915271048
 30
0.0
 10
153.9038856707499
 20
127.8027915271048
 30
0.0
 10
153.9038856707499
 20
127.8027915271048
 30
0.0
 10
151.3882752878863
 20
127.8027915271048
 30
0.0
 10
151.3882752878863
 20
127.8027915271048
 30
0.0
 10
151.3882752878863
 20
127.8027915271048
 30
0.0
 10
155.6250565106276
 20
141.2751908193897
 30
0.0
 10
155.6250565106276
 20
141.2751908193897
 30
0.0
 10
156.5094131050963
 20
144.0936252951782
 30
0.0
 10
157.109893644309
 20
146.1506931664571
 30
0.0
 10
157.4220195011804
 20
147.4415712963654
 30
0.0
 10
157.8095929989511
 20
149.0530157726519
 30
0.0
 10
157.9656559273867
 20
149.5826995529385
 30
0.0
 10
157.7816877071116
 20
150.7529992613181
 30
0.0
 10
157.6111553680925
 20
151.8430281919372
 30
0.0
 10
157.0582171779396
 20
152.5547853887321
 30
0.0
 10
156.1170164704645
 20
152.5547853887321
 30
0.0
 10
155.1096698860365
 20
152.5547853887321
 30
0.0
 10
154.2962823053817
 20
152.4412694176073
 30
0.0
 10
153.156643967048
 20
151.2945686288697
 30
0.0
 10
152.0170056287143
 20
150.1476955852443
 30
0.0
 10
151.076149431015
 20
148.7930831468137
 30
0.0
 10
150.3337308641742
 20
147.2290087646991
 30
0.0
 10
149.5957909244188
 20
145.6683794803425
 30
0.0
 10
148.8530278478023
 20
143.6822806228776
 30
0.0
 10
148.0964843801539
 20
141.2751908193897
 30
0.0
 10
148.0964843801539
 20
141.2751908193897
 30
0.0
 10
143.8552245303272
 20
127.8027915271048
 30
0.0
 10
143.8552245303272
 20
127.8027915271048
 30
0.0
 10
143.8552245303272
 20
127.8027915271048
 30
0.0
 10
141.486030802177
 20
127.8027915271048
 30
0.0
 10
141.486030802177
 20
127.8027915271048
 30
0.0
 10
141.486030802177
 20
127.8027915271048
 30
0.0
 10
146.3329388378533
 20
143.2092687007094
 30
0.0
 10
146.3329388378533
 20
143.2092687007094
 30
0.0
 10
146.8483254624444
 20
144.8408669988801
 30
0.0
 10
147.2314203331297
 20
146.1837661049335
 30
0.0
 10
147.4867020769946
 20
147.224185627838
 30
0.0
 10
147.9169947869641
 20
149.0197705792876
 30
0.0
 10
148.0306830129768
 20
150.2400242051577
 30
0.0
 10
147.709255392159
 20
151.3157559800812
 30
0.0
 10
147.3874832615654
 20
152.3916600098926
 30
0.0
 10
146.8245542879144
 20
152.6683013598569
 30
0.0
 10
145.8840425999909
 20
152.6683013598569
 30
0.0
 10
145.0989048209514
 20
152.6683013598569
 30
0.0
 10
144.3282364524954
 20
152.3275811915945
 30
0.0
 10
143.4531816219731
 20
151.6538923250251
 30
0.0
 10
142.34627171234
 20
150.8074318058939
 30
0.0
 10
141.901854101563
 20
150.1097995099067
 30
0.0
 10
141.3578731655808
 20
149.289521733736
 30
0.0
 10
140.6299240093235
 20
148.192602607601
 30
0.0
 10
140.2850697237515
 20
147.455696197173
 30
0.0
 10
139.6652966370942
 20
145.8385673095858
 30
0.0
 10
139.0506911970739
 20
144.2214384219986
 30
0.0
 10
138.463991048893
 20
142.3252566160164
 30
0.0
 10
138.0571250036777
 20
141.0154304484394
 30
0.0
 10
138.0571250036777
 20
141.0154304484394
 30
0.0
 10
133.9009590684727
 20
127.8027915271048
 30
0.0
 10
133.9009590684727
 20
127.8027915271048
 30
0.0
 10
133.9009590684727
 20
127.8027915271048
 30
0.0
 10
131.4180771143097
 20
127.8027915271048
 30
0.0
 10
131.4180771143097
 20
127.8027915271048
 30
0.0
 10
131.4180771143097
 20
127.8027915271048
 30
0.0
 10
139.8926730891197
 20
154.8294111834263
 30
0.0
 10
139.8926730891197
 20
154.8294111834263
 30
0.0
  0
HATCH
  5
6A9
330
6A2
100
AcDbEntity
  8
LOGO
 62
   250
420
  2234388
100
AcDbHatch
 10
0.0
 20
0.0
 30
0.0
210
0.0
220
0.0
230
1.0
  2
SOLID
 70
     1
 71
     0
 91
        1
 92
        1
 93
        1
 72
     4
 94
        3
 73
     0
 74
     1
 95
      104
 96
      100
 40
0.0
 40
0.0
 40
0.0
 40
0.0
 40
1.0
 40
1.0
 40
1.0
 40
2.0
 40
2.0
 40
2.0
 40
3.0
 40
3.0
 40
3.0
 40
4.0
 40
4.0
 40
4.0
 40
5.0
 40
5.0
 40
5.0
 40
6.0
 40
6.0
 40
6.0
 40
7.0
 40
7.0
 40
7.0
 40
8.0
 40
8.0
 40
8.0
 40
9.0
 40
9.0
 40
9.0
 40
10.0
 40
10.0
 40
10.0
 40
11.0
 40
11.0
 40
11.0
 40
12.0
 40
12.0
 40
12.0
 40
13.0
 40
13.0
 40
13.0
 40
14.0
 40
14.0
 40
14.0
 40
15.0
 40
15.0
 40
15.0
 40
16.0
 40
16.0
 40
16.0
 40
17.0
 40
17.0
 40
17.0
 40
18.0
 40
18.0
 40
18.0
 40
19.0
 40
19.0
 40
19.0
 40
20.0
 40
20.0
 40
20.0
 40
21.0
 40
21.0
 40
21.0
 40
22.0
 40
22.0
 40
22.0
 40
23.0
 40
23.0
 40
23.0
 40
24.0
 40
24.0
 40
24.0
 40
25.0
 40
25.0
 40
25.0
 40
26.0
 40
26.0
 40
26.0
 40
27.0
 40
27.0
 40
27.0
 40
28.0
 40
28.0
 40
28.0
 40
29.0
 40
29.0
 40
29.0
 40
30.0
 40
30.0
 40
30.0
 40
31.0
 40
31.0
 40
31.0
 40
32.0
 40
32.0
 40
32.0
 40
33.0
 40
33.0
 40
33.0
 40
33.0
 10
139.8926730891197
 20
154.8294111834263
 10
139.8926730891197
 20
154.8294111834263
 10
142.0344903652445
 20
154.8294111834263
 10
142.0344903652445
 20
154.8294111834263
 10
142.0344903652445
 20
154.8294111834263
 10
140.9516961399171
 20
151.3157559800812
 10
140.9516961399171
 20
151.3157559800812
 10
141.8928968473923
 20
152.7887075264977
 10
142.7341897198865
 20
153.4484437471474
 10
143.8552245303272
 20
154.2926649527359
 10
144.9803934580775
 20
155.1296514530327
 10
146.3139908001845
 20
155.3044901642492
 10
147.241066606852
 20
155.3044901642492
 10
148.3855280820469
 20
155.3044901642492
 10
149.4969166187653
 20
155.0752189084569
 10
150.0784491203092
 20
153.8172414621372
 10
150.5228667310863
 20
152.833838307127
 10
150.5414702589793
 20
152.7201500811143
 10
150.4140016419347
 20
150.7765981809602
 10
151.5818897818837
 20
152.7699317437168
 10
152.4424752018226
 20
153.6256940267945
 10
153.9038856707499
 20
154.4507949398263
 10
155.4455669174378
 20
155.3044901642492
 10
156.339225275853
 20
155.3659851592288
 10
157.3748216618963
 20
155.2147453676543
 10
158.911679771723
 20
154.9877134254046
 10
159.8859534176746
 20
154.4390816074493
 10
160.3965169054045
 20
152.7816450760939
 10
160.9070803931344
 20
151.1219692311958
 10
160.6328506116007
 20
150.2303779314354
 10
159.9992971339115
 20
147.597634224801
 10
159.7105979417943
 20
146.4014962832367
 10
159.2947746424084
 20
144.9400858143094
 10
158.7463150793409
 20
143.2092687007094
 10
158.7463150793409
 20
143.2092687007094
 10
153.9038856707499
 20
127.8027915271048
 10
153.9038856707499
 20
127.8027915271048
 10
153.9038856707499
 20
127.8027915271048
 10
151.3882752878863
 20
127.8027915271048
 10
151.3882752878863
 20
127.8027915271048
 10
151.3882752878863
 20
127.8027915271048
 10
155.6250565106276
 20
141.2751908193897
 10
155.6250565106276
 20
141.2751908193897
 10
156.5094131050963
 20
144.0936252951782
 10
157.109893644309
 20
146.1506931664571
 10
157.4220195011804
 20
147.4415712963654
 10
157.8095929989511
 20
149.0530157726519
 10
157.9656559273867
 20
149.5826995529385
 10
157.7816877071116
 20
150.7529992613181
 10
157.6111553680925
 20
151.8430281919372
 10
157.0582171779396
 20
152.5547853887321
 10
156.1170164704645
 20
152.5547853887321
 10
155.1096698860365
 20
152.5547853887321
 10
154.2962823053817
 20
152.4412694176073
 10
153.156643967048
 20
151.2945686288697
 10
152.0170056287143
 20
150.1476955852443
 10
151.076149431015
 20
148.7930831468137
 10
150.3337308641742
 20
147.2290087646991
 10
149.5957909244188
 20
145.6683794803425
 10
148.8530278478023
 20
143.6822806228776
 10
148.0964843801539
 20
141.2751908193897
 10
148.0964843801539
 20
141.2751908193897
 10
143.8552245303272
 20
127.8027915271048
 10
143.8552245303272
 20
127.8027915271048
 10
143.8552245303272
 20
127.8027915271048
 10
141.486030802177
 20
127.8027915271048
 10
141.486030802177
 20
127.8027915271048
 10
141.486030802177
 20
127.8027915271048
 10
146.3329388378533
 20
143.2092687007094
 10
146.3329388378533
 20
143.2092687007094
 10
146.8483254624444
 20
144.8408669988801
 10
147.2314203331297
 20
146.1837661049335
 10
147.4867020769946
 20
147.224185627838
 10
147.9169947869641
 20
149.0197705792876
 10
148.0306830129768
 20
150.2400242051577
 10
147.709255392159
 20
151.3157559800812
 10
147.3874832615654
 20
152.3916600098926
 10
146.8245542879144
 20
152.6683013598569
 10
145.8840425999909
 20
152.6683013598569
 10
145.0989048209514
 20
152.6683013598569
 10
144.3282364524954
 20
152.3275811915945
 10
143.4531816219731
 20
151.6538923250251
 10
142.34627171234
 20
150.8074318058939
 10
141.901854101563
 20
150.1097995099067
 10
141.3578731655808
 20
149.289521733736
 10
140.6299240093235
 20
148.192602607601
 10
140.2850697237515
 20
147.455696197173
 10
139.6652966370942
 20
145.8385673095858
 10
139.0506911970739
 20
144.2214384219986
 10
138.463991048893
 20
142.3252566160164
 10
138.0571250036777
 20
141.0154304484394
 10
138.0571250036777
 20
141.0154304484394
 10
133.9009590684727
 20
127.8027915271048
 10
133.9009590684727
 20
127.8027915271048
 10
133.9009590684727
 20
127.8027915271048
 10
131.4180771143097
 20
127.8027915271048
 10
131.4180771143097
 20
127.8027915271048
 10
131.4180771143097
 20
127.8027915271048
 10
139.8926730891197
 20
154.8294111834263
 10
139.8926730891197
 20
154.8294111834263
 97
        0
 75
     2
 76
     1
 98
        0
  0
SPLINE
  5
6AA
330
6A2
100
AcDbEntity
  8
LOGO
370
     0
100
AcDbSpline
210
0.0
220
0.0
230
1.0
 70
    11
 71
     3
 72
    29
 73
    25
 74
     0
 42
0.000000001
 43
0.0000000001
 40
0.0
 40
0.0
 40
0.0
 40
0.0
 40
1.0
 40
1.0
 40
1.0
 40
2.0
 40
2.0
 40
2.0
 40
3.0
 40
3.0
 40
3.0
 40
4.0
 40
4.0
 40
4.0
 40
5.0
 40
5.0
 40
5.0
 40
6.0
 40
6.0
 40
6.0
 40
7.0
 40
7.0
 40
7.0
 40
8.0
 40
8.0
 40
8.0
 40
8.0
 10
101.6420971922469
 20
132.8388354296931
 30
0.0
 10
101.630039350094
 20
134.7164137077823
 30
0.0
 10
102.2236296937908
 20
138.0598810818841
 30
0.0
 10
103.7487744712405
 20
142.5378191476827
 30
0.0
 10
105.819967243327
 20
148.5896501242061
 30
0.0
 10
107.0602024361932
 20
150.8074318058939
 30
0.0
 10
108.1522984254671
 20
151.8833358357054
 30
0.0
 10
109.741177511439
 20
153.4532668840085
 30
0.0
 10
111.8740375333931
 20
153.5290590346837
 30
0.0
 10
112.5075910110823
 20
153.4532668840085
 30
0.0
 10
113.4012493694975
 20
153.3490526768302
 30
0.0
 10
114.6683563248758
 20
152.7580461564518
 30
0.0
 10
114.7493161221879
 20
150.7838328862519
 30
0.0
 10
114.8106388622796
 20
149.0909118479895
 30
0.0
 10
114.3186789024427
 20
145.9191825971221
 30
0.0
 10
112.6164561002338
 20
140.9489400617108
 30
0.0
 10
110.6444821435766
 20
135.1746117095912
 30
0.0
 10
109.4669477299053
 20
132.8960240524753
 30
0.0
 10
108.5212683953448
 20
131.9072809959403
 30
0.0
 10
106.7346406980658
 20
130.0538184021569
 30
0.0
 10
104.8222669326213
 20
130.2336525051225
 30
0.0
 10
104.5408024457958
 20
130.2336525051225
 30
0.0
 10
104.1721769856939
 20
130.2336525051225
 30
0.0
 10
101.6465758193322
 20
130.6305277668397
 30
0.0
 10
101.6420971922469
 20
132.8388354296931
 30
0.0
  0
SPLINE
  5
6AB
330
6A2
100
AcDbEntity
  8
LOGO
370
     0
100
AcDbSpline
210
0.0
220
0.0
230
1.0
 70
    11
 71
     3
 72
    32
 73
    28
 74
     0
 42
0.000000001
 43
0.0000000001
 40
0.0
 40
0.0
 40
0.0
 40
0.0
 40
1.0
 40
1.0
 40
1.0
 40
2.0
 40
2.0
 40
2.0
 40
3.0
 40
3.0
 40
3.0
 40
4.0
 40
4.0
 40
4.0
 40
5.0
 40
5.0
 40
5.0
 40
6.0
 40
6.0
 40
6.0
 40
7.0
 40
7.0
 40
7.0
 40
8.0
 40
8.0
 40
8.0
 40
9.0
 40
9.0
 40
9.0
 40
9.0
 10
106.2595617172429
 20
153.4105476718098
 30
0.0
 10
104.8222669326213
 20
151.5474388043041
 30
0.0
 10
103.7177685914188
 20
149.8758773721411
 30
0.0
 10
101.9232171692965
 20
144.6141795664062
 30
0.0
 10
100.2754269116635
 20
139.7999999594306
 30
0.0
 10
99.22777268346732
 20
136.3052927937542
 30
0.0
 10
99.06964269637689
 20
132.039572749846
 30
0.0
 10
98.94665270641765
 20
128.8673267343149
 30
0.0
 10
100.8807305877373
 20
127.8027915271048
 30
0.0
 10
103.7129454545577
 20
127.8027915271048
 30
0.0
 10
104.9352661390825
 20
127.8027915271048
 30
0.0
 10
108.0151835347002
 20
127.8827177950895
 30
0.0
 10
110.2045431598849
 20
130.5926316915021
 30
0.0
 10
111.7417457794874
 20
132.4984597712065
 30
0.0
 10
113.155269389579
 20
134.475256864725
 30
0.0
 10
115.0562743324223
 20
140.9489400617108
 30
0.0
 10
116.6361961642235
 20
146.3680788349845
 30
0.0
 10
117.7282921534974
 20
149.8639917848761
 30
0.0
 10
117.6480213757369
 20
151.8595646611754
 30
0.0
 10
117.6480213757369
 20
151.8595646611754
 30
0.0
 10
117.6480213757369
 20
151.8595646611754
 30
0.0
 10
117.6480213757369
 20
151.8595646611754
 30
0.0
 10
117.13229024137
 20
155.18150017429
 30
0.0
 10
114.7162431837115
 20
155.886194920681
 30
0.0
 10
113.3351034925446
 20
155.886194920681
 30
0.0
 10
111.9829026225447
 20
155.886194920681
 30
0.0
 10
108.3414342923792
 20
156.1251124501957
 30
0.0
 10
106.2595617172429
 20
153.4105476718098
 30
0.0
  0
HATCH
  5
6AC
330
6A2
100
AcDbEntity
  8
LOGO
 62
   250
420
  2234388
100
AcDbHatch
 10
0.0
 20
0.0
 30
0.0
210
0.0
220
0.0
230
1.0
  2
SOLID
 70
     1
 71
     0
 91
        2
 92
        1
 93
        1
 72
     4
 94
        3
 73
     0
 74
     1
 95
       29
 96
       25
 40
0.0
 40
0.0
 40
0.0
 40
0.0
 40
1.0
 40
1.0
 40
1.0
 40
2.0
 40
2.0
 40
2.0
 40
3.0
 40
3.0
 40
3.0
 40
4.0
 40
4.0
 40
4.0
 40
5.0
 40
5.0
 40
5.0
 40
6.0
 40
6.0
 40
6.0
 40
7.0
 40
7.0
 40
7.0
 40
8.0
 40
8.0
 40
8.0
 40
8.0
 10
101.6420971922469
 20
132.8388354296931
 10
101.630039350094
 20
134.7164137077823
 10
102.2236296937908
 20
138.0598810818841
 10
103.7487744712405
 20
142.5378191476827
 10
105.819967243327
 20
148.5896501242061
 10
107.0602024361932
 20
150.8074318058939
 10
108.1522984254671
 20
151.8833358357054
 10
109.741177511439
 20
153.4532668840085
 10
111.8740375333931
 20
153.5290590346837
 10
112.5075910110823
 20
153.4532668840085
 10
113.4012493694975
 20
153.3490526768302
 10
114.6683563248758
 20
152.7580461564518
 10
114.7493161221879
 20
150.7838328862519
 10
114.8106388622796
 20
149.0909118479895
 10
114.3186789024427
 20
145.9191825971221
 10
112.6164561002338
 20
140.9489400617108
 10
110.6444821435766
 20
135.1746117095912
 10
109.4669477299053
 20
132.8960240524753
 10
108.5212683953448
 20
131.9072809959403
 10
106.7346406980658
 20
130.0538184021569
 10
104.8222669326213
 20
130.2336525051225
 10
104.5408024457958
 20
130.2336525051225
 10
104.1721769856939
 20
130.2336525051225
 10
101.6465758193322
 20
130.6305277668397
 10
101.6420971922469
 20
132.8388354296931
 97
        0
 92
        1
 93
        1
 72
     4
 94
        3
 73
     0
 74
     1
 95
       32
 96
       28
 40
0.0
 40
0.0
 40
0.0
 40
0.0
 40
1.0
 40
1.0
 40
1.0
 40
2.0
 40
2.0
 40
2.0
 40
3.0
 40
3.0
 40
3.0
 40
4.0
 40
4.0
 40
4.0
 40
5.0
 40
5.0
 40
5.0
 40
6.0
 40
6.0
 40
6.0
 40
7.0
 40
7.0
 40
7.0
 40
8.0
 40
8.0
 40
8.0
 40
9.0
 40
9.0
 40
9.0
 40
9.0
 10
106.2595617172429
 20
153.4105476718098
 10
104.8222669326213
 20
151.5474388043041
 10
103.7177685914188
 20
149.8758773721411
 10
101.9232171692965
 20
144.6141795664062
 10
100.2754269116635
 20
139.7999999594306
 10
99.22777268346732
 20
136.3052927937542
 10
99.06964269637689
 20
132.039572749846
 10
98.94665270641765
 20
128.8673267343149
 10
100.8807305877373
 20
127.8027915271048
 10
103.7129454545577
 20
127.8027915271048
 10
104.9352661390825
 20
127.8027915271048
 10
108.0151835347002
 20
127.8827177950895
 10
110.2045431598849
 20
130.5926316915021
 10
111.7417457794874
 20
132.4984597712065
 10
113.155269389579
 20
134.475256864725
 10
115.0562743324223
 20
140.9489400617108
 10
116.6361961642235
 20
146.3680788349845
 10
117.7282921534974
 20
149.8639917848761
 10
117.6480213757369
 20
151.8595646611754
 10
117.6480213757369
 20
151.8595646611754
 10
117.6480213757369
 20
151.8595646611754
 10
117.6480213757369
 20
151.8595646611754
 10
117.13229024137
 20
155.18150017429
 10
114.7162431837115
 20
155.886194920681
 10
113.3351034925446
 20
155.886194920681
 10
111.9829026225447
 20
155.886194920681
 10
108.3414342923792
 20
156.1251124501957
 10
106.2595617172429
 20
153.4105476718098
 97
        0
 75
     2
 76
     1
 98
        0
  0
ENDBLK
  5
6AD
330
6A2
100
AcDbEntity
  8
0
100
AcDbBlockEnd
  0
BLOCK
  5
DE3
330
DE2
100
AcDbEntity
  8
0
100
AcDbBlockBegin
  2
*D6
 70
     1
 10
0.0
 20
0.0
 30
0.0
  3
*D6
  1
*D6
  0
LINE
  5
DE5
330
DE2
100
AcDbEntity
  8
MODEL
 62
     0
370
    -2
100
AcDbLine
 10
161.1034074769353
 20
380.8776795820364
 30
0.0
 11
147.511394287666
 21
380.8776795820364
 31
0.0
  0
LINE
  5
DE6
330
DE2
100
AcDbEntity
  8
MODEL
 62
     0
370
    -2
100
AcDbLine
 10
161.1034074769353
 20
304.2036367169111
 30
0.0
 11
147.511394287666
 21
304.2036367169111
 31
0.0
  0
LINE
  5
DE7
330
DE2
100
AcDbEntity
  8
MODEL
 62
     0
370
    -2
100
AcDbLine
 10
147.511394287666
 20
378.8776795820364
 30
0.0
 11
147.511394287666
 21
306.2036367169111
 31
0.0
  0
INSERT
  5
DE8
330
DE2
100
AcDbEntity
  8
MODEL
 62
     0
370
    -2
100
AcDbBlockReference
  2
_DOT
 10
147.511394287666
 20
380.8776795820364
 30
0.0
 41
2.0
 42
2.0
 43
2.0
 50
90.0
  0
INSERT
  5
DE9
330
DE2
100
AcDbEntity
  8
MODEL
 62
     0
370
    -2
100
AcDbBlockReference
  2
_DOT
 10
147.511394287666
 20
304.2036367169111
 30
0.0
 41
2.0
 42
2.0
 43
2.0
 50
270.0
  0
MTEXT
  5
DEA
330
DE2
100
AcDbEntity
  8
MODEL
 62
     0
100
AcDbMText
 10
134.511394287666
 20
342.5406581494738
 30
0.0
 40
6.0
 41
0.0
 46
0.0
 71
     5
 72
     1
  1
\A1;77
  7
ＭＳ ゴシック
 11
0.0
 21
1.0
 31
0.0
 73
     1
 44
1.0
  0
POINT
  5
DEB
330
DE2
100
AcDbEntity
  8
Defpoints
 62
     0
100
AcDbPoint
 10
171.1034074769353
 20
380.8776795820364
 30
0.0
  0
POINT
  5
DEC
330
DE2
100
AcDbEntity
  8
Defpoints
 62
     0
100
AcDbPoint
 10
171.1034074769353
 20
304.2036367169111
 30
0.0
  0
POINT
  5
DED
330
DE2
100
AcDbEntity
  8
Defpoints
 62
     0
100
AcDbPoint
 10
147.511394287666
 20
304.2036367169111
 30
0.0
  0
ENDBLK
  5
DE4
330
DE2
100
AcDbEntity
  8
0
100
AcDbBlockEnd
  0
BLOCK
  5
DFC
330
DFB
100
AcDbEntity
  8
0
100
AcDbBlockBegin
  2
*D7
 70
     1
 10
0.0
 20
0.0
 30
0.0
  3
*D7
  1
*D7
  0
LINE
  5
DFE
330
DFB
100
AcDbEntity
  8
MODEL
 62
     0
370
    -2
100
AcDbLine
 10
171.1034074769353
 20
294.2036367169111
 30
0.0
 11
171.1034074769353
 21
281.0428872399151
 31
0.0
  0
LINE
  5
DFF
330
DFB
100
AcDbEntity
  8
MODEL
 62
     0
370
    -2
100
AcDbLine
 10
281.8112876816255
 20
294.2036367169111
 30
0.0
 11
281.8112876816255
 21
281.0428872399151
 31
0.0
  0
LINE
  5
E00
330
DFB
100
AcDbEntity
  8
MODEL
 62
     0
370
    -2
100
AcDbLine
 10
172.1034074769353
 20
281.0428872399151
 30
0.0
 11
280.8112876816255
 21
281.0428872399151
 31
0.0
  0
INSERT
  5
E01
330
DFB
100
AcDbEntity
  8
MODEL
 62
     0
370
    -2
100
AcDbBlockReference
  2
_DOT
 10
171.1034074769353
 20
281.0428872399151
 30
0.0
 50
180.0
  0
INSERT
  5
E02
330
DFB
100
AcDbEntity
  8
MODEL
 62
     0
370
    -2
100
AcDbBlockReference
  2
_DOT
 10
281.8112876816255
 20
281.0428872399151
 30
0.0
  0
MTEXT
  5
E03
330
DFB
100
AcDbEntity
  8
MODEL
 62
     0
100
AcDbMText
 10
226.4573475792804
 20
294.0428872399151
 30
0.0
 40
6.0
 41
0.0
 46
0.0
 71
     5
 72
     1
  1
\A1;111
  7
ＭＳ ゴシック
 73
     1
 44
1.0
  0
POINT
  5
E04
330
DFB
100
AcDbEntity
  8
Defpoints
 62
     0
100
AcDbPoint
 10
171.1034074769353
 20
304.2036367169111
 30
0.0
  0
POINT
  5
E05
330
DFB
100
AcDbEntity
  8
Defpoints
 62
     0
100
AcDbPoint
 10
281.8112876816255
 20
304.2036367169111
 30
0.0
  0
POINT
  5
E06
330
DFB
100
AcDbEntity
  8
Defpoints
 62
     0
100
AcDbPoint
 10
281.8112876816255
 20
281.0428872399151
 30
0.0
  0
ENDBLK
  5
DFD
330
DFB
100
AcDbEntity
  8
0
100
AcDbBlockEnd
  0
BLOCK
  5
E0B
330
E0A
100
AcDbEntity
  8
0
100
AcDbBlockBegin
  2
*D8
 70
     1
 10
0.0
 20
0.0
 30
0.0
  3
*D8
  1
*D8
  0
LINE
  5
E0D
330
E0A
100
AcDbEntity
  8
MODEL
 62
     0
370
    -2
100
AcDbLine
 10
171.1034074769353
 20
299.2036367169111
 30
0.0
 11
171.1034074769353
 21
267.8986082141417
 31
0.0
  0
LINE
  5
E0E
330
E0A
100
AcDbEntity
  8
MODEL
 62
     0
370
    -2
100
AcDbLine
 10
279.4792180651414
 20
299.2036367169111
 30
0.0
 11
279.4792180651414
 21
267.8986082141417
 31
0.0
  0
LINE
  5
E0F
330
E0A
100
AcDbEntity
  8
MODEL
 62
     0
370
    -2
100
AcDbLine
 10
173.1034074769353
 20
267.8986082141417
 30
0.0
 11
277.4792180651414
 21
267.8986082141417
 31
0.0
  0
INSERT
  5
E10
330
E0A
100
AcDbEntity
  8
MODEL
 62
     0
370
    -2
100
AcDbBlockReference
  2
_DOT
 10
171.1034074769353
 20
267.8986082141417
 30
0.0
 41
2.0
 42
2.0
 43
2.0
 50
180.0
  0
INSERT
  5
E11
330
E0A
100
AcDbEntity
  8
MODEL
 62
     0
370
    -2
100
AcDbBlockReference
  2
_DOT
 10
279.4792180651414
 20
267.8986082141417
 30
0.0
 41
2.0
 42
2.0
 43
2.0
  0
MTEXT
  5
E12
330
E0A
100
AcDbEntity
  8
MODEL
 62
     0
100
AcDbMText
 10
225.2913127710383
 20
275.8986082141417
 30
0.0
 40
6.0
 41
0.0
 46
0.0
 71
     5
 72
     1
  1
\A1;108
  7
ＭＳ ゴシック
 73
     1
 44
1.0
  0
POINT
  5
E13
330
E0A
100
AcDbEntity
  8
Defpoints
 62
     0
100
AcDbPoint
 10
171.1034074769353
 20
304.2036367169111
 30
0.0
  0
POINT
  5
E14
330
E0A
100
AcDbEntity
  8
Defpoints
 62
     0
100
AcDbPoint
 10
279.4792180651414
 20
304.2036367169111
 30
0.0
  0
POINT
  5
E15
330
E0A
100
AcDbEntity
  8
Defpoints
 62
     0
100
AcDbPoint
 10
279.4792180651414
 20
267.8986082141417
 30
0.0
  0
ENDBLK
  5
E0C
330
E0A
100
AcDbEntity
  8
0
100
AcDbBlockEnd
  0
BLOCK
  5
E30
330
E2F
100
AcDbEntity
  8
0
100
AcDbBlockBegin
  2
*D9
 70
     1
 10
0.0
 20
0.0
 30
0.0
  3
*D9
  1
*D9
  0
LINE
  5
E32
330
E2F
100
AcDbEntity
  8
MODEL
 62
     0
370
    -2
100
AcDbLine
 10
284.4792180651414
 20
380.8776795820364
 30
0.0
 11
311.9195846368371
 21
380.8776795820364
 31
0.0
  0
LINE
  5
E33
330
E2F
100
AcDbEntity
  8
MODEL
 62
     0
370
    -2
100
AcDbLine
 10
284.4792180651414
 20
304.2036367169111
 30
0.0
 11
311.9195846368371
 21
304.2036367169111
 31
0.0
  0
LINE
  5
E34
330
E2F
100
AcDbEntity
  8
MODEL
 62
     0
370
    -2
100
AcDbLine
 10
311.9195846368371
 20
378.8776795820364
 30
0.0
 11
311.9195846368371
 21
306.2036367169111
 31
0.0
  0
INSERT
  5
E35
330
E2F
100
AcDbEntity
  8
MODEL
 62
     0
370
    -2
100
AcDbBlockReference
  2
_DOT
 10
311.9195846368371
 20
380.8776795820364
 30
0.0
 41
2.0
 42
2.0
 43
2.0
 50
90.0
  0
INSERT
  5
E36
330
E2F
100
AcDbEntity
  8
MODEL
 62
     0
370
    -2
100
AcDbBlockReference
  2
_DOT
 10
311.9195846368371
 20
304.2036367169111
 30
0.0
 41
2.0
 42
2.0
 43
2.0
 50
270.0
  0
MTEXT
  5
E37
330
E2F
100
AcDbEntity
  8
MODEL
 62
     0
100
AcDbMText
 10
303.9195846368371
 20
342.5406581494738
 30
0.0
 40
6.0
 41
0.0
 46
0.0
 71
     5
 72
     1
  1
\A1;77
  7
ＭＳ ゴシック
 11
0.0
 21
1.0
 31
0.0
 73
     1
 44
1.0
  0
POINT
  5
E38
330
E2F
100
AcDbEntity
  8
Defpoints
 62
     0
100
AcDbPoint
 10
279.4792180651414
 20
380.8776795820364
 30
0.0
  0
POINT
  5
E39
330
E2F
100
AcDbEntity
  8
Defpoints
 62
     0
100
AcDbPoint
 10
279.4792180651414
 20
304.2036367169111
 30
0.0
  0
POINT
  5
E3A
330
E2F
100
AcDbEntity
  8
Defpoints
 62
     0
100
AcDbPoint
 10
311.9195846368371
 20
304.2036367169111
 30
0.0
  0
ENDBLK
  5
E31
330
E2F
100
AcDbEntity
  8
0
100
AcDbBlockEnd
  0
BLOCK
  5
E3D
330
E3C
100
AcDbEntity
  8
0
100
AcDbBlockBegin
  2
*D10
 70
     1
 10
0.0
 20
0.0
 30
0.0
  3
*D10
  1
*D10
  0
LINE
  5
E3F
330
E3C
100
AcDbEntity
  8
MODEL
 62
     0
370
    -2
100
AcDbLine
 10
166.1034074769353
 20
380.8776795820364
 30
0.0
 11
143.4443285691862
 21
380.8776795820364
 31
0.0
  0
LINE
  5
E40
330
E3C
100
AcDbEntity
  8
MODEL
 62
     0
370
    -2
100
AcDbLine
 10
166.1034074769353
 20
302.1222733879492
 30
0.0
 11
143.4443285691862
 21
302.1222733879492
 31
0.0
  0
LINE
  5
E41
330
E3C
100
AcDbEntity
  8
MODEL
 62
     0
370
    -2
100
AcDbLine
 10
143.4443285691862
 20
378.8776795820364
 30
0.0
 11
143.4443285691862
 21
304.1222733879492
 31
0.0
  0
INSERT
  5
E42
330
E3C
100
AcDbEntity
  8
MODEL
 62
     0
370
    -2
100
AcDbBlockReference
  2
_DOT
 10
143.4443285691862
 20
380.8776795820364
 30
0.0
 41
2.0
 42
2.0
 43
2.0
 50
90.0
  0
INSERT
  5
E43
330
E3C
100
AcDbEntity
  8
MODEL
 62
     0
370
    -2
100
AcDbBlockReference
  2
_DOT
 10
143.4443285691862
 20
302.1222733879492
 30
0.0
 41
2.0
 42
2.0
 43
2.0
 50
270.0
  0
MTEXT
  5
E44
330
E3C
100
AcDbEntity
  8
MODEL
 62
     0
100
AcDbMText
 10
135.4443285691862
 20
341.4999764849928
 30
0.0
 40
6.0
 41
0.0
 46
0.0
 71
     5
 72
     1
  1
\A1;79
  7
ＭＳ ゴシック
 11
0.0
 21
1.0
 31
0.0
 73
     1
 44
1.0
  0
POINT
  5
E45
330
E3C
100
AcDbEntity
  8
Defpoints
 62
     0
100
AcDbPoint
 10
171.1034074769353
 20
380.8776795820364
 30
0.0
  0
POINT
  5
E46
330
E3C
100
AcDbEntity
  8
Defpoints
 62
     0
100
AcDbPoint
 10
171.1034074769353
 20
302.1222733879492
 30
0.0
  0
POINT
  5
E47
330
E3C
100
AcDbEntity
  8
Defpoints
 62
     0
100
AcDbPoint
 10
143.4443285691862
 20
302.1222733879492
 30
0.0
  0
ENDBLK
  5
E3E
330
E3C
100
AcDbEntity
  8
0
100
AcDbBlockEnd
  0
BLOCK
  5
E4C
330
E4B
100
AcDbEntity
  8
0
100
AcDbBlockBegin
  2
*D11
 70
     1
 10
0.0
 20
0.0
 30
0.0
  3
*D11
  1
*D11
  0
LINE
  5
E4E
330
E4B
100
AcDbEntity
  8
MODEL
 62
     0
370
    -2
100
AcDbLine
 10
166.1034074769353
 20
380.8776795820364
 30
0.0
 11
104.1922887661108
 21
380.8776795820364
 31
0.0
  0
LINE
  5
E4F
330
E4B
100
AcDbEntity
  8
MODEL
 62
     0
370
    -2
100
AcDbLine
 10
138.4443285691862
 20
302.1222733879492
 30
0.0
 11
104.1922887661108
 21
302.1222733879492
 31
0.0
  0
LINE
  5
E50
330
E4B
100
AcDbEntity
  8
MODEL
 62
     0
370
    -2
100
AcDbLine
 10
104.1922887661108
 20
378.8776795820364
 30
0.0
 11
104.1922887661108
 21
304.1222733879492
 31
0.0
  0
INSERT
  5
E51
330
E4B
100
AcDbEntity
  8
MODEL
 62
     0
370
    -2
100
AcDbBlockReference
  2
_DOT
 10
104.1922887661108
 20
380.8776795820364
 30
0.0
 41
2.0
 42
2.0
 43
2.0
 50
90.0
  0
INSERT
  5
E52
330
E4B
100
AcDbEntity
  8
MODEL
 62
     0
370
    -2
100
AcDbBlockReference
  2
_DOT
 10
104.1922887661108
 20
302.1222733879492
 30
0.0
 41
2.0
 42
2.0
 43
2.0
 50
270.0
  0
MTEXT
  5
E53
330
E4B
100
AcDbEntity
  8
MODEL
 62
     0
100
AcDbMText
 10
96.19228876611083
 20
341.4999764849928
 30
0.0
 40
6.0
 41
0.0
 46
0.0
 71
     5
 72
     1
  1
\A1;79
  7
ＭＳ ゴシック
 11
0.0
 21
1.0
 31
0.0
 73
     1
 44
1.0
  0
POINT
  5
E54
330
E4B
100
AcDbEntity
  8
Defpoints
 62
     0
100
AcDbPoint
 10
171.1034074769353
 20
380.8776795820364
 30
0.0
  0
POINT
  5
E55
330
E4B
100
AcDbEntity
  8
Defpoints
 62
     0
100
AcDbPoint
 10
143.4443285691862
 20
302.1222733879492
 30
0.0
  0
POINT
  5
E56
330
E4B
100
AcDbEntity
  8
Defpoints
 62
     0
100
AcDbPoint
 10
104.1922887661108
 20
302.1222733879492
 30
0.0
  0
ENDBLK
  5
E4D
330
E4B
100
AcDbEntity
  8
0
100
AcDbBlockEnd
  0
BLOCK
  5
135A
330
1359
100
AcDbEntity
  8
0
100
AcDbBlockBegin
  2
*D12
 70
     1
 10
0.0
 20
0.0
 30
0.0
  3
*D12
  1
*D13
  0
LINE
  5
135C
330
1359
100
AcDbEntity
  8
MODEL
 62
     0
370
    -2
100
AcDbLine
 10
548.2284731044069
 20
441.9603092073116
 30
0.0
 11
548.2284731044069
 21
463.2612220844572
 31
0.0
  0
LINE
  5
135D
330
1359
100
AcDbEntity
  8
MODEL
 62
     0
370
    -2
100
AcDbLine
 10
559.7284731044069
 20
441.9603092073116
 30
0.0
 11
559.7284731044069
 21
463.2612220844572
 31
0.0
  0
LINE
  5
135E
330
1359
100
AcDbEntity
  8
MODEL
 62
     0
370
    -2
100
AcDbLine
 10
546.2284731044069
 20
463.2612220844572
 30
0.0
 11
544.2284731044069
 21
463.2612220844572
 31
0.0
  0
LINE
  5
135F
330
1359
100
AcDbEntity
  8
MODEL
 62
     0
370
    -2
100
AcDbLine
 10
561.7284731044069
 20
463.2612220844572
 30
0.0
 11
563.7284731044069
 21
463.2612220844572
 31
0.0
  0
INSERT
  5
1360
330
1359
100
AcDbEntity
  8
MODEL
 62
     0
370
    -2
100
AcDbBlockReference
  2
_DOT
 10
548.2284731044069
 20
463.2612220844572
 30
0.0
 41
2.0
 42
2.0
 43
2.0
  0
INSERT
  5
1361
330
1359
100
AcDbEntity
  8
MODEL
 62
     0
370
    -2
100
AcDbBlockReference
  2
_DOT
 10
559.7284731044069
 20
463.2612220844572
 30
0.0
 41
2.0
 42
2.0
 43
2.0
 50
180.0
  0
MTEXT
  5
1362
330
1359
100
AcDbEntity
  8
MODEL
 62
     0
100
AcDbMText
 10
553.9784731044069
 20
471.2612220844572
 30
0.0
 40
6.0
 41
0.0
 46
0.0
 71
     5
 72
     1
  1
\A1;12
  7
ＭＳ ゴシック
 73
     1
 44
1.0
  0
POINT
  5
1363
330
1359
100
AcDbEntity
  8
Defpoints
 62
     0
100
AcDbPoint
 10
548.2284731044069
 20
436.9603092073116
 30
0.0
  0
POINT
  5
1364
330
1359
100
AcDbEntity
  8
Defpoints
 62
     0
100
AcDbPoint
 10
559.7284731044069
 20
436.9603092073116
 30
0.0
  0
POINT
  5
1365
330
1359
100
AcDbEntity
  8
Defpoints
 62
     0
100
AcDbPoint
 10
559.7284731044069
 20
463.2612220844572
 30
0.0
  0
ENDBLK
  5
135B
330
1359
100
AcDbEntity
  8
0
100
AcDbBlockEnd
  0
BLOCK
  5
136A
330
1369
100
AcDbEntity
  8
0
100
AcDbBlockBegin
  2
*D13
 70
     1
 10
0.0
 20
0.0
 30
0.0
  3
*D13
  1
*D14
  0
LINE
  5
136C
330
1369
100
AcDbEntity
  8
MODEL
 62
     0
370
    -2
100
AcDbLine
 10
842.165124443079
 20
201.1534664927506
 30
0.0
 11
842.165124443079
 21
156.4998870133462
 31
0.0
  0
LINE
  5
136D
330
1369
100
AcDbEntity
  8
MODEL
 62
     0
370
    -2
100
AcDbLine
 10
777.1497361855033
 20
201.1534664927506
 30
0.0
 11
777.1497361855033
 21
156.4998870133462
 31
0.0
  0
LINE
  5
136E
330
1369
100
AcDbEntity
  8
MODEL
 62
     0
370
    -2
100
AcDbLine
 10
840.165124443079
 20
156.4998870133462
 30
0.0
 11
779.1497361855033
 21
156.4998870133462
 31
0.0
  0
INSERT
  5
136F
330
1369
100
AcDbEntity
  8
MODEL
 62
     0
370
    -2
100
AcDbBlockReference
  2
_DOT
 10
842.165124443079
 20
156.4998870133462
 30
0.0
 41
2.0
 42
2.0
 43
2.0
  0
INSERT
  5
1370
330
1369
100
AcDbEntity
  8
MODEL
 62
     0
370
    -2
100
AcDbBlockReference
  2
_DOT
 10
777.1497361855033
 20
156.4998870133462
 30
0.0
 41
2.0
 42
2.0
 43
2.0
 50
180.0
  0
MTEXT
  5
1371
330
1369
100
AcDbEntity
  8
MODEL
 62
     0
100
AcDbMText
 10
809.6574303142911
 20
164.4998870133462
 30
0.0
 40
6.0
 41
0.0
 46
0.0
 71
     5
 72
     1
  1
\A1;65.01538826
  7
ＭＳ ゴシック
 73
     1
 44
1.0
  0
POINT
  5
1372
330
1369
100
AcDbEntity
  8
Defpoints
 62
     0
100
AcDbPoint
 10
842.165124443079
 20
206.1534664927506
 30
0.0
  0
POINT
  5
1373
330
1369
100
AcDbEntity
  8
Defpoints
 62
     0
100
AcDbPoint
 10
777.1497361855033
 20
206.1534664927506
 30
0.0
  0
POINT
  5
1374
330
1369
100
AcDbEntity
  8
Defpoints
 62
     0
100
AcDbPoint
 10
777.1497361855033
 20
156.4998870133462
 30
0.0
  0
ENDBLK
  5
136B
330
1369
100
AcDbEntity
  8
0
100
AcDbBlockEnd
  0
BLOCK
  5
1379
330
1378
100
AcDbEntity
  8
0
100
AcDbBlockBegin
  2
*D14
 70
     1
 10
0.0
 20
0.0
 30
0.0
  3
*D14
  1
*D15
  0
LINE
  5
137B
330
1378
100
AcDbEntity
  8
MODEL
 62
     0
370
    -2
100
AcDbLine
 10
214.1781490651779
 20
276.5584932549572
 30
0.0
 11
214.1781490651779
 21
148.0816167402309
 31
0.0
  0
LINE
  5
137C
330
1378
100
AcDbEntity
  8
MODEL
 62
     0
370
    -2
100
AcDbLine
 10
279.1935373227535
 20
254.3032257360178
 30
0.0
 11
279.1935373227535
 21
148.0816167402309
 31
0.0
  0
LINE
  5
137D
330
1378
100
AcDbEntity
  8
MODEL
 62
     0
370
    -2
100
AcDbLine
 10
216.1781490651779
 20
148.0816167402309
 30
0.0
 11
277.1935373227535
 21
148.0816167402309
 31
0.0
  0
INSERT
  5
137E
330
1378
100
AcDbEntity
  8
MODEL
 62
     0
370
    -2
100
AcDbBlockReference
  2
_DOT
 10
214.1781490651779
 20
148.0816167402309
 30
0.0
 41
2.0
 42
2.0
 43
2.0
 50
180.0
  0
INSERT
  5
137F
330
1378
100
AcDbEntity
  8
MODEL
 62
     0
370
    -2
100
AcDbBlockReference
  2
_DOT
 10
279.1935373227535
 20
148.0816167402309
 30
0.0
 41
2.0
 42
2.0
 43
2.0
  0
MTEXT
  5
1380
330
1378
100
AcDbEntity
  8
MODEL
 62
     0
100
AcDbMText
 10
246.6858431939657
 20
156.0816167402309
 30
0.0
 40
6.0
 41
0.0
 46
0.0
 71
     5
 72
     1
  1
\A1;65
  7
ＭＳ ゴシック
 73
     1
 44
1.0
  0
POINT
  5
1381
330
1378
100
AcDbEntity
  8
Defpoints
 62
     0
100
AcDbPoint
 10
214.1781490651779
 20
281.5584932549572
 30
0.0
  0
POINT
  5
1382
330
1378
100
AcDbEntity
  8
Defpoints
 62
     0
100
AcDbPoint
 10
279.1935373227535
 20
259.3032257360178
 30
0.0
  0
POINT
  5
1383
330
1378
100
AcDbEntity
  8
Defpoints
 62
     0
100
AcDbPoint
 10
279.1935373227535
 20
148.0816167402309
 30
0.0
  0
ENDBLK
  5
137A
330
1378
100
AcDbEntity
  8
0
100
AcDbBlockEnd
  0
BLOCK
  5
193E
330
193D
100
AcDbEntity
  8
0
100
AcDbBlockBegin
  2
*D16
 70
     1
 10
0.0
 20
0.0
 30
0.0
  3
*D16
  1
*D16
  0
LINE
  5
1940
330
193D
100
AcDbEntity
  8
MODEL
 62
     0
370
    -2
100
AcDbLine
 10
1066.559439528824
 20
191.5327126030875
 30
0.0
 11
1185.016728732766
 21
191.5327126030875
 31
0.0
  0
LINE
  5
1941
330
193D
100
AcDbEntity
  8
MODEL
 62
     0
370
    -2
100
AcDbLine
 10
1066.559439528824
 20
141.5327126030876
 30
0.0
 11
1185.016728732766
 21
141.5327126030876
 31
0.0
  0
LINE
  5
1942
330
193D
100
AcDbEntity
  8
MODEL
 62
     0
370
    -2
100
AcDbLine
 10
1185.016728732766
 20
189.5327126030875
 30
0.0
 11
1185.016728732766
 21
143.5327126030876
 31
0.0
  0
INSERT
  5
1943
330
193D
100
AcDbEntity
  8
MODEL
 62
     0
370
    -2
100
AcDbBlockReference
  2
_DOT
 10
1185.016728732766
 20
191.5327126030875
 30
0.0
 41
2.0
 42
2.0
 43
2.0
 50
90.0
  0
INSERT
  5
1944
330
193D
100
AcDbEntity
  8
MODEL
 62
     0
370
    -2
100
AcDbBlockReference
  2
_DOT
 10
1185.016728732766
 20
141.5327126030876
 30
0.0
 41
2.0
 42
2.0
 43
2.0
 50
270.0
  0
MTEXT
  5
1945
330
193D
100
AcDbEntity
  8
MODEL
 62
     0
100
AcDbMText
 10
1177.016728732766
 20
166.5327126030876
 30
0.0
 40
6.0
 41
0.0
 46
0.0
 71
     5
 72
     1
  1
\A1;50
  7
ＭＳ ゴシック
 11
0.0
 21
1.0
 31
0.0
 73
     1
 44
1.0
  0
POINT
  5
1946
330
193D
100
AcDbEntity
  8
Defpoints
 62
     0
100
AcDbPoint
 10
1061.559439528824
 20
191.5327126030875
 30
0.0
  0
POINT
  5
1947
330
193D
100
AcDbEntity
  8
Defpoints
 62
     0
100
AcDbPoint
 10
1061.559439528824
 20
141.5327126030876
 30
0.0
  0
POINT
  5
1948
330
193D
100
AcDbEntity
  8
Defpoints
 62
     0
100
AcDbPoint
 10
1185.016728732766
 20
141.5327126030876
 30
0.0
  0
ENDBLK
  5
193F
330
193D
100
AcDbEntity
  8
0
100
AcDbBlockEnd
  0
ENDSEC
  0
SECTION
  2
ENTITIES
  0
MTEXT
  5
177
330
A
100
AcDbEntity
  8
TEMPLATE
390
1D
100
AcDbMText
 10
15.84042890954615
 20
68.74635032628566
 30
0.0
 40
3.257682291666666
 41
0.0
 46
0.0
 71
     1
 72
     1
  1
品名
  7
ＭＳ ゴシック
 73
     1
 44
0.7828267384257843
  0
MTEXT
  5
178
330
A
100
AcDbEntity
  8
TEMPLATE
390
1D
100
AcDbMText
 10
15.84042890954615
 20
51.74635032628562
 30
0.0
 40
3.257682291666666
 41
0.0
 46
0.0
 71
     1
 72
     1
  1
仕様
  7
ＭＳ ゴシック
 73
     1
 44
0.7828267384257843
  0
LINE
  5
179
330
A
100
AcDbEntity
  8
TEMPLATE
390
1D
100
AcDbLine
 10
404.4404289094498
 20
53.4293347012857
 30
0.0
 11
14.44042890944975
 21
53.4293347012857
 31
0.0
  0
LWPOLYLINE
  5
17A
330
A
100
AcDbEntity
  8
TEMPLATE
390
1D
100
AcDbPolyline
 90
        5
 70
   128
 43
0.0
 10
404.4404289094498
 20
579.4293347012853
 10
14.44042890944975
 20
579.4293347012853
 10
14.44042890944975
 20
19.42933470128565
 10
404.4404289094498
 20
19.42933470128565
 10
404.4404289094498
 20
579.4293347012853
  0
LINE
  5
17B
330
A
100
AcDbEntity
  8
TEMPLATE
390
1D
100
AcDbLine
 10
404.4404289094498
 20
70.42933470128563
 30
0.0
 11
14.44042890944975
 21
70.42933470128563
 31
0.0
  0
LINE
  5
17C
330
A
100
AcDbEntity
  8
TEMPLATE
390
1D
100
AcDbLine
 10
404.4404289095462
 20
36.42933470128564
 30
0.0
 11
253.840428909546
 21
36.42933470128564
 31
0.0
  0
MTEXT
  5
17D
330
A
100
AcDbEntity
  8
TEMPLATE
390
1D
100
AcDbMText
 10
14.4404289095869
 20
17.05857028991423
 30
0.0
 40
4.343576388888888
 41
0.0
 46
4.343576388888888
 71
     1
 72
     1
  1
{150714SO}
  7
ＭＳ ゴシック
 73
     1
 44
0.7828267384257843
1001
ACAD
1000
ACAD_MTEXT_DEFINED_HEIGHT_BEGIN
1070
    46
1040
4.343576388888888
1000
ACAD_MTEXT_DEFINED_HEIGHT_END
  0
MTEXT
  5
17E
330
A
100
AcDbEntity
  8
TEMPLATE
390
1D
100
AcDbMText
 10
259.8147101599982
 20
30.44725580662402
 30
0.0
 40
4.8865234375
 41
0.0
 46
0.0
 71
     1
 72
     1
  1
大洋金物株式会社 ティーフォルム事業部
  7
ＭＳ ゴシック
 73
     1
 44
0.7828267384257843
  0
MTEXT
  5
180
330
A
100
AcDbEntity
  8
TEMPLATE
390
1D
100
AcDbMText
 10
366.240428909598
 20
46.02985813878562
 30
0.0
 40
4.8865234375
 41
0.0
 46
4.8865234375
 71
     1
 72
     1
  1
{1:2}
  7
ＭＳ ゴシック
 73
     1
 44
0.7828267384257843
1001
ACAD
1000
ACAD_MTEXT_DEFINED_HEIGHT_BEGIN
1070
    46
1040
4.8865234375
1000
ACAD_MTEXT_DEFINED_HEIGHT_END
  0
MTEXT
  5
181
330
A
100
AcDbEntity
  8
TEMPLATE
390
1D
100
AcDbMText
 10
355.640428909598
 20
51.74635032628562
 30
0.0
 40
3.257682291666666
 41
0.0
 46
0.0
 71
     1
 72
     1
  1
縮尺
  7
ＭＳ ゴシック
 73
     1
 44
0.7828267384257843
  0
LINE
  5
182
330
A
100
AcDbEntity
  8
TEMPLATE
390
1D
100
AcDbLine
 10
354.240428909598
 20
36.42933470128564
 30
0.0
 11
354.240428909598
 21
53.4293347012857
 31
0.0
  0
MTEXT
  5
183
330
A
100
AcDbEntity
  8
TEMPLATE
390
1D
100
AcDbMText
 10
305.440428909598
 20
51.74635032628562
 30
0.0
 40
3.257682291666666
 41
0.0
 46
0.0
 71
     1
 72
     1
  1
容量
  7
ＭＳ ゴシック
 73
     1
 44
0.7828267384257843
  0
LINE
  5
184
330
A
100
AcDbEntity
  8
TEMPLATE
390
1D
100
AcDbLine
 10
304.040428909598
 20
36.42933470128564
 30
0.0
 11
304.040428909598
 21
53.4293347012857
 31
0.0
  0
MTEXT
  5
185
330
A
100
AcDbEntity
  8
TEMPLATE
390
1D
100
AcDbMText
 10
255.240428909598
 20
68.74635032628566
 30
0.0
 40
3.257682291666666
 41
0.0
 46
0.0
 71
     1
 72
     1
  1
品番
  7
ＭＳ ゴシック
 73
     1
 44
0.7828267384257843
  0
MTEXT
  5
186
330
A
100
AcDbEntity
  8
TEMPLATE
390
1D
100
AcDbMText
 10
255.240428909598
 20
51.74635032628562
 30
0.0
 40
3.257682291666666
 41
0.0
 46
0.0
 71
     1
 72
     1
  1
重量
  7
ＭＳ ゴシック
 73
     1
 44
0.7828267384257843
  0
MTEXT
  5
187
330
A
100
AcDbEntity
  8
TEMPLATE
390
1D
100
AcDbMText
 10
265.840428909598
 20
63.02985813878564
 30
0.0
 40
4.8865234375
 41
0.0
 46
4.8865234375
 71
     1
 72
     1
  1
{FHT73-3303}
  7
ＭＳ ゴシック
 73
     1
 44
0.7828267384257843
1001
ACAD
1000
ACAD_MTEXT_DEFINED_HEIGHT_BEGIN
1070
    46
1040
4.8865234375
1000
ACAD_MTEXT_DEFINED_HEIGHT_END
  0
LINE
  5
188
330
A
100
AcDbEntity
  8
TEMPLATE
390
1D
100
AcDbLine
 10
253.840428909598
 20
19.42933470128565
 30
0.0
 11
253.840428909598
 21
70.42933470128563
 31
0.0
  0
MTEXT
  5
189
330
A
100
AcDbEntity
  8
TEMPLATE
390
1D
100
AcDbMText
 10
26.44042890954614
 20
63.02985813878564
 30
0.0
 40
4.8865234375
 41
0.0
 46
4.8865234375
 71
     1
 72
     1
  1
{シャワーフック　-GROHE-}
  7
ＭＳ ゴシック
 73
     1
 44
0.7828267384257843
1001
ACAD
1000
ACAD_MTEXT_DEFINED_HEIGHT_BEGIN
1070
    46
1040
4.8865234375
1000
ACAD_MTEXT_DEFINED_HEIGHT_END
  0
INSERT
  5
6B5
330
A
100
AcDbEntity
  8
TEMPLATE
100
AcDbBlockReference
  2
名称未設定-1
 10
374.15014961769
 20
5.189353151330762
 30
0.0
 41
0.1524
 42
0.1524
 43
0.1524
  0
INSERT
  5
68C
330
A
100
AcDbEntity
  8
TEMPLATE
100
AcDbBlockReference
  2
block 2
 10
1838.548603540515
 20
16.74615302867274
 30
0.0
 41
0.7619999999999998
 42
0.7619999999999998
 43
0.7619999999999998
  0
LINE
  5
1679
330
A
100
AcDbEntity
  8
DIM
100
AcDbLine
 10
353.0357277437807
 20
230.6598970503146
 30
0.0
 11
353.0357277437807
 21
207.6598970503146
 31
0.0
  0
LINE
  5
167A
330
A
100
AcDbEntity
  8
DIM
100
AcDbLine
 10
353.0357277437807
 20
230.6598970503146
 30
0.0
 11
354.5886477437806
 21
224.8643430503147
 31
0.0
  0
LINE
  5
167B
330
A
100
AcDbEntity
  8
DIM
100
AcDbLine
 10
353.0357277437807
 20
230.6598970503146
 30
0.0
 11
351.4828217437806
 21
224.8643390503147
 31
0.0
  0
LINE
  5
167C
330
A
100
AcDbEntity
  8
DIM
100
AcDbLine
 10
353.0357277437807
 20
207.6598970503146
 30
0.0
 11
351.4828057437807
 21
213.4554510503147
 31
0.0
  0
LINE
  5
167D
330
A
100
AcDbEntity
  8
DIM
100
AcDbLine
 10
353.0357277437807
 20
207.6598970503146
 30
0.0
 11
354.5886317437806
 21
213.4554550503146
 31
0.0
  0
LINE
  5
167E
330
A
100
AcDbEntity
  8
DIM
100
AcDbLine
 10
331.5693657437806
 20
230.6598970503146
 30
0.0
 11
357.6077557437806
 21
230.6598970503146
 31
0.0
  0
LINE
  5
167F
330
A
100
AcDbEntity
  8
DIM
100
AcDbLine
 10
331.5693657437806
 20
207.6598970503146
 30
0.0
 11
357.6077477437806
 21
207.6598970503146
 31
0.0
  0
LINE
  5
1680
330
A
100
AcDbEntity
  8
DIM
100
AcDbLine
 10
376.2041297437808
 20
240.6598970503146
 30
0.0
 11
376.2041297437808
 21
190.6598970503147
 31
0.0
  0
LINE
  5
1681
330
A
100
AcDbEntity
  8
DIM
100
AcDbLine
 10
376.2041297437808
 20
240.6598970503146
 30
0.0
 11
377.7570517437806
 21
234.8643430503147
 31
0.0
  0
LINE
  5
1682
330
A
100
AcDbEntity
  8
DIM
100
AcDbLine
 10
376.2041297437808
 20
240.6598970503146
 30
0.0
 11
374.6512257437806
 21
234.8643390503147
 31
0.0
  0
LINE
  5
1683
330
A
100
AcDbEntity
  8
DIM
100
AcDbLine
 10
376.2041297437808
 20
190.6598970503147
 30
0.0
 11
374.6512097437807
 21
196.4554510503147
 31
0.0
  0
LINE
  5
1684
330
A
100
AcDbEntity
  8
DIM
100
AcDbLine
 10
376.2041297437808
 20
190.6598970503147
 30
0.0
 11
377.7570357437806
 21
196.4554550503146
 31
0.0
  0
LINE
  5
1685
102
{ACAD_REACTORS
102
}
330
A
100
AcDbEntity
  8
DIM
100
AcDbLine
 10
285.4319137437807
 20
240.6598970503146
 30
0.0
 11
379.7761297437806
 21
240.6598970503146
 31
0.0
  0
LINE
  5
1686
102
{ACAD_REACTORS
102
}
330
A
100
AcDbEntity
  8
DIM
100
AcDbLine
 10
285.4319137437807
 20
190.6598970503147
 30
0.0
 11
380.7761297437806
 21
190.6598970503147
 31
0.0
  0
LINE
  5
1687
330
A
100
AcDbEntity
  8
DIM
100
AcDbLine
 10
242.9319137437807
 20
157.4949810503147
 30
0.0
 11
285.9319137437807
 21
157.4949810503147
 31
0.0
  0
LINE
  5
1688
330
A
100
AcDbEntity
  8
DIM
100
AcDbLine
 10
242.9319137437807
 20
157.4949810503147
 30
0.0
 11
248.7274697437807
 21
159.0478930503147
 31
0.0
  0
LINE
  5
1689
330
A
100
AcDbEntity
  8
DIM
100
AcDbLine
 10
242.9319137437807
 20
157.4949810503147
 30
0.0
 11
248.7274697437807
 21
155.9420670503147
 31
0.0
  0
LINE
  5
168A
330
A
100
AcDbEntity
  8
DIM
100
AcDbLine
 10
285.9319137437807
 20
157.4949810503147
 30
0.0
 11
280.1363577437806
 21
155.9420670503147
 31
0.0
  0
LINE
  5
168B
330
A
100
AcDbEntity
  8
DIM
100
AcDbLine
 10
285.9319137437807
 20
157.4949810503147
 30
0.0
 11
280.1363577437806
 21
159.0478930503147
 31
0.0
  0
LINE
  5
168C
330
A
100
AcDbEntity
  8
DIM
100
AcDbLine
 10
242.9319137437807
 20
208.6598970503146
 30
0.0
 11
242.9319137437807
 21
152.9229810503147
 31
0.0
  0
LINE
  5
168D
330
A
100
AcDbEntity
  8
DIM
100
AcDbLine
 10
285.9319137437807
 20
193.9098970503147
 30
0.0
 11
285.9319137437807
 21
152.9229810503147
 31
0.0
  0
LINE
  5
168E
330
A
100
AcDbEntity
  8
DIM
100
AcDbLine
 10
90.63784183564485
 20
487.9989329416171
 30
0.0
 11
125.6378418356448
 21
487.9989329416171
 31
0.0
  0
LINE
  5
168F
330
A
100
AcDbEntity
  8
DIM
100
AcDbLine
 10
90.63784183564485
 20
487.9989329416171
 30
0.0
 11
96.43339783564488
 21
489.551844941617
 31
0.0
  0
LINE
  5
1690
330
A
100
AcDbEntity
  8
DIM
100
AcDbLine
 10
90.63784183564485
 20
487.9989329416171
 30
0.0
 11
96.43339783564488
 21
486.446018941617
 31
0.0
  0
LINE
  5
1691
330
A
100
AcDbEntity
  8
DIM
100
AcDbLine
 10
125.6378418356448
 20
487.9989329416171
 30
0.0
 11
119.8422858356448
 21
486.446018941617
 31
0.0
  0
LINE
  5
1692
330
A
100
AcDbEntity
  8
DIM
100
AcDbLine
 10
125.6378418356448
 20
487.9989329416171
 30
0.0
 11
119.8422858356448
 21
489.551844941617
 31
0.0
  0
LINE
  5
1693
330
A
100
AcDbEntity
  8
DIM
100
AcDbLine
 10
90.63784183564485
 20
425.8273629416171
 30
0.0
 11
90.63784183564485
 21
492.5709549416172
 31
0.0
  0
LINE
  5
1694
330
A
100
AcDbEntity
  8
DIM
100
AcDbLine
 10
125.6378418356448
 20
425.8273629416171
 30
0.0
 11
125.6378418356448
 21
492.5709549416172
 31
0.0
  0
LINE
  5
1695
330
A
100
AcDbEntity
  8
DIM
100
AcDbLine
 10
108.1378418356448
 20
317.9429629416169
 30
0.0
 11
141.1378418356448
 21
317.9429629416169
 31
0.0
  0
LINE
  5
1696
330
A
100
AcDbEntity
  8
DIM
100
AcDbLine
 10
108.1378418356448
 20
317.9429629416169
 30
0.0
 11
113.9333978356449
 21
319.495876941617
 31
0.0
  0
LINE
  5
1697
330
A
100
AcDbEntity
  8
DIM
100
AcDbLine
 10
108.1378418356448
 20
317.9429629416169
 30
0.0
 11
113.9333978356449
 21
316.3900509416171
 31
0.0
  0
LINE
  5
1698
330
A
100
AcDbEntity
  8
DIM
100
AcDbLine
 10
141.1378418356448
 20
317.9429629416169
 30
0.0
 11
135.3422858356448
 21
316.3900509416171
 31
0.0
  0
LINE
  5
1699
330
A
100
AcDbEntity
  8
DIM
100
AcDbLine
 10
141.1378418356448
 20
317.9429629416169
 30
0.0
 11
135.3422858356448
 21
319.495876941617
 31
0.0
  0
LINE
  5
169A
330
A
100
AcDbEntity
  8
DIM
100
AcDbLine
 10
108.1378418356448
 20
361.0773629416171
 30
0.0
 11
108.1378418356448
 21
313.370972941617
 31
0.0
  0
LINE
  5
169B
330
A
100
AcDbEntity
  8
DIM
100
AcDbLine
 10
141.1378418356448
 20
361.0773629416171
 30
0.0
 11
141.1378418356448
 21
313.370972941617
 31
0.0
  0
LINE
  5
169C
330
A
100
AcDbEntity
  8
DIM
100
AcDbLine
 10
141.1378418356448
 20
317.9429629416169
 30
0.0
 11
161.1378418356448
 21
317.9429629416169
 31
0.0
  0
LINE
  5
169D
330
A
100
AcDbEntity
  8
DIM
100
AcDbLine
 10
141.1378418356448
 20
317.9429629416169
 30
0.0
 11
146.9333978356449
 21
319.495876941617
 31
0.0
  0
LINE
  5
169E
330
A
100
AcDbEntity
  8
DIM
100
AcDbLine
 10
141.1378418356448
 20
317.9429629416169
 30
0.0
 11
146.9333978356449
 21
316.3900509416171
 31
0.0
  0
LINE
  5
169F
330
A
100
AcDbEntity
  8
DIM
100
AcDbLine
 10
161.1378418356448
 20
317.9429629416169
 30
0.0
 11
155.3422858356448
 21
316.3900509416171
 31
0.0
  0
LINE
  5
16A0
330
A
100
AcDbEntity
  8
DIM
100
AcDbLine
 10
161.1378418356448
 20
317.9429629416169
 30
0.0
 11
155.3422858356448
 21
319.495876941617
 31
0.0
  0
LINE
  5
16A1
330
A
100
AcDbEntity
  8
DIM
100
AcDbLine
 10
141.1378418356448
 20
361.0773629416171
 30
0.0
 11
141.1378418356448
 21
313.370972941617
 31
0.0
  0
LINE
  5
16A2
330
A
100
AcDbEntity
  8
DIM
100
AcDbLine
 10
161.1378418356448
 20
361.0773629416171
 30
0.0
 11
161.1378418356448
 21
313.370972941617
 31
0.0
  0
LINE
  5
16A3
330
A
100
AcDbEntity
  8
DIM
100
AcDbLine
 10
76.63784183564485
 20
317.9429629416169
 30
0.0
 11
108.1378418356448
 21
317.9429629416169
 31
0.0
  0
LINE
  5
16A4
330
A
100
AcDbEntity
  8
DIM
100
AcDbLine
 10
76.63784183564485
 20
317.9429629416169
 30
0.0
 11
82.43339783564488
 21
319.495876941617
 31
0.0
  0
LINE
  5
16A5
330
A
100
AcDbEntity
  8
DIM
100
AcDbLine
 10
76.63784183564485
 20
317.9429629416169
 30
0.0
 11
82.43339783564488
 21
316.3900509416171
 31
0.0
  0
LINE
  5
16A6
330
A
100
AcDbEntity
  8
DIM
100
AcDbLine
 10
108.1378418356448
 20
317.9429629416169
 30
0.0
 11
102.3422858356448
 21
316.3900509416171
 31
0.0
  0
LINE
  5
16A7
330
A
100
AcDbEntity
  8
DIM
100
AcDbLine
 10
108.1378418356448
 20
317.9429629416169
 30
0.0
 11
102.3422858356448
 21
319.495876941617
 31
0.0
  0
LINE
  5
16A8
330
A
100
AcDbEntity
  8
DIM
100
AcDbLine
 10
76.63784183564485
 20
361.3273629416171
 30
0.0
 11
76.63784183564485
 21
313.370972941617
 31
0.0
  0
LINE
  5
16A9
330
A
100
AcDbEntity
  8
DIM
100
AcDbLine
 10
108.1378418356448
 20
361.0773629416171
 30
0.0
 11
108.1378418356448
 21
313.370972941617
 31
0.0
  0
LINE
  5
16AB
330
A
100
AcDbEntity
  8
MODEL
100
AcDbLine
 10
285.9319137437807
 20
207.6598970503146
 30
0.0
 11
331.5693137437808
 21
207.6598970503146
 31
0.0
  0
LINE
  5
16AC
330
A
100
AcDbEntity
  8
MODEL
100
AcDbLine
 10
285.4319137437807
 20
240.6598970503146
 30
0.0
 11
285.4319137437807
 21
190.6598970503147
 31
0.0
  0
LINE
  5
16AD
330
A
100
AcDbEntity
  8
MODEL
100
AcDbLine
 10
299.5693137437808
 20
205.8598970503147
 30
0.0
 11
285.9319137437807
 21
205.8598970503147
 31
0.0
  0
LINE
  5
16AE
330
A
100
AcDbEntity
  8
MODEL
100
AcDbLine
 10
299.5693137437808
 20
209.4598970503147
 30
0.0
 11
285.9319137437807
 21
209.4598970503147
 31
0.0
  0
LINE
  5
16AF
330
A
100
AcDbEntity
  8
MODEL
100
AcDbLine
 10
285.9319137437807
 20
237.4098970503146
 30
0.0
 11
285.9319137437807
 21
193.9098970503147
 31
0.0
  0
LINE
  5
16B0
330
A
100
AcDbEntity
  8
MODEL
100
AcDbLine
 10
285.4319137437807
 20
193.9098970503147
 30
0.0
 11
285.9319137437807
 21
193.9098970503147
 31
0.0
  0
LINE
  5
16B1
330
A
100
AcDbEntity
  8
MODEL
100
AcDbLine
 10
285.4319137437807
 20
237.4098970503146
 30
0.0
 11
285.9319137437807
 21
237.4098970503146
 31
0.0
  0
LINE
  5
16B2
330
A
100
AcDbEntity
  8
MODEL
100
AcDbLine
 10
326.6315137437808
 20
209.0598970503147
 30
0.0
 11
325.4721137437808
 21
209.0598970503147
 31
0.0
  0
LINE
  5
16B3
330
A
100
AcDbEntity
  8
MODEL
100
AcDbLine
 10
302.5693137437808
 20
209.0598970503147
 30
0.0
 11
299.5693137437808
 21
209.4598970503147
 31
0.0
  0
LINE
  5
16B4
330
A
100
AcDbEntity
  8
MODEL
100
AcDbLine
 10
327.7033137437805
 20
206.2598970503146
 30
0.0
 11
326.5439137437805
 21
206.2598970503146
 31
0.0
  0
LINE
  5
16B5
330
A
100
AcDbEntity
  8
MODEL
100
AcDbLine
 10
327.7229137437806
 20
209.0598970503147
 30
0.0
 11
327.1287137437806
 21
209.0598970503147
 31
0.0
  0
LINE
  5
16B6
330
A
100
AcDbEntity
  8
MODEL
100
AcDbLine
 10
327.9519137437807
 20
205.6598970503146
 30
0.0
 11
326.8801137437807
 21
209.6598970503146
 31
0.0
  0
LINE
  5
16B7
330
A
100
AcDbEntity
  8
MODEL
100
AcDbLine
 10
327.9519137437807
 20
205.6598970503146
 30
0.0
 11
327.7033137437805
 21
206.2598970503146
 31
0.0
  0
LINE
  5
16B8
330
A
100
AcDbEntity
  8
MODEL
100
AcDbLine
 10
327.9519137437807
 20
205.6598970503146
 30
0.0
 11
328.2851137437807
 21
206.4644970503147
 31
0.0
  0
LINE
  5
16B9
330
A
100
AcDbEntity
  8
MODEL
100
AcDbLine
 10
303.1053137437806
 20
205.6598970503146
 30
0.0
 11
302.5693137437808
 21
207.6598970503146
 31
0.0
  0
LINE
  5
16BA
330
A
100
AcDbEntity
  8
MODEL
100
AcDbLine
 10
326.8801137437807
 20
209.6598970503146
 30
0.0
 11
327.1287137437806
 21
209.0598970503147
 31
0.0
  0
LINE
  5
16BB
330
A
100
AcDbEntity
  8
MODEL
100
AcDbLine
 10
326.8801137437807
 20
209.6598970503146
 30
0.0
 11
326.6315137437808
 21
209.0598970503147
 31
0.0
  0
LINE
  5
16BC
330
A
100
AcDbEntity
  8
MODEL
100
AcDbLine
 10
303.1053137437806
 20
205.6598970503146
 30
0.0
 11
303.3537137437805
 21
206.2598970503146
 31
0.0
  0
LINE
  5
16BD
330
A
100
AcDbEntity
  8
MODEL
100
AcDbLine
 10
303.1053137437806
 20
205.6598970503146
 30
0.0
 11
302.8567137437807
 21
206.2598970503146
 31
0.0
  0
LINE
  5
16BE
330
A
100
AcDbEntity
  8
MODEL
100
AcDbLine
 10
328.1421137437807
 20
206.4124970503146
 30
0.0
 11
327.1287137437806
 21
209.0598970503147
 31
0.0
  0
LINE
  5
16BF
330
A
100
AcDbEntity
  8
MODEL
100
AcDbLine
 10
326.6315137437808
 20
209.0598970503147
 30
0.0
 11
327.7033137437805
 21
206.2598970503146
 31
0.0
  0
LINE
  5
16C0
330
A
100
AcDbEntity
  8
MODEL
100
AcDbLine
 10
302.8567137437807
 20
206.2598970503146
 30
0.0
 11
302.5693137437808
 21
207.6598970503146
 31
0.0
  0
LINE
  5
16C1
330
A
100
AcDbEntity
  8
MODEL
100
AcDbLine
 10
302.5693137437808
 20
207.6598970503146
 30
0.0
 11
303.3537137437805
 21
206.2598970503146
 31
0.0
  0
LINE
  5
16C2
330
A
100
AcDbEntity
  8
MODEL
100
AcDbLine
 10
302.8567137437807
 20
206.2598970503146
 30
0.0
 11
302.5693137437808
 21
206.2598970503146
 31
0.0
  0
LINE
  5
16C3
330
A
100
AcDbEntity
  8
MODEL
100
AcDbLine
 10
304.7617137437807
 20
205.6598970503146
 30
0.0
 11
305.0103137437808
 21
206.2598970503146
 31
0.0
  0
LINE
  5
16C4
330
A
100
AcDbEntity
  8
MODEL
100
AcDbLine
 10
304.7617137437807
 20
205.6598970503146
 30
0.0
 11
303.6899137437807
 21
209.6598970503146
 31
0.0
  0
LINE
  5
16C5
330
A
100
AcDbEntity
  8
MODEL
100
AcDbLine
 10
305.0103137437808
 20
206.2598970503146
 30
0.0
 11
303.9385137437806
 21
209.0598970503147
 31
0.0
  0
LINE
  5
16C6
330
A
100
AcDbEntity
  8
MODEL
100
AcDbLine
 10
303.4413137437808
 20
209.0598970503147
 30
0.0
 11
304.5131137437805
 21
206.2598970503146
 31
0.0
  0
LINE
  5
16C7
330
A
100
AcDbEntity
  8
MODEL
100
AcDbLine
 10
304.7617137437807
 20
205.6598970503146
 30
0.0
 11
304.5131137437805
 21
206.2598970503146
 31
0.0
  0
LINE
  5
16C8
330
A
100
AcDbEntity
  8
MODEL
100
AcDbLine
 10
304.5131137437805
 20
206.2598970503146
 30
0.0
 11
303.3537137437805
 21
206.2598970503146
 31
0.0
  0
LINE
  5
16C9
330
A
100
AcDbEntity
  8
MODEL
100
AcDbLine
 10
303.6899137437807
 20
209.6598970503146
 30
0.0
 11
303.9385137437806
 21
209.0598970503147
 31
0.0
  0
LINE
  5
16CA
330
A
100
AcDbEntity
  8
MODEL
100
AcDbLine
 10
303.6899137437807
 20
209.6598970503146
 30
0.0
 11
303.4413137437808
 21
209.0598970503147
 31
0.0
  0
LINE
  5
16CB
330
A
100
AcDbEntity
  8
MODEL
100
AcDbLine
 10
303.4413137437808
 20
209.0598970503147
 30
0.0
 11
302.5693137437808
 21
209.0598970503147
 31
0.0
  0
LINE
  5
16CC
330
A
100
AcDbEntity
  8
MODEL
100
AcDbLine
 10
306.4181137437807
 20
205.6598970503146
 30
0.0
 11
306.6667137437806
 21
206.2598970503146
 31
0.0
  0
LINE
  5
16CD
330
A
100
AcDbEntity
  8
MODEL
100
AcDbLine
 10
306.4181137437807
 20
205.6598970503146
 30
0.0
 11
305.3463137437806
 21
209.6598970503146
 31
0.0
  0
LINE
  5
16CE
330
A
100
AcDbEntity
  8
MODEL
100
AcDbLine
 10
306.6667137437806
 20
206.2598970503146
 30
0.0
 11
305.5949137437807
 21
209.0598970503147
 31
0.0
  0
LINE
  5
16CF
330
A
100
AcDbEntity
  8
MODEL
100
AcDbLine
 10
305.0979137437806
 20
209.0598970503147
 30
0.0
 11
306.1697137437808
 21
206.2598970503146
 31
0.0
  0
LINE
  5
16D0
330
A
100
AcDbEntity
  8
MODEL
100
AcDbLine
 10
306.4181137437807
 20
205.6598970503146
 30
0.0
 11
306.1697137437808
 21
206.2598970503146
 31
0.0
  0
LINE
  5
16D1
330
A
100
AcDbEntity
  8
MODEL
100
AcDbLine
 10
306.1697137437808
 20
206.2598970503146
 30
0.0
 11
305.0103137437808
 21
206.2598970503146
 31
0.0
  0
LINE
  5
16D2
330
A
100
AcDbEntity
  8
MODEL
100
AcDbLine
 10
305.3463137437806
 20
209.6598970503146
 30
0.0
 11
305.5949137437807
 21
209.0598970503147
 31
0.0
  0
LINE
  5
16D3
330
A
100
AcDbEntity
  8
MODEL
100
AcDbLine
 10
305.3463137437806
 20
209.6598970503146
 30
0.0
 11
305.0979137437806
 21
209.0598970503147
 31
0.0
  0
LINE
  5
16D4
330
A
100
AcDbEntity
  8
MODEL
100
AcDbLine
 10
305.0979137437806
 20
209.0598970503147
 30
0.0
 11
303.9385137437806
 21
209.0598970503147
 31
0.0
  0
LINE
  5
16D5
330
A
100
AcDbEntity
  8
MODEL
100
AcDbLine
 10
308.0745137437806
 20
205.6598970503146
 30
0.0
 11
308.3231137437807
 21
206.2598970503146
 31
0.0
  0
LINE
  5
16D6
330
A
100
AcDbEntity
  8
MODEL
100
AcDbLine
 10
308.0745137437806
 20
205.6598970503146
 30
0.0
 11
307.0027137437806
 21
209.6598970503146
 31
0.0
  0
LINE
  5
16D7
330
A
100
AcDbEntity
  8
MODEL
100
AcDbLine
 10
308.3231137437807
 20
206.2598970503146
 30
0.0
 11
307.2513137437808
 21
209.0598970503147
 31
0.0
  0
LINE
  5
16D8
330
A
100
AcDbEntity
  8
MODEL
100
AcDbLine
 10
306.7543137437807
 20
209.0598970503147
 30
0.0
 11
307.8261137437806
 21
206.2598970503146
 31
0.0
  0
LINE
  5
16D9
330
A
100
AcDbEntity
  8
MODEL
100
AcDbLine
 10
308.0745137437806
 20
205.6598970503146
 30
0.0
 11
307.8261137437806
 21
206.2598970503146
 31
0.0
  0
LINE
  5
16DA
330
A
100
AcDbEntity
  8
MODEL
100
AcDbLine
 10
307.8261137437806
 20
206.2598970503146
 30
0.0
 11
306.6667137437806
 21
206.2598970503146
 31
0.0
  0
LINE
  5
16DB
330
A
100
AcDbEntity
  8
MODEL
100
AcDbLine
 10
307.0027137437806
 20
209.6598970503146
 30
0.0
 11
307.2513137437808
 21
209.0598970503147
 31
0.0
  0
LINE
  5
16DC
330
A
100
AcDbEntity
  8
MODEL
100
AcDbLine
 10
307.0027137437806
 20
209.6598970503146
 30
0.0
 11
306.7543137437807
 21
209.0598970503147
 31
0.0
  0
LINE
  5
16DD
330
A
100
AcDbEntity
  8
MODEL
100
AcDbLine
 10
306.7543137437807
 20
209.0598970503147
 30
0.0
 11
305.5949137437807
 21
209.0598970503147
 31
0.0
  0
LINE
  5
16DE
330
A
100
AcDbEntity
  8
MODEL
100
AcDbLine
 10
309.7311137437808
 20
205.6598970503146
 30
0.0
 11
309.9795137437808
 21
206.2598970503146
 31
0.0
  0
LINE
  5
16DF
330
A
100
AcDbEntity
  8
MODEL
100
AcDbLine
 10
309.7311137437808
 20
205.6598970503146
 30
0.0
 11
308.6593137437807
 21
209.6598970503146
 31
0.0
  0
LINE
  5
16E0
330
A
100
AcDbEntity
  8
MODEL
100
AcDbLine
 10
309.9795137437808
 20
206.2598970503146
 30
0.0
 11
308.9077137437806
 21
209.0598970503147
 31
0.0
  0
LINE
  5
16E1
330
A
100
AcDbEntity
  8
MODEL
100
AcDbLine
 10
308.4107137437808
 20
209.0598970503147
 30
0.0
 11
309.4825137437807
 21
206.2598970503146
 31
0.0
  0
LINE
  5
16E2
330
A
100
AcDbEntity
  8
MODEL
100
AcDbLine
 10
309.7311137437808
 20
205.6598970503146
 30
0.0
 11
309.4825137437807
 21
206.2598970503146
 31
0.0
  0
LINE
  5
16E3
330
A
100
AcDbEntity
  8
MODEL
100
AcDbLine
 10
309.4825137437807
 20
206.2598970503146
 30
0.0
 11
308.3231137437807
 21
206.2598970503146
 31
0.0
  0
LINE
  5
16E4
330
A
100
AcDbEntity
  8
MODEL
100
AcDbLine
 10
308.6593137437807
 20
209.6598970503146
 30
0.0
 11
308.9077137437806
 21
209.0598970503147
 31
0.0
  0
LINE
  5
16E5
330
A
100
AcDbEntity
  8
MODEL
100
AcDbLine
 10
308.6593137437807
 20
209.6598970503146
 30
0.0
 11
308.4107137437808
 21
209.0598970503147
 31
0.0
  0
LINE
  5
16E6
330
A
100
AcDbEntity
  8
MODEL
100
AcDbLine
 10
308.4107137437808
 20
209.0598970503147
 30
0.0
 11
307.2513137437808
 21
209.0598970503147
 31
0.0
  0
LINE
  5
16E7
330
A
100
AcDbEntity
  8
MODEL
100
AcDbLine
 10
311.3875137437807
 20
205.6598970503146
 30
0.0
 11
311.6359137437806
 21
206.2598970503146
 31
0.0
  0
LINE
  5
16E8
330
A
100
AcDbEntity
  8
MODEL
100
AcDbLine
 10
311.3875137437807
 20
205.6598970503146
 30
0.0
 11
310.3157137437807
 21
209.6598970503146
 31
0.0
  0
LINE
  5
16E9
330
A
100
AcDbEntity
  8
MODEL
100
AcDbLine
 10
311.6359137437806
 20
206.2598970503146
 30
0.0
 11
310.5641137437807
 21
209.0598970503147
 31
0.0
  0
LINE
  5
16EA
330
A
100
AcDbEntity
  8
MODEL
100
AcDbLine
 10
310.0671137437806
 20
209.0598970503147
 30
0.0
 11
311.1389137437808
 21
206.2598970503146
 31
0.0
  0
LINE
  5
16EB
330
A
100
AcDbEntity
  8
MODEL
100
AcDbLine
 10
311.3875137437807
 20
205.6598970503146
 30
0.0
 11
311.1389137437808
 21
206.2598970503146
 31
0.0
  0
LINE
  5
16EC
330
A
100
AcDbEntity
  8
MODEL
100
AcDbLine
 10
311.1389137437808
 20
206.2598970503146
 30
0.0
 11
309.9795137437808
 21
206.2598970503146
 31
0.0
  0
LINE
  5
16ED
330
A
100
AcDbEntity
  8
MODEL
100
AcDbLine
 10
310.3157137437807
 20
209.6598970503146
 30
0.0
 11
310.5641137437807
 21
209.0598970503147
 31
0.0
  0
LINE
  5
16EE
330
A
100
AcDbEntity
  8
MODEL
100
AcDbLine
 10
310.3157137437807
 20
209.6598970503146
 30
0.0
 11
310.0671137437806
 21
209.0598970503147
 31
0.0
  0
LINE
  5
16EF
330
A
100
AcDbEntity
  8
MODEL
100
AcDbLine
 10
310.0671137437806
 20
209.0598970503147
 30
0.0
 11
308.9077137437806
 21
209.0598970503147
 31
0.0
  0
LINE
  5
16F0
330
A
100
AcDbEntity
  8
MODEL
100
AcDbLine
 10
313.0439137437805
 20
205.6598970503146
 30
0.0
 11
313.2925137437807
 21
206.2598970503146
 31
0.0
  0
LINE
  5
16F1
330
A
100
AcDbEntity
  8
MODEL
100
AcDbLine
 10
313.0439137437805
 20
205.6598970503146
 30
0.0
 11
311.9721137437808
 21
209.6598970503146
 31
0.0
  0
LINE
  5
16F2
330
A
100
AcDbEntity
  8
MODEL
100
AcDbLine
 10
313.2925137437807
 20
206.2598970503146
 30
0.0
 11
312.2207137437807
 21
209.0598970503147
 31
0.0
  0
LINE
  5
16F3
330
A
100
AcDbEntity
  8
MODEL
100
AcDbLine
 10
311.7235137437807
 20
209.0598970503147
 30
0.0
 11
312.7953137437806
 21
206.2598970503146
 31
0.0
  0
LINE
  5
16F4
330
A
100
AcDbEntity
  8
MODEL
100
AcDbLine
 10
313.0439137437805
 20
205.6598970503146
 30
0.0
 11
312.7953137437806
 21
206.2598970503146
 31
0.0
  0
LINE
  5
16F5
330
A
100
AcDbEntity
  8
MODEL
100
AcDbLine
 10
312.7953137437806
 20
206.2598970503146
 30
0.0
 11
311.6359137437806
 21
206.2598970503146
 31
0.0
  0
LINE
  5
16F6
330
A
100
AcDbEntity
  8
MODEL
100
AcDbLine
 10
311.9721137437808
 20
209.6598970503146
 30
0.0
 11
312.2207137437807
 21
209.0598970503147
 31
0.0
  0
LINE
  5
16F7
330
A
100
AcDbEntity
  8
MODEL
100
AcDbLine
 10
311.9721137437808
 20
209.6598970503146
 30
0.0
 11
311.7235137437807
 21
209.0598970503147
 31
0.0
  0
LINE
  5
16F8
330
A
100
AcDbEntity
  8
MODEL
100
AcDbLine
 10
311.7235137437807
 20
209.0598970503147
 30
0.0
 11
310.5641137437807
 21
209.0598970503147
 31
0.0
  0
LINE
  5
16F9
330
A
100
AcDbEntity
  8
MODEL
100
AcDbLine
 10
314.7003137437808
 20
205.6598970503146
 30
0.0
 11
314.9489137437807
 21
206.2598970503146
 31
0.0
  0
LINE
  5
16FA
330
A
100
AcDbEntity
  8
MODEL
100
AcDbLine
 10
314.7003137437808
 20
205.6598970503146
 30
0.0
 11
313.6285137437807
 21
209.6598970503146
 31
0.0
  0
LINE
  5
16FB
330
A
100
AcDbEntity
  8
MODEL
100
AcDbLine
 10
314.9489137437807
 20
206.2598970503146
 30
0.0
 11
313.8771137437806
 21
209.0598970503147
 31
0.0
  0
LINE
  5
16FC
330
A
100
AcDbEntity
  8
MODEL
100
AcDbLine
 10
313.3801137437807
 20
209.0598970503147
 30
0.0
 11
314.4519137437807
 21
206.2598970503146
 31
0.0
  0
LINE
  5
16FD
330
A
100
AcDbEntity
  8
MODEL
100
AcDbLine
 10
314.7003137437808
 20
205.6598970503146
 30
0.0
 11
314.4519137437807
 21
206.2598970503146
 31
0.0
  0
LINE
  5
16FE
330
A
100
AcDbEntity
  8
MODEL
100
AcDbLine
 10
314.4519137437807
 20
206.2598970503146
 30
0.0
 11
313.2925137437807
 21
206.2598970503146
 31
0.0
  0
LINE
  5
16FF
330
A
100
AcDbEntity
  8
MODEL
100
AcDbLine
 10
313.6285137437807
 20
209.6598970503146
 30
0.0
 11
313.8771137437806
 21
209.0598970503147
 31
0.0
  0
LINE
  5
1700
330
A
100
AcDbEntity
  8
MODEL
100
AcDbLine
 10
313.6285137437807
 20
209.6598970503146
 30
0.0
 11
313.3801137437807
 21
209.0598970503147
 31
0.0
  0
LINE
  5
1701
330
A
100
AcDbEntity
  8
MODEL
100
AcDbLine
 10
313.3801137437807
 20
209.0598970503147
 30
0.0
 11
312.2207137437807
 21
209.0598970503147
 31
0.0
  0
LINE
  5
1702
330
A
100
AcDbEntity
  8
MODEL
100
AcDbLine
 10
316.3567137437807
 20
205.6598970503146
 30
0.0
 11
316.6053137437806
 21
206.2598970503146
 31
0.0
  0
LINE
  5
1703
330
A
100
AcDbEntity
  8
MODEL
100
AcDbLine
 10
316.3567137437807
 20
205.6598970503146
 30
0.0
 11
315.2849137437807
 21
209.6598970503146
 31
0.0
  0
LINE
  5
1704
330
A
100
AcDbEntity
  8
MODEL
100
AcDbLine
 10
316.6053137437806
 20
206.2598970503146
 30
0.0
 11
315.5335137437806
 21
209.0598970503147
 31
0.0
  0
LINE
  5
1705
330
A
100
AcDbEntity
  8
MODEL
100
AcDbLine
 10
315.0365137437806
 20
209.0598970503147
 30
0.0
 11
316.1083137437807
 21
206.2598970503146
 31
0.0
  0
LINE
  5
1706
330
A
100
AcDbEntity
  8
MODEL
100
AcDbLine
 10
316.3567137437807
 20
205.6598970503146
 30
0.0
 11
316.1083137437807
 21
206.2598970503146
 31
0.0
  0
LINE
  5
1707
330
A
100
AcDbEntity
  8
MODEL
100
AcDbLine
 10
316.1083137437807
 20
206.2598970503146
 30
0.0
 11
314.9489137437807
 21
206.2598970503146
 31
0.0
  0
LINE
  5
1708
330
A
100
AcDbEntity
  8
MODEL
100
AcDbLine
 10
315.2849137437807
 20
209.6598970503146
 30
0.0
 11
315.5335137437806
 21
209.0598970503147
 31
0.0
  0
LINE
  5
1709
330
A
100
AcDbEntity
  8
MODEL
100
AcDbLine
 10
315.2849137437807
 20
209.6598970503146
 30
0.0
 11
315.0365137437806
 21
209.0598970503147
 31
0.0
  0
LINE
  5
170A
330
A
100
AcDbEntity
  8
MODEL
100
AcDbLine
 10
315.0365137437806
 20
209.0598970503147
 30
0.0
 11
313.8771137437806
 21
209.0598970503147
 31
0.0
  0
LINE
  5
170B
330
A
100
AcDbEntity
  8
MODEL
100
AcDbLine
 10
318.0133137437807
 20
205.6598970503146
 30
0.0
 11
318.2617137437807
 21
206.2598970503146
 31
0.0
  0
LINE
  5
170C
330
A
100
AcDbEntity
  8
MODEL
100
AcDbLine
 10
318.0133137437807
 20
205.6598970503146
 30
0.0
 11
316.9415137437808
 21
209.6598970503146
 31
0.0
  0
LINE
  5
170D
330
A
100
AcDbEntity
  8
MODEL
100
AcDbLine
 10
318.2617137437807
 20
206.2598970503146
 30
0.0
 11
317.1899137437807
 21
209.0598970503147
 31
0.0
  0
LINE
  5
170E
330
A
100
AcDbEntity
  8
MODEL
100
AcDbLine
 10
316.6929137437807
 20
209.0598970503147
 30
0.0
 11
317.7647137437806
 21
206.2598970503146
 31
0.0
  0
LINE
  5
170F
330
A
100
AcDbEntity
  8
MODEL
100
AcDbLine
 10
318.0133137437807
 20
205.6598970503146
 30
0.0
 11
317.7647137437806
 21
206.2598970503146
 31
0.0
  0
LINE
  5
1710
330
A
100
AcDbEntity
  8
MODEL
100
AcDbLine
 10
317.7647137437806
 20
206.2598970503146
 30
0.0
 11
316.6053137437806
 21
206.2598970503146
 31
0.0
  0
LINE
  5
1711
330
A
100
AcDbEntity
  8
MODEL
100
AcDbLine
 10
316.9415137437808
 20
209.6598970503146
 30
0.0
 11
317.1899137437807
 21
209.0598970503147
 31
0.0
  0
LINE
  5
1712
330
A
100
AcDbEntity
  8
MODEL
100
AcDbLine
 10
316.9415137437808
 20
209.6598970503146
 30
0.0
 11
316.6929137437807
 21
209.0598970503147
 31
0.0
  0
LINE
  5
1713
330
A
100
AcDbEntity
  8
MODEL
100
AcDbLine
 10
316.6929137437807
 20
209.0598970503147
 30
0.0
 11
315.5335137437806
 21
209.0598970503147
 31
0.0
  0
LINE
  5
1714
330
A
100
AcDbEntity
  8
MODEL
100
AcDbLine
 10
319.6697137437808
 20
205.6598970503146
 30
0.0
 11
319.9181137437807
 21
206.2598970503146
 31
0.0
  0
LINE
  5
1715
330
A
100
AcDbEntity
  8
MODEL
100
AcDbLine
 10
319.6697137437808
 20
205.6598970503146
 30
0.0
 11
318.5979137437806
 21
209.6598970503146
 31
0.0
  0
LINE
  5
1716
330
A
100
AcDbEntity
  8
MODEL
100
AcDbLine
 10
319.9181137437807
 20
206.2598970503146
 30
0.0
 11
318.8465137437807
 21
209.0598970503147
 31
0.0
  0
LINE
  5
1717
330
A
100
AcDbEntity
  8
MODEL
100
AcDbLine
 10
318.3493137437807
 20
209.0598970503147
 30
0.0
 11
319.4211137437807
 21
206.2598970503146
 31
0.0
  0
LINE
  5
1718
330
A
100
AcDbEntity
  8
MODEL
100
AcDbLine
 10
319.6697137437808
 20
205.6598970503146
 30
0.0
 11
319.4211137437807
 21
206.2598970503146
 31
0.0
  0
LINE
  5
1719
330
A
100
AcDbEntity
  8
MODEL
100
AcDbLine
 10
319.4211137437807
 20
206.2598970503146
 30
0.0
 11
318.2617137437807
 21
206.2598970503146
 31
0.0
  0
LINE
  5
171A
330
A
100
AcDbEntity
  8
MODEL
100
AcDbLine
 10
318.5979137437806
 20
209.6598970503146
 30
0.0
 11
318.8465137437807
 21
209.0598970503147
 31
0.0
  0
LINE
  5
171B
330
A
100
AcDbEntity
  8
MODEL
100
AcDbLine
 10
318.5979137437806
 20
209.6598970503146
 30
0.0
 11
318.3493137437807
 21
209.0598970503147
 31
0.0
  0
LINE
  5
171C
330
A
100
AcDbEntity
  8
MODEL
100
AcDbLine
 10
318.3493137437807
 20
209.0598970503147
 30
0.0
 11
317.1899137437807
 21
209.0598970503147
 31
0.0
  0
LINE
  5
171D
330
A
100
AcDbEntity
  8
MODEL
100
AcDbLine
 10
321.3261137437806
 20
205.6598970503146
 30
0.0
 11
321.5747137437805
 21
206.2598970503146
 31
0.0
  0
LINE
  5
171E
330
A
100
AcDbEntity
  8
MODEL
100
AcDbLine
 10
321.3261137437806
 20
205.6598970503146
 30
0.0
 11
320.2543137437807
 21
209.6598970503146
 31
0.0
  0
LINE
  5
171F
330
A
100
AcDbEntity
  8
MODEL
100
AcDbLine
 10
321.5747137437805
 20
206.2598970503146
 30
0.0
 11
320.5029137437808
 21
209.0598970503147
 31
0.0
  0
LINE
  5
1720
330
A
100
AcDbEntity
  8
MODEL
100
AcDbLine
 10
320.0057137437806
 20
209.0598970503147
 30
0.0
 11
321.0775137437807
 21
206.2598970503146
 31
0.0
  0
LINE
  5
1721
330
A
100
AcDbEntity
  8
MODEL
100
AcDbLine
 10
321.3261137437806
 20
205.6598970503146
 30
0.0
 11
321.0775137437807
 21
206.2598970503146
 31
0.0
  0
LINE
  5
1722
330
A
100
AcDbEntity
  8
MODEL
100
AcDbLine
 10
321.0775137437807
 20
206.2598970503146
 30
0.0
 11
319.9181137437807
 21
206.2598970503146
 31
0.0
  0
LINE
  5
1723
330
A
100
AcDbEntity
  8
MODEL
100
AcDbLine
 10
320.2543137437807
 20
209.6598970503146
 30
0.0
 11
320.5029137437808
 21
209.0598970503147
 31
0.0
  0
LINE
  5
1724
330
A
100
AcDbEntity
  8
MODEL
100
AcDbLine
 10
320.2543137437807
 20
209.6598970503146
 30
0.0
 11
320.0057137437806
 21
209.0598970503147
 31
0.0
  0
LINE
  5
1725
330
A
100
AcDbEntity
  8
MODEL
100
AcDbLine
 10
320.0057137437806
 20
209.0598970503147
 30
0.0
 11
318.8465137437807
 21
209.0598970503147
 31
0.0
  0
LINE
  5
1726
330
A
100
AcDbEntity
  8
MODEL
100
AcDbLine
 10
322.9825137437807
 20
205.6598970503146
 30
0.0
 11
323.2311137437808
 21
206.2598970503146
 31
0.0
  0
LINE
  5
1727
330
A
100
AcDbEntity
  8
MODEL
100
AcDbLine
 10
322.9825137437807
 20
205.6598970503146
 30
0.0
 11
321.9107137437808
 21
209.6598970503146
 31
0.0
  0
LINE
  5
1728
330
A
100
AcDbEntity
  8
MODEL
100
AcDbLine
 10
323.2311137437808
 20
206.2598970503146
 30
0.0
 11
322.1593137437807
 21
209.0598970503147
 31
0.0
  0
LINE
  5
1729
330
A
100
AcDbEntity
  8
MODEL
100
AcDbLine
 10
321.6623137437808
 20
209.0598970503147
 30
0.0
 11
322.7341137437805
 21
206.2598970503146
 31
0.0
  0
LINE
  5
172A
330
A
100
AcDbEntity
  8
MODEL
100
AcDbLine
 10
322.9825137437807
 20
205.6598970503146
 30
0.0
 11
322.7341137437805
 21
206.2598970503146
 31
0.0
  0
LINE
  5
172B
330
A
100
AcDbEntity
  8
MODEL
100
AcDbLine
 10
322.7341137437805
 20
206.2598970503146
 30
0.0
 11
321.5747137437805
 21
206.2598970503146
 31
0.0
  0
LINE
  5
172C
330
A
100
AcDbEntity
  8
MODEL
100
AcDbLine
 10
321.9107137437808
 20
209.6598970503146
 30
0.0
 11
322.1593137437807
 21
209.0598970503147
 31
0.0
  0
LINE
  5
172D
330
A
100
AcDbEntity
  8
MODEL
100
AcDbLine
 10
321.9107137437808
 20
209.6598970503146
 30
0.0
 11
321.6623137437808
 21
209.0598970503147
 31
0.0
  0
LINE
  5
172E
330
A
100
AcDbEntity
  8
MODEL
100
AcDbLine
 10
321.6623137437808
 20
209.0598970503147
 30
0.0
 11
320.5029137437808
 21
209.0598970503147
 31
0.0
  0
LINE
  5
172F
330
A
100
AcDbEntity
  8
MODEL
100
AcDbLine
 10
324.6389137437808
 20
205.6598970503146
 30
0.0
 11
324.8875137437807
 21
206.2598970503146
 31
0.0
  0
LINE
  5
1730
330
A
100
AcDbEntity
  8
MODEL
100
AcDbLine
 10
324.6389137437808
 20
205.6598970503146
 30
0.0
 11
323.5671137437806
 21
209.6598970503146
 31
0.0
  0
LINE
  5
1731
330
A
100
AcDbEntity
  8
MODEL
100
AcDbLine
 10
324.8875137437807
 20
206.2598970503146
 30
0.0
 11
323.8157137437807
 21
209.0598970503147
 31
0.0
  0
LINE
  5
1732
330
A
100
AcDbEntity
  8
MODEL
100
AcDbLine
 10
323.3187137437807
 20
209.0598970503147
 30
0.0
 11
324.3905137437806
 21
206.2598970503146
 31
0.0
  0
LINE
  5
1733
330
A
100
AcDbEntity
  8
MODEL
100
AcDbLine
 10
324.6389137437808
 20
205.6598970503146
 30
0.0
 11
324.3905137437806
 21
206.2598970503146
 31
0.0
  0
LINE
  5
1734
330
A
100
AcDbEntity
  8
MODEL
100
AcDbLine
 10
324.3905137437806
 20
206.2598970503146
 30
0.0
 11
323.2311137437808
 21
206.2598970503146
 31
0.0
  0
LINE
  5
1735
330
A
100
AcDbEntity
  8
MODEL
100
AcDbLine
 10
323.5671137437806
 20
209.6598970503146
 30
0.0
 11
323.8157137437807
 21
209.0598970503147
 31
0.0
  0
LINE
  5
1736
330
A
100
AcDbEntity
  8
MODEL
100
AcDbLine
 10
323.5671137437806
 20
209.6598970503146
 30
0.0
 11
323.3187137437807
 21
209.0598970503147
 31
0.0
  0
LINE
  5
1737
330
A
100
AcDbEntity
  8
MODEL
100
AcDbLine
 10
323.3187137437807
 20
209.0598970503147
 30
0.0
 11
322.1593137437807
 21
209.0598970503147
 31
0.0
  0
LINE
  5
1738
330
A
100
AcDbEntity
  8
MODEL
100
AcDbLine
 10
329.4551137437805
 20
206.2318970503146
 30
0.0
 11
329.7763137437806
 21
207.0072970503146
 31
0.0
  0
LINE
  5
1739
330
A
100
AcDbEntity
  8
MODEL
100
AcDbLine
 10
326.2955137437806
 20
205.6598970503146
 30
0.0
 11
325.2237137437806
 21
209.6598970503146
 31
0.0
  0
LINE
  5
173A
330
A
100
AcDbEntity
  8
MODEL
100
AcDbLine
 10
329.6535137437808
 20
206.9626970503147
 30
0.0
 11
329.0333137437807
 21
208.5828970503146
 31
0.0
  0
LINE
  5
173B
330
A
100
AcDbEntity
  8
MODEL
100
AcDbLine
 10
328.4509137437807
 20
208.8058970503147
 30
0.0
 11
329.2065137437806
 21
206.8318970503146
 31
0.0
  0
LINE
  5
173C
330
A
100
AcDbEntity
  8
MODEL
100
AcDbLine
 10
329.4551137437805
 20
206.2318970503146
 30
0.0
 11
329.2065137437806
 21
206.8318970503146
 31
0.0
  0
LINE
  5
173D
330
A
100
AcDbEntity
  8
MODEL
100
AcDbLine
 10
326.0469137437807
 20
206.2598970503146
 30
0.0
 11
324.8875137437807
 21
206.2598970503146
 31
0.0
  0
LINE
  5
173E
330
A
100
AcDbEntity
  8
MODEL
100
AcDbLine
 10
328.6419137437807
 20
209.2668970503147
 30
0.0
 11
328.9059137437806
 21
208.6292970503147
 31
0.0
  0
LINE
  5
173F
330
A
100
AcDbEntity
  8
MODEL
100
AcDbLine
 10
328.6419137437807
 20
209.2668970503147
 30
0.0
 11
328.4469137437808
 21
208.7962970503147
 31
0.0
  0
LINE
  5
1740
330
A
100
AcDbEntity
  8
MODEL
100
AcDbLine
 10
324.9751137437808
 20
209.0598970503147
 30
0.0
 11
323.8157137437807
 21
209.0598970503147
 31
0.0
  0
LINE
  5
1741
330
A
100
AcDbEntity
  8
MODEL
100
AcDbLine
 10
302.5693137437808
 20
206.2598970503146
 30
0.0
 11
302.5693137437808
 21
209.0598970503147
 31
0.0
  0
LINE
  5
1742
330
A
100
AcDbEntity
  8
MODEL
100
AcDbLine
 10
331.5693137437808
 20
207.6598970503146
 30
0.0
 11
329.6535137437808
 21
206.9626970503147
 31
0.0
  0
LINE
  5
1743
330
A
100
AcDbEntity
  8
MODEL
100
AcDbLine
 10
331.5693137437808
 20
207.6598970503146
 30
0.0
 11
328.9059137437806
 21
208.6292970503147
 31
0.0
  0
LINE
  5
1744
330
A
100
AcDbEntity
  8
MODEL
100
AcDbLine
 10
329.4551137437805
 20
206.2318970503146
 30
0.0
 11
328.6419137437807
 21
209.2668970503147
 31
0.0
  0
LINE
  5
1745
330
A
100
AcDbEntity
  8
MODEL
100
AcDbLine
 10
326.2955137437806
 20
205.6598970503146
 30
0.0
 11
326.5439137437805
 21
206.2598970503146
 31
0.0
  0
LINE
  5
1746
330
A
100
AcDbEntity
  8
MODEL
100
AcDbLine
 10
326.2955137437806
 20
205.6598970503146
 30
0.0
 11
326.0469137437807
 21
206.2598970503146
 31
0.0
  0
LINE
  5
1747
330
A
100
AcDbEntity
  8
MODEL
100
AcDbLine
 10
324.9751137437808
 20
209.0598970503147
 30
0.0
 11
326.0469137437807
 21
206.2598970503146
 31
0.0
  0
LINE
  5
1748
330
A
100
AcDbEntity
  8
MODEL
100
AcDbLine
 10
326.5439137437805
 20
206.2598970503146
 30
0.0
 11
325.4721137437808
 21
209.0598970503147
 31
0.0
  0
LINE
  5
1749
330
A
100
AcDbEntity
  8
MODEL
100
AcDbLine
 10
325.2237137437806
 20
209.6598970503146
 30
0.0
 11
325.4721137437808
 21
209.0598970503147
 31
0.0
  0
LINE
  5
174A
330
A
100
AcDbEntity
  8
MODEL
100
AcDbLine
 10
325.2237137437806
 20
209.6598970503146
 30
0.0
 11
324.9751137437808
 21
209.0598970503147
 31
0.0
  0
LINE
  5
174B
330
A
100
AcDbEntity
  8
MODEL
100
AcDbLine
 10
329.2173137437807
 20
206.8038970503146
 30
0.0
 11
328.1421137437807
 21
206.4124970503146
 31
0.0
  0
LINE
  5
174C
330
A
100
AcDbEntity
  8
MODEL
100
AcDbLine
 10
328.4469137437808
 20
208.7962970503147
 30
0.0
 11
327.7229137437806
 21
209.0598970503147
 31
0.0
  0
LINE
  5
174D
330
A
100
AcDbEntity
  8
MODEL
100
AcDbLine
 10
299.5693137437808
 20
205.8598970503147
 30
0.0
 11
299.5693137437808
 21
209.4598970503147
 31
0.0
  0
LINE
  5
174E
330
A
100
AcDbEntity
  8
MODEL
100
AcDbLine
 10
302.5693137437808
 20
206.2598970503146
 30
0.0
 11
299.5693137437808
 21
205.8598970503147
 31
0.0
  0
LINE
  5
174F
330
A
100
AcDbEntity
  8
MODEL
100
AcDbLine
 10
262.5279137437807
 20
240.6598970503146
 30
0.0
 11
285.4319137437807
 21
240.6598970503146
 31
0.0
  0
LINE
  5
1750
330
A
100
AcDbEntity
  8
MODEL
100
AcDbLine
 10
269.4319137437807
 20
190.6598970503147
 30
0.0
 11
285.4319137437807
 21
190.6598970503147
 31
0.0
  0
LINE
  5
1751
330
A
100
AcDbEntity
  8
MODEL
100
AcDbLine
 10
236.6879137437808
 20
209.5644970503147
 30
0.0
 11
269.4319137437807
 21
190.6598970503147
 31
0.0
  0
LINE
  5
1753
330
A
100
AcDbEntity
  8
MODEL
100
AcDbLine
 10
299.5693137437808
 20
228.8598970503147
 30
0.0
 11
285.9319137437807
 21
228.8598970503147
 31
0.0
  0
LINE
  5
1754
330
A
100
AcDbEntity
  8
MODEL
100
AcDbLine
 10
299.5693137437808
 20
232.4598970503147
 30
0.0
 11
285.9319137437807
 21
232.4598970503147
 31
0.0
  0
LINE
  5
1755
330
A
100
AcDbEntity
  8
MODEL
100
AcDbLine
 10
326.6315137437808
 20
232.0598970503147
 30
0.0
 11
325.4721137437808
 21
232.0598970503147
 31
0.0
  0
LINE
  5
1756
330
A
100
AcDbEntity
  8
MODEL
100
AcDbLine
 10
302.5693137437808
 20
232.0598970503147
 30
0.0
 11
299.5693137437808
 21
232.4598970503147
 31
0.0
  0
LINE
  5
1757
330
A
100
AcDbEntity
  8
MODEL
100
AcDbLine
 10
327.7033137437805
 20
229.2598970503146
 30
0.0
 11
326.5439137437805
 21
229.2598970503146
 31
0.0
  0
LINE
  5
1758
330
A
100
AcDbEntity
  8
MODEL
100
AcDbLine
 10
327.7229137437806
 20
232.0598970503147
 30
0.0
 11
327.1287137437806
 21
232.0598970503147
 31
0.0
  0
LINE
  5
1759
330
A
100
AcDbEntity
  8
MODEL
100
AcDbLine
 10
327.9519137437807
 20
228.6598970503146
 30
0.0
 11
326.8801137437807
 21
232.6598970503146
 31
0.0
  0
LINE
  5
175A
330
A
100
AcDbEntity
  8
MODEL
100
AcDbLine
 10
327.9519137437807
 20
228.6598970503146
 30
0.0
 11
327.7033137437805
 21
229.2598970503146
 31
0.0
  0
LINE
  5
175B
330
A
100
AcDbEntity
  8
MODEL
100
AcDbLine
 10
327.9519137437807
 20
228.6598970503146
 30
0.0
 11
328.2851137437807
 21
229.4644970503147
 31
0.0
  0
LINE
  5
175C
330
A
100
AcDbEntity
  8
MODEL
100
AcDbLine
 10
303.1053137437806
 20
228.6598970503146
 30
0.0
 11
302.5693137437808
 21
230.6598970503146
 31
0.0
  0
LINE
  5
175D
330
A
100
AcDbEntity
  8
MODEL
100
AcDbLine
 10
326.8801137437807
 20
232.6598970503146
 30
0.0
 11
327.1287137437806
 21
232.0598970503147
 31
0.0
  0
LINE
  5
175E
330
A
100
AcDbEntity
  8
MODEL
100
AcDbLine
 10
326.8801137437807
 20
232.6598970503146
 30
0.0
 11
326.6315137437808
 21
232.0598970503147
 31
0.0
  0
LINE
  5
175F
330
A
100
AcDbEntity
  8
MODEL
100
AcDbLine
 10
303.1053137437806
 20
228.6598970503146
 30
0.0
 11
303.3537137437805
 21
229.2598970503146
 31
0.0
  0
LINE
  5
1760
330
A
100
AcDbEntity
  8
MODEL
100
AcDbLine
 10
303.1053137437806
 20
228.6598970503146
 30
0.0
 11
302.8567137437807
 21
229.2598970503146
 31
0.0
  0
LINE
  5
1761
330
A
100
AcDbEntity
  8
MODEL
100
AcDbLine
 10
328.1421137437807
 20
229.4124970503146
 30
0.0
 11
327.1287137437806
 21
232.0598970503147
 31
0.0
  0
LINE
  5
1762
330
A
100
AcDbEntity
  8
MODEL
100
AcDbLine
 10
326.6315137437808
 20
232.0598970503147
 30
0.0
 11
327.7033137437805
 21
229.2598970503146
 31
0.0
  0
LINE
  5
1763
330
A
100
AcDbEntity
  8
MODEL
100
AcDbLine
 10
302.8567137437807
 20
229.2598970503146
 30
0.0
 11
302.5693137437808
 21
230.6598970503146
 31
0.0
  0
LINE
  5
1764
330
A
100
AcDbEntity
  8
MODEL
100
AcDbLine
 10
302.5693137437808
 20
230.6598970503146
 30
0.0
 11
303.3537137437805
 21
229.2598970503146
 31
0.0
  0
LINE
  5
1765
330
A
100
AcDbEntity
  8
MODEL
100
AcDbLine
 10
302.8567137437807
 20
229.2598970503146
 30
0.0
 11
302.5693137437808
 21
229.2598970503146
 31
0.0
  0
LINE
  5
1766
330
A
100
AcDbEntity
  8
MODEL
100
AcDbLine
 10
304.7617137437807
 20
228.6598970503146
 30
0.0
 11
305.0103137437808
 21
229.2598970503146
 31
0.0
  0
LINE
  5
1767
330
A
100
AcDbEntity
  8
MODEL
100
AcDbLine
 10
304.7617137437807
 20
228.6598970503146
 30
0.0
 11
303.6899137437807
 21
232.6598970503146
 31
0.0
  0
LINE
  5
1768
330
A
100
AcDbEntity
  8
MODEL
100
AcDbLine
 10
305.0103137437808
 20
229.2598970503146
 30
0.0
 11
303.9385137437806
 21
232.0598970503147
 31
0.0
  0
LINE
  5
1769
330
A
100
AcDbEntity
  8
MODEL
100
AcDbLine
 10
303.4413137437808
 20
232.0598970503147
 30
0.0
 11
304.5131137437805
 21
229.2598970503146
 31
0.0
  0
LINE
  5
176A
330
A
100
AcDbEntity
  8
MODEL
100
AcDbLine
 10
304.7617137437807
 20
228.6598970503146
 30
0.0
 11
304.5131137437805
 21
229.2598970503146
 31
0.0
  0
LINE
  5
176B
330
A
100
AcDbEntity
  8
MODEL
100
AcDbLine
 10
304.5131137437805
 20
229.2598970503146
 30
0.0
 11
303.3537137437805
 21
229.2598970503146
 31
0.0
  0
LINE
  5
176C
330
A
100
AcDbEntity
  8
MODEL
100
AcDbLine
 10
303.6899137437807
 20
232.6598970503146
 30
0.0
 11
303.9385137437806
 21
232.0598970503147
 31
0.0
  0
LINE
  5
176D
330
A
100
AcDbEntity
  8
MODEL
100
AcDbLine
 10
303.6899137437807
 20
232.6598970503146
 30
0.0
 11
303.4413137437808
 21
232.0598970503147
 31
0.0
  0
LINE
  5
176E
330
A
100
AcDbEntity
  8
MODEL
100
AcDbLine
 10
303.4413137437808
 20
232.0598970503147
 30
0.0
 11
302.5693137437808
 21
232.0598970503147
 31
0.0
  0
LINE
  5
176F
330
A
100
AcDbEntity
  8
MODEL
100
AcDbLine
 10
306.4181137437807
 20
228.6598970503146
 30
0.0
 11
306.6667137437806
 21
229.2598970503146
 31
0.0
  0
LINE
  5
1770
330
A
100
AcDbEntity
  8
MODEL
100
AcDbLine
 10
306.4181137437807
 20
228.6598970503146
 30
0.0
 11
305.3463137437806
 21
232.6598970503146
 31
0.0
  0
LINE
  5
1771
330
A
100
AcDbEntity
  8
MODEL
100
AcDbLine
 10
306.6667137437806
 20
229.2598970503146
 30
0.0
 11
305.5949137437807
 21
232.0598970503147
 31
0.0
  0
LINE
  5
1772
330
A
100
AcDbEntity
  8
MODEL
100
AcDbLine
 10
305.0979137437806
 20
232.0598970503147
 30
0.0
 11
306.1697137437808
 21
229.2598970503146
 31
0.0
  0
LINE
  5
1773
330
A
100
AcDbEntity
  8
MODEL
100
AcDbLine
 10
306.4181137437807
 20
228.6598970503146
 30
0.0
 11
306.1697137437808
 21
229.2598970503146
 31
0.0
  0
LINE
  5
1774
330
A
100
AcDbEntity
  8
MODEL
100
AcDbLine
 10
306.1697137437808
 20
229.2598970503146
 30
0.0
 11
305.0103137437808
 21
229.2598970503146
 31
0.0
  0
LINE
  5
1775
330
A
100
AcDbEntity
  8
MODEL
100
AcDbLine
 10
305.3463137437806
 20
232.6598970503146
 30
0.0
 11
305.5949137437807
 21
232.0598970503147
 31
0.0
  0
LINE
  5
1776
330
A
100
AcDbEntity
  8
MODEL
100
AcDbLine
 10
305.3463137437806
 20
232.6598970503146
 30
0.0
 11
305.0979137437806
 21
232.0598970503147
 31
0.0
  0
LINE
  5
1777
330
A
100
AcDbEntity
  8
MODEL
100
AcDbLine
 10
305.0979137437806
 20
232.0598970503147
 30
0.0
 11
303.9385137437806
 21
232.0598970503147
 31
0.0
  0
LINE
  5
1778
330
A
100
AcDbEntity
  8
MODEL
100
AcDbLine
 10
308.0745137437806
 20
228.6598970503146
 30
0.0
 11
308.3231137437807
 21
229.2598970503146
 31
0.0
  0
LINE
  5
1779
330
A
100
AcDbEntity
  8
MODEL
100
AcDbLine
 10
308.0745137437806
 20
228.6598970503146
 30
0.0
 11
307.0027137437806
 21
232.6598970503146
 31
0.0
  0
LINE
  5
177A
330
A
100
AcDbEntity
  8
MODEL
100
AcDbLine
 10
308.3231137437807
 20
229.2598970503146
 30
0.0
 11
307.2513137437808
 21
232.0598970503147
 31
0.0
  0
LINE
  5
177B
330
A
100
AcDbEntity
  8
MODEL
100
AcDbLine
 10
306.7543137437807
 20
232.0598970503147
 30
0.0
 11
307.8261137437806
 21
229.2598970503146
 31
0.0
  0
LINE
  5
177C
330
A
100
AcDbEntity
  8
MODEL
100
AcDbLine
 10
308.0745137437806
 20
228.6598970503146
 30
0.0
 11
307.8261137437806
 21
229.2598970503146
 31
0.0
  0
LINE
  5
177D
330
A
100
AcDbEntity
  8
MODEL
100
AcDbLine
 10
307.8261137437806
 20
229.2598970503146
 30
0.0
 11
306.6667137437806
 21
229.2598970503146
 31
0.0
  0
LINE
  5
177E
330
A
100
AcDbEntity
  8
MODEL
100
AcDbLine
 10
307.0027137437806
 20
232.6598970503146
 30
0.0
 11
307.2513137437808
 21
232.0598970503147
 31
0.0
  0
LINE
  5
177F
330
A
100
AcDbEntity
  8
MODEL
100
AcDbLine
 10
307.0027137437806
 20
232.6598970503146
 30
0.0
 11
306.7543137437807
 21
232.0598970503147
 31
0.0
  0
LINE
  5
1780
330
A
100
AcDbEntity
  8
MODEL
100
AcDbLine
 10
306.7543137437807
 20
232.0598970503147
 30
0.0
 11
305.5949137437807
 21
232.0598970503147
 31
0.0
  0
LINE
  5
1781
330
A
100
AcDbEntity
  8
MODEL
100
AcDbLine
 10
309.7311137437808
 20
228.6598970503146
 30
0.0
 11
309.9795137437808
 21
229.2598970503146
 31
0.0
  0
LINE
  5
1782
330
A
100
AcDbEntity
  8
MODEL
100
AcDbLine
 10
309.7311137437808
 20
228.6598970503146
 30
0.0
 11
308.6593137437807
 21
232.6598970503146
 31
0.0
  0
LINE
  5
1783
330
A
100
AcDbEntity
  8
MODEL
100
AcDbLine
 10
309.9795137437808
 20
229.2598970503146
 30
0.0
 11
308.9077137437806
 21
232.0598970503147
 31
0.0
  0
LINE
  5
1784
330
A
100
AcDbEntity
  8
MODEL
100
AcDbLine
 10
308.4107137437808
 20
232.0598970503147
 30
0.0
 11
309.4825137437807
 21
229.2598970503146
 31
0.0
  0
LINE
  5
1785
330
A
100
AcDbEntity
  8
MODEL
100
AcDbLine
 10
309.7311137437808
 20
228.6598970503146
 30
0.0
 11
309.4825137437807
 21
229.2598970503146
 31
0.0
  0
LINE
  5
1786
330
A
100
AcDbEntity
  8
MODEL
100
AcDbLine
 10
309.4825137437807
 20
229.2598970503146
 30
0.0
 11
308.3231137437807
 21
229.2598970503146
 31
0.0
  0
LINE
  5
1787
330
A
100
AcDbEntity
  8
MODEL
100
AcDbLine
 10
308.6593137437807
 20
232.6598970503146
 30
0.0
 11
308.9077137437806
 21
232.0598970503147
 31
0.0
  0
LINE
  5
1788
330
A
100
AcDbEntity
  8
MODEL
100
AcDbLine
 10
308.6593137437807
 20
232.6598970503146
 30
0.0
 11
308.4107137437808
 21
232.0598970503147
 31
0.0
  0
LINE
  5
1789
330
A
100
AcDbEntity
  8
MODEL
100
AcDbLine
 10
308.4107137437808
 20
232.0598970503147
 30
0.0
 11
307.2513137437808
 21
232.0598970503147
 31
0.0
  0
LINE
  5
178A
330
A
100
AcDbEntity
  8
MODEL
100
AcDbLine
 10
311.3875137437807
 20
228.6598970503146
 30
0.0
 11
311.6359137437806
 21
229.2598970503146
 31
0.0
  0
LINE
  5
178B
330
A
100
AcDbEntity
  8
MODEL
100
AcDbLine
 10
311.3875137437807
 20
228.6598970503146
 30
0.0
 11
310.3157137437807
 21
232.6598970503146
 31
0.0
  0
LINE
  5
178C
330
A
100
AcDbEntity
  8
MODEL
100
AcDbLine
 10
311.6359137437806
 20
229.2598970503146
 30
0.0
 11
310.5641137437807
 21
232.0598970503147
 31
0.0
  0
LINE
  5
178D
330
A
100
AcDbEntity
  8
MODEL
100
AcDbLine
 10
310.0671137437806
 20
232.0598970503147
 30
0.0
 11
311.1389137437808
 21
229.2598970503146
 31
0.0
  0
LINE
  5
178E
330
A
100
AcDbEntity
  8
MODEL
100
AcDbLine
 10
311.3875137437807
 20
228.6598970503146
 30
0.0
 11
311.1389137437808
 21
229.2598970503146
 31
0.0
  0
LINE
  5
178F
330
A
100
AcDbEntity
  8
MODEL
100
AcDbLine
 10
311.1389137437808
 20
229.2598970503146
 30
0.0
 11
309.9795137437808
 21
229.2598970503146
 31
0.0
  0
LINE
  5
1790
330
A
100
AcDbEntity
  8
MODEL
100
AcDbLine
 10
310.3157137437807
 20
232.6598970503146
 30
0.0
 11
310.5641137437807
 21
232.0598970503147
 31
0.0
  0
LINE
  5
1791
330
A
100
AcDbEntity
  8
MODEL
100
AcDbLine
 10
310.3157137437807
 20
232.6598970503146
 30
0.0
 11
310.0671137437806
 21
232.0598970503147
 31
0.0
  0
LINE
  5
1792
330
A
100
AcDbEntity
  8
MODEL
100
AcDbLine
 10
310.0671137437806
 20
232.0598970503147
 30
0.0
 11
308.9077137437806
 21
232.0598970503147
 31
0.0
  0
LINE
  5
1793
330
A
100
AcDbEntity
  8
MODEL
100
AcDbLine
 10
313.0439137437805
 20
228.6598970503146
 30
0.0
 11
313.2925137437807
 21
229.2598970503146
 31
0.0
  0
LINE
  5
1794
330
A
100
AcDbEntity
  8
MODEL
100
AcDbLine
 10
313.0439137437805
 20
228.6598970503146
 30
0.0
 11
311.9721137437808
 21
232.6598970503146
 31
0.0
  0
LINE
  5
1795
330
A
100
AcDbEntity
  8
MODEL
100
AcDbLine
 10
313.2925137437807
 20
229.2598970503146
 30
0.0
 11
312.2207137437807
 21
232.0598970503147
 31
0.0
  0
LINE
  5
1796
330
A
100
AcDbEntity
  8
MODEL
100
AcDbLine
 10
311.7235137437807
 20
232.0598970503147
 30
0.0
 11
312.7953137437806
 21
229.2598970503146
 31
0.0
  0
LINE
  5
1797
330
A
100
AcDbEntity
  8
MODEL
100
AcDbLine
 10
313.0439137437805
 20
228.6598970503146
 30
0.0
 11
312.7953137437806
 21
229.2598970503146
 31
0.0
  0
LINE
  5
1798
330
A
100
AcDbEntity
  8
MODEL
100
AcDbLine
 10
312.7953137437806
 20
229.2598970503146
 30
0.0
 11
311.6359137437806
 21
229.2598970503146
 31
0.0
  0
LINE
  5
1799
330
A
100
AcDbEntity
  8
MODEL
100
AcDbLine
 10
311.9721137437808
 20
232.6598970503146
 30
0.0
 11
312.2207137437807
 21
232.0598970503147
 31
0.0
  0
LINE
  5
179A
330
A
100
AcDbEntity
  8
MODEL
100
AcDbLine
 10
311.9721137437808
 20
232.6598970503146
 30
0.0
 11
311.7235137437807
 21
232.0598970503147
 31
0.0
  0
LINE
  5
179B
330
A
100
AcDbEntity
  8
MODEL
100
AcDbLine
 10
311.7235137437807
 20
232.0598970503147
 30
0.0
 11
310.5641137437807
 21
232.0598970503147
 31
0.0
  0
LINE
  5
179C
330
A
100
AcDbEntity
  8
MODEL
100
AcDbLine
 10
314.7003137437808
 20
228.6598970503146
 30
0.0
 11
314.9489137437807
 21
229.2598970503146
 31
0.0
  0
LINE
  5
179D
330
A
100
AcDbEntity
  8
MODEL
100
AcDbLine
 10
314.7003137437808
 20
228.6598970503146
 30
0.0
 11
313.6285137437807
 21
232.6598970503146
 31
0.0
  0
LINE
  5
179E
330
A
100
AcDbEntity
  8
MODEL
100
AcDbLine
 10
314.9489137437807
 20
229.2598970503146
 30
0.0
 11
313.8771137437806
 21
232.0598970503147
 31
0.0
  0
LINE
  5
179F
330
A
100
AcDbEntity
  8
MODEL
100
AcDbLine
 10
313.3801137437807
 20
232.0598970503147
 30
0.0
 11
314.4519137437807
 21
229.2598970503146
 31
0.0
  0
LINE
  5
17A0
330
A
100
AcDbEntity
  8
MODEL
100
AcDbLine
 10
314.7003137437808
 20
228.6598970503146
 30
0.0
 11
314.4519137437807
 21
229.2598970503146
 31
0.0
  0
LINE
  5
17A1
330
A
100
AcDbEntity
  8
MODEL
100
AcDbLine
 10
314.4519137437807
 20
229.2598970503146
 30
0.0
 11
313.2925137437807
 21
229.2598970503146
 31
0.0
  0
LINE
  5
17A2
330
A
100
AcDbEntity
  8
MODEL
100
AcDbLine
 10
313.6285137437807
 20
232.6598970503146
 30
0.0
 11
313.8771137437806
 21
232.0598970503147
 31
0.0
  0
LINE
  5
17A3
330
A
100
AcDbEntity
  8
MODEL
100
AcDbLine
 10
313.6285137437807
 20
232.6598970503146
 30
0.0
 11
313.3801137437807
 21
232.0598970503147
 31
0.0
  0
LINE
  5
17A4
330
A
100
AcDbEntity
  8
MODEL
100
AcDbLine
 10
313.3801137437807
 20
232.0598970503147
 30
0.0
 11
312.2207137437807
 21
232.0598970503147
 31
0.0
  0
LINE
  5
17A5
330
A
100
AcDbEntity
  8
MODEL
100
AcDbLine
 10
316.3567137437807
 20
228.6598970503146
 30
0.0
 11
316.6053137437806
 21
229.2598970503146
 31
0.0
  0
LINE
  5
17A6
330
A
100
AcDbEntity
  8
MODEL
100
AcDbLine
 10
316.3567137437807
 20
228.6598970503146
 30
0.0
 11
315.2849137437807
 21
232.6598970503146
 31
0.0
  0
LINE
  5
17A7
330
A
100
AcDbEntity
  8
MODEL
100
AcDbLine
 10
316.6053137437806
 20
229.2598970503146
 30
0.0
 11
315.5335137437806
 21
232.0598970503147
 31
0.0
  0
LINE
  5
17A8
330
A
100
AcDbEntity
  8
MODEL
100
AcDbLine
 10
315.0365137437806
 20
232.0598970503147
 30
0.0
 11
316.1083137437807
 21
229.2598970503146
 31
0.0
  0
LINE
  5
17A9
330
A
100
AcDbEntity
  8
MODEL
100
AcDbLine
 10
316.3567137437807
 20
228.6598970503146
 30
0.0
 11
316.1083137437807
 21
229.2598970503146
 31
0.0
  0
LINE
  5
17AA
330
A
100
AcDbEntity
  8
MODEL
100
AcDbLine
 10
316.1083137437807
 20
229.2598970503146
 30
0.0
 11
314.9489137437807
 21
229.2598970503146
 31
0.0
  0
LINE
  5
17AB
330
A
100
AcDbEntity
  8
MODEL
100
AcDbLine
 10
315.2849137437807
 20
232.6598970503146
 30
0.0
 11
315.5335137437806
 21
232.0598970503147
 31
0.0
  0
LINE
  5
17AC
330
A
100
AcDbEntity
  8
MODEL
100
AcDbLine
 10
315.2849137437807
 20
232.6598970503146
 30
0.0
 11
315.0365137437806
 21
232.0598970503147
 31
0.0
  0
LINE
  5
17AD
330
A
100
AcDbEntity
  8
MODEL
100
AcDbLine
 10
315.0365137437806
 20
232.0598970503147
 30
0.0
 11
313.8771137437806
 21
232.0598970503147
 31
0.0
  0
LINE
  5
17AE
330
A
100
AcDbEntity
  8
MODEL
100
AcDbLine
 10
318.0133137437807
 20
228.6598970503146
 30
0.0
 11
318.2617137437807
 21
229.2598970503146
 31
0.0
  0
LINE
  5
17AF
330
A
100
AcDbEntity
  8
MODEL
100
AcDbLine
 10
318.0133137437807
 20
228.6598970503146
 30
0.0
 11
316.9415137437808
 21
232.6598970503146
 31
0.0
  0
LINE
  5
17B0
330
A
100
AcDbEntity
  8
MODEL
100
AcDbLine
 10
318.2617137437807
 20
229.2598970503146
 30
0.0
 11
317.1899137437807
 21
232.0598970503147
 31
0.0
  0
LINE
  5
17B1
330
A
100
AcDbEntity
  8
MODEL
100
AcDbLine
 10
316.6929137437807
 20
232.0598970503147
 30
0.0
 11
317.7647137437806
 21
229.2598970503146
 31
0.0
  0
LINE
  5
17B2
330
A
100
AcDbEntity
  8
MODEL
100
AcDbLine
 10
318.0133137437807
 20
228.6598970503146
 30
0.0
 11
317.7647137437806
 21
229.2598970503146
 31
0.0
  0
LINE
  5
17B3
330
A
100
AcDbEntity
  8
MODEL
100
AcDbLine
 10
317.7647137437806
 20
229.2598970503146
 30
0.0
 11
316.6053137437806
 21
229.2598970503146
 31
0.0
  0
LINE
  5
17B4
330
A
100
AcDbEntity
  8
MODEL
100
AcDbLine
 10
316.9415137437808
 20
232.6598970503146
 30
0.0
 11
317.1899137437807
 21
232.0598970503147
 31
0.0
  0
LINE
  5
17B5
330
A
100
AcDbEntity
  8
MODEL
100
AcDbLine
 10
316.9415137437808
 20
232.6598970503146
 30
0.0
 11
316.6929137437807
 21
232.0598970503147
 31
0.0
  0
LINE
  5
17B6
330
A
100
AcDbEntity
  8
MODEL
100
AcDbLine
 10
316.6929137437807
 20
232.0598970503147
 30
0.0
 11
315.5335137437806
 21
232.0598970503147
 31
0.0
  0
LINE
  5
17B7
330
A
100
AcDbEntity
  8
MODEL
100
AcDbLine
 10
319.6697137437808
 20
228.6598970503146
 30
0.0
 11
319.9181137437807
 21
229.2598970503146
 31
0.0
  0
LINE
  5
17B8
330
A
100
AcDbEntity
  8
MODEL
100
AcDbLine
 10
319.6697137437808
 20
228.6598970503146
 30
0.0
 11
318.5979137437806
 21
232.6598970503146
 31
0.0
  0
LINE
  5
17B9
330
A
100
AcDbEntity
  8
MODEL
100
AcDbLine
 10
319.9181137437807
 20
229.2598970503146
 30
0.0
 11
318.8465137437807
 21
232.0598970503147
 31
0.0
  0
LINE
  5
17BA
330
A
100
AcDbEntity
  8
MODEL
100
AcDbLine
 10
318.3493137437807
 20
232.0598970503147
 30
0.0
 11
319.4211137437807
 21
229.2598970503146
 31
0.0
  0
LINE
  5
17BB
330
A
100
AcDbEntity
  8
MODEL
100
AcDbLine
 10
319.6697137437808
 20
228.6598970503146
 30
0.0
 11
319.4211137437807
 21
229.2598970503146
 31
0.0
  0
LINE
  5
17BC
330
A
100
AcDbEntity
  8
MODEL
100
AcDbLine
 10
319.4211137437807
 20
229.2598970503146
 30
0.0
 11
318.2617137437807
 21
229.2598970503146
 31
0.0
  0
LINE
  5
17BD
330
A
100
AcDbEntity
  8
MODEL
100
AcDbLine
 10
318.5979137437806
 20
232.6598970503146
 30
0.0
 11
318.8465137437807
 21
232.0598970503147
 31
0.0
  0
LINE
  5
17BE
330
A
100
AcDbEntity
  8
MODEL
100
AcDbLine
 10
318.5979137437806
 20
232.6598970503146
 30
0.0
 11
318.3493137437807
 21
232.0598970503147
 31
0.0
  0
LINE
  5
17BF
330
A
100
AcDbEntity
  8
MODEL
100
AcDbLine
 10
318.3493137437807
 20
232.0598970503147
 30
0.0
 11
317.1899137437807
 21
232.0598970503147
 31
0.0
  0
LINE
  5
17C0
330
A
100
AcDbEntity
  8
MODEL
100
AcDbLine
 10
321.3261137437806
 20
228.6598970503146
 30
0.0
 11
321.5747137437805
 21
229.2598970503146
 31
0.0
  0
LINE
  5
17C1
330
A
100
AcDbEntity
  8
MODEL
100
AcDbLine
 10
321.3261137437806
 20
228.6598970503146
 30
0.0
 11
320.2543137437807
 21
232.6598970503146
 31
0.0
  0
LINE
  5
17C2
330
A
100
AcDbEntity
  8
MODEL
100
AcDbLine
 10
321.5747137437805
 20
229.2598970503146
 30
0.0
 11
320.5029137437808
 21
232.0598970503147
 31
0.0
  0
LINE
  5
17C3
330
A
100
AcDbEntity
  8
MODEL
100
AcDbLine
 10
320.0057137437806
 20
232.0598970503147
 30
0.0
 11
321.0775137437807
 21
229.2598970503146
 31
0.0
  0
LINE
  5
17C4
330
A
100
AcDbEntity
  8
MODEL
100
AcDbLine
 10
321.3261137437806
 20
228.6598970503146
 30
0.0
 11
321.0775137437807
 21
229.2598970503146
 31
0.0
  0
LINE
  5
17C5
330
A
100
AcDbEntity
  8
MODEL
100
AcDbLine
 10
321.0775137437807
 20
229.2598970503146
 30
0.0
 11
319.9181137437807
 21
229.2598970503146
 31
0.0
  0
LINE
  5
17C6
330
A
100
AcDbEntity
  8
MODEL
100
AcDbLine
 10
320.2543137437807
 20
232.6598970503146
 30
0.0
 11
320.5029137437808
 21
232.0598970503147
 31
0.0
  0
LINE
  5
17C7
330
A
100
AcDbEntity
  8
MODEL
100
AcDbLine
 10
320.2543137437807
 20
232.6598970503146
 30
0.0
 11
320.0057137437806
 21
232.0598970503147
 31
0.0
  0
LINE
  5
17C8
330
A
100
AcDbEntity
  8
MODEL
100
AcDbLine
 10
320.0057137437806
 20
232.0598970503147
 30
0.0
 11
318.8465137437807
 21
232.0598970503147
 31
0.0
  0
LINE
  5
17C9
330
A
100
AcDbEntity
  8
MODEL
100
AcDbLine
 10
322.9825137437807
 20
228.6598970503146
 30
0.0
 11
323.2311137437808
 21
229.2598970503146
 31
0.0
  0
LINE
  5
17CA
330
A
100
AcDbEntity
  8
MODEL
100
AcDbLine
 10
322.9825137437807
 20
228.6598970503146
 30
0.0
 11
321.9107137437808
 21
232.6598970503146
 31
0.0
  0
LINE
  5
17CB
330
A
100
AcDbEntity
  8
MODEL
100
AcDbLine
 10
323.2311137437808
 20
229.2598970503146
 30
0.0
 11
322.1593137437807
 21
232.0598970503147
 31
0.0
  0
LINE
  5
17CC
330
A
100
AcDbEntity
  8
MODEL
100
AcDbLine
 10
321.6623137437808
 20
232.0598970503147
 30
0.0
 11
322.7341137437805
 21
229.2598970503146
 31
0.0
  0
LINE
  5
17CD
330
A
100
AcDbEntity
  8
MODEL
100
AcDbLine
 10
322.9825137437807
 20
228.6598970503146
 30
0.0
 11
322.7341137437805
 21
229.2598970503146
 31
0.0
  0
LINE
  5
17CE
330
A
100
AcDbEntity
  8
MODEL
100
AcDbLine
 10
322.7341137437805
 20
229.2598970503146
 30
0.0
 11
321.5747137437805
 21
229.2598970503146
 31
0.0
  0
LINE
  5
17CF
330
A
100
AcDbEntity
  8
MODEL
100
AcDbLine
 10
321.9107137437808
 20
232.6598970503146
 30
0.0
 11
322.1593137437807
 21
232.0598970503147
 31
0.0
  0
LINE
  5
17D0
330
A
100
AcDbEntity
  8
MODEL
100
AcDbLine
 10
321.9107137437808
 20
232.6598970503146
 30
0.0
 11
321.6623137437808
 21
232.0598970503147
 31
0.0
  0
LINE
  5
17D1
330
A
100
AcDbEntity
  8
MODEL
100
AcDbLine
 10
321.6623137437808
 20
232.0598970503147
 30
0.0
 11
320.5029137437808
 21
232.0598970503147
 31
0.0
  0
LINE
  5
17D2
330
A
100
AcDbEntity
  8
MODEL
100
AcDbLine
 10
324.6389137437808
 20
228.6598970503146
 30
0.0
 11
324.8875137437807
 21
229.2598970503146
 31
0.0
  0
LINE
  5
17D3
330
A
100
AcDbEntity
  8
MODEL
100
AcDbLine
 10
324.6389137437808
 20
228.6598970503146
 30
0.0
 11
323.5671137437806
 21
232.6598970503146
 31
0.0
  0
LINE
  5
17D4
330
A
100
AcDbEntity
  8
MODEL
100
AcDbLine
 10
324.8875137437807
 20
229.2598970503146
 30
0.0
 11
323.8157137437807
 21
232.0598970503147
 31
0.0
  0
LINE
  5
17D5
330
A
100
AcDbEntity
  8
MODEL
100
AcDbLine
 10
323.3187137437807
 20
232.0598970503147
 30
0.0
 11
324.3905137437806
 21
229.2598970503146
 31
0.0
  0
LINE
  5
17D6
330
A
100
AcDbEntity
  8
MODEL
100
AcDbLine
 10
324.6389137437808
 20
228.6598970503146
 30
0.0
 11
324.3905137437806
 21
229.2598970503146
 31
0.0
  0
LINE
  5
17D7
330
A
100
AcDbEntity
  8
MODEL
100
AcDbLine
 10
324.3905137437806
 20
229.2598970503146
 30
0.0
 11
323.2311137437808
 21
229.2598970503146
 31
0.0
  0
LINE
  5
17D8
330
A
100
AcDbEntity
  8
MODEL
100
AcDbLine
 10
323.5671137437806
 20
232.6598970503146
 30
0.0
 11
323.8157137437807
 21
232.0598970503147
 31
0.0
  0
LINE
  5
17D9
330
A
100
AcDbEntity
  8
MODEL
100
AcDbLine
 10
323.5671137437806
 20
232.6598970503146
 30
0.0
 11
323.3187137437807
 21
232.0598970503147
 31
0.0
  0
LINE
  5
17DA
330
A
100
AcDbEntity
  8
MODEL
100
AcDbLine
 10
323.3187137437807
 20
232.0598970503147
 30
0.0
 11
322.1593137437807
 21
232.0598970503147
 31
0.0
  0
LINE
  5
17DB
330
A
100
AcDbEntity
  8
MODEL
100
AcDbLine
 10
329.4551137437805
 20
229.2318970503146
 30
0.0
 11
329.7763137437806
 21
230.0072970503146
 31
0.0
  0
LINE
  5
17DC
330
A
100
AcDbEntity
  8
MODEL
100
AcDbLine
 10
326.2955137437806
 20
228.6598970503146
 30
0.0
 11
325.2237137437806
 21
232.6598970503146
 31
0.0
  0
LINE
  5
17DD
330
A
100
AcDbEntity
  8
MODEL
100
AcDbLine
 10
329.6535137437808
 20
229.9626970503147
 30
0.0
 11
329.0333137437807
 21
231.5838970503147
 31
0.0
  0
LINE
  5
17DE
330
A
100
AcDbEntity
  8
MODEL
100
AcDbLine
 10
328.4509137437807
 20
231.8058970503147
 30
0.0
 11
329.2065137437806
 21
229.8318970503146
 31
0.0
  0
LINE
  5
17DF
330
A
100
AcDbEntity
  8
MODEL
100
AcDbLine
 10
329.4551137437805
 20
229.2318970503146
 30
0.0
 11
329.2065137437806
 21
229.8318970503146
 31
0.0
  0
LINE
  5
17E0
330
A
100
AcDbEntity
  8
MODEL
100
AcDbLine
 10
326.0469137437807
 20
229.2598970503146
 30
0.0
 11
324.8875137437807
 21
229.2598970503146
 31
0.0
  0
LINE
  5
17E1
330
A
100
AcDbEntity
  8
MODEL
100
AcDbLine
 10
328.6419137437807
 20
232.2678970503147
 30
0.0
 11
328.9059137437806
 21
231.6298970503146
 31
0.0
  0
LINE
  5
17E2
330
A
100
AcDbEntity
  8
MODEL
100
AcDbLine
 10
328.6419137437807
 20
232.2678970503147
 30
0.0
 11
328.4469137437808
 21
231.7958970503147
 31
0.0
  0
LINE
  5
17E3
330
A
100
AcDbEntity
  8
MODEL
100
AcDbLine
 10
324.9751137437808
 20
232.0598970503147
 30
0.0
 11
323.8157137437807
 21
232.0598970503147
 31
0.0
  0
LINE
  5
17E4
330
A
100
AcDbEntity
  8
MODEL
100
AcDbLine
 10
302.5693137437808
 20
229.2598970503146
 30
0.0
 11
302.5693137437808
 21
232.0598970503147
 31
0.0
  0
LINE
  5
17E5
330
A
100
AcDbEntity
  8
MODEL
100
AcDbLine
 10
331.5693137437808
 20
230.6598970503146
 30
0.0
 11
329.6535137437808
 21
229.9626970503147
 31
0.0
  0
LINE
  5
17E6
330
A
100
AcDbEntity
  8
MODEL
100
AcDbLine
 10
331.5693137437808
 20
230.6598970503146
 30
0.0
 11
328.9059137437806
 21
231.6298970503146
 31
0.0
  0
LINE
  5
17E7
330
A
100
AcDbEntity
  8
MODEL
100
AcDbLine
 10
329.4551137437805
 20
229.2318970503146
 30
0.0
 11
328.6419137437807
 21
232.2678970503147
 31
0.0
  0
LINE
  5
17E8
330
A
100
AcDbEntity
  8
MODEL
100
AcDbLine
 10
326.2955137437806
 20
228.6598970503146
 30
0.0
 11
326.5439137437805
 21
229.2598970503146
 31
0.0
  0
LINE
  5
17E9
330
A
100
AcDbEntity
  8
MODEL
100
AcDbLine
 10
326.2955137437806
 20
228.6598970503146
 30
0.0
 11
326.0469137437807
 21
229.2598970503146
 31
0.0
  0
LINE
  5
17EA
330
A
100
AcDbEntity
  8
MODEL
100
AcDbLine
 10
324.9751137437808
 20
232.0598970503147
 30
0.0
 11
326.0469137437807
 21
229.2598970503146
 31
0.0
  0
LINE
  5
17EB
330
A
100
AcDbEntity
  8
MODEL
100
AcDbLine
 10
326.5439137437805
 20
229.2598970503146
 30
0.0
 11
325.4721137437808
 21
232.0598970503147
 31
0.0
  0
LINE
  5
17EC
330
A
100
AcDbEntity
  8
MODEL
100
AcDbLine
 10
325.2237137437806
 20
232.6598970503146
 30
0.0
 11
325.4721137437808
 21
232.0598970503147
 31
0.0
  0
LINE
  5
17ED
330
A
100
AcDbEntity
  8
MODEL
100
AcDbLine
 10
325.2237137437806
 20
232.6598970503146
 30
0.0
 11
324.9751137437808
 21
232.0598970503147
 31
0.0
  0
LINE
  5
17EE
330
A
100
AcDbEntity
  8
MODEL
100
AcDbLine
 10
329.2173137437807
 20
229.8038970503146
 30
0.0
 11
328.1421137437807
 21
229.4124970503146
 31
0.0
  0
LINE
  5
17EF
330
A
100
AcDbEntity
  8
MODEL
100
AcDbLine
 10
328.4469137437808
 20
231.7958970503147
 30
0.0
 11
327.7229137437806
 21
232.0598970503147
 31
0.0
  0
LINE
  5
17F0
330
A
100
AcDbEntity
  8
MODEL
100
AcDbLine
 10
299.5693137437808
 20
228.8598970503147
 30
0.0
 11
299.5693137437808
 21
232.4598970503147
 31
0.0
  0
LINE
  5
17F1
330
A
100
AcDbEntity
  8
MODEL
100
AcDbLine
 10
302.5693137437808
 20
229.2598970503146
 30
0.0
 11
299.5693137437808
 21
228.8598970503147
 31
0.0
  0
LINE
  5
17F2
330
A
100
AcDbEntity
  8
MODEL
100
AcDbLine
 10
233.9319137437807
 20
246.6598970503146
 30
0.0
 11
233.9319137437807
 21
212.6598970503146
 31
0.0
  0
LINE
  5
17F3
330
A
100
AcDbEntity
  8
MODEL
100
AcDbLine
 10
251.9319137437807
 20
246.6598970503146
 30
0.0
 11
251.9319137437807
 21
212.6598970503146
 31
0.0
  0
LINE
  5
17F4
330
A
100
AcDbEntity
  8
MODEL
100
AcDbLine
 10
230.9319137437807
 20
248.6598970503146
 30
0.0
 11
254.9319137437807
 21
248.6598970503146
 31
0.0
  0
LINE
  5
17F5
330
A
100
AcDbEntity
  8
MODEL
100
AcDbLine
 10
233.3219137437808
 20
215.5966970503147
 30
0.0
 11
231.5199137437806
 21
213.8556970503147
 31
0.0
  0
LINE
  5
17F6
330
A
100
AcDbEntity
  8
MODEL
100
AcDbLine
 10
252.5419137437806
 20
215.5966970503147
 30
0.0
 11
254.3439137437807
 21
213.8556970503147
 31
0.0
  0
LINE
  5
17F8
330
A
100
AcDbEntity
  8
MODEL
100
AcDbLine
 10
78.63784183564485
 20
208.6598970503146
 30
0.0
 11
88.5778418356449
 21
208.6598970503146
 31
0.0
  0
LINE
  5
17F9
330
A
100
AcDbEntity
  8
MODEL
100
AcDbLine
 10
76.63784183564485
 20
250.6598970503146
 30
0.0
 11
76.63784183564485
 21
210.6598970503146
 31
0.0
  0
LINE
  5
17FB
330
A
100
AcDbEntity
  8
MODEL
100
AcDbLine
 10
82.63784183564485
 20
254.6598970503146
 30
0.0
 11
82.63784183564485
 21
208.6598970503146
 31
0.0
  0
LINE
  5
17FC
330
A
100
AcDbEntity
  8
MODEL
100
AcDbLine
 10
78.63784183564485
 20
252.6598970503146
 30
0.0
 11
82.63784183564485
 21
252.6598970503146
 31
0.0
  0
LINE
  5
17FD
330
A
100
AcDbEntity
  8
MODEL
100
AcDbLine
 10
88.63784183564485
 20
251.6598970503146
 30
0.0
 11
89.13784183564485
 21
251.6598970503146
 31
0.0
  0
LINE
  5
17FE
330
A
100
AcDbEntity
  8
MODEL
100
AcDbLine
 10
88.63784183564485
 20
209.6598970503146
 30
0.0
 11
89.13784183564485
 21
209.6598970503146
 31
0.0
  0
LINE
  5
17FF
330
A
100
AcDbEntity
  8
MODEL
100
AcDbLine
 10
88.63784183564485
 20
254.6598970503146
 30
0.0
 11
88.63784183564485
 21
208.6598970503146
 31
0.0
  0
LINE
  5
1800
330
A
100
AcDbEntity
  8
MODEL
100
AcDbLine
 10
89.13784183564485
 20
251.6598970503146
 30
0.0
 11
89.13784183564485
 21
209.6598970503146
 31
0.0
  0
LINE
  5
1801
330
A
100
AcDbEntity
  8
MODEL
100
AcDbLine
 10
125.6378418356448
 20
208.4098970503146
 30
0.0
 11
125.6378418356448
 21
191.6598970503147
 31
0.0
  0
LINE
  5
1802
330
A
100
AcDbEntity
  8
MODEL
100
AcDbLine
 10
108.1378418356448
 20
252.6598970503146
 30
0.0
 11
90.63784183564485
 21
252.6598970503146
 31
0.0
  0
LINE
  5
1803
330
A
100
AcDbEntity
  8
MODEL
100
AcDbLine
 10
108.1378418356448
 20
252.9098970503146
 30
0.0
 11
117.5298418356449
 21
252.9098970503146
 31
0.0
  0
LINE
  5
1804
330
A
100
AcDbEntity
  8
MODEL
100
AcDbLine
 10
108.1378418356448
 20
208.4098970503146
 30
0.0
 11
131.3398418356448
 21
208.4098970503146
 31
0.0
  0
LINE
  5
1805
330
A
100
AcDbEntity
  8
MODEL
100
AcDbLine
 10
161.1378418356448
 20
246.6598970503146
 30
0.0
 11
161.1378418356448
 21
217.8646970503147
 31
0.0
  0
LINE
  5
1807
330
A
100
AcDbEntity
  8
MODEL
100
AcDbLine
 10
126.007841835645
 20
248.6598970503146
 30
0.0
 11
159.1378418356448
 21
248.6598970503146
 31
0.0
  0
LINE
  5
1808
330
A
100
AcDbEntity
  8
MODEL
100
AcDbLine
 10
159.4858418356448
 20
215.8950970503147
 30
0.0
 11
141.1378418356448
 21
212.6598970503146
 31
0.0
  0
LINE
  5
1809
330
A
100
AcDbEntity
  8
MODEL
100
AcDbLine
 10
108.1378418356448
 20
208.6598970503146
 30
0.0
 11
90.63784183564485
 21
208.6598970503146
 31
0.0
  0
LINE
  5
180A
330
A
100
AcDbEntity
  8
MODEL
100
AcDbLine
 10
90.63784183564485
 20
252.6598970503146
 30
0.0
 11
90.63784183564485
 21
191.6598970503147
 31
0.0
  0
LINE
  5
180B
330
A
100
AcDbEntity
  8
MODEL
100
AcDbLine
 10
108.1378418356448
 20
252.9098970503146
 30
0.0
 11
108.1378418356448
 21
207.9090970503147
 31
0.0
  0
LINE
  5
180C
330
A
100
AcDbEntity
  8
MODEL
100
AcDbLine
 10
91.63784183564485
 20
190.6598970503147
 30
0.0
 11
124.6378418356448
 21
190.6598970503147
 31
0.0
  0
LINE
  5
180D
330
A
100
AcDbEntity
  8
MODEL
100
AcDbLine
 10
108.1378418356448
 20
207.9090970503147
 30
0.0
 11
124.6378418356448
 21
207.9090970503147
 31
0.0
  0
LINE
  5
180E
330
A
100
AcDbEntity
  8
MODEL
100
AcDbLine
 10
89.13784183564485
 20
249.1598970503146
 30
0.0
 11
90.63784183564485
 21
249.1598970503146
 31
0.0
  0
LINE
  5
180F
330
A
100
AcDbEntity
  8
MODEL
100
AcDbLine
 10
89.13784183564485
 20
212.1598970503146
 30
0.0
 11
90.63784183564485
 21
212.1598970503146
 31
0.0
  0
LINE
  5
1812
330
A
100
AcDbEntity
  8
MODEL
100
AcDbLine
 10
90.63784183564485
 20
425.8273629416171
 30
0.0
 11
125.6378418356448
 21
425.8273629416171
 31
0.0
  0
LINE
  5
1813
330
A
100
AcDbEntity
  8
MODEL
100
AcDbLine
 10
109.9378418356448
 20
439.965362941617
 30
0.0
 11
109.9378418356448
 21
426.3273629416171
 31
0.0
  0
LINE
  5
1814
330
A
100
AcDbEntity
  8
MODEL
100
AcDbLine
 10
106.3378418356449
 20
439.965362941617
 30
0.0
 11
106.3378418356449
 21
426.3273629416171
 31
0.0
  0
LINE
  5
1815
330
A
100
AcDbEntity
  8
MODEL
100
AcDbLine
 10
93.88784183564485
 20
426.3273629416171
 30
0.0
 11
122.3878418356448
 21
426.3273629416171
 31
0.0
  0
LINE
  5
1816
330
A
100
AcDbEntity
  8
MODEL
100
AcDbLine
 10
122.3878418356448
 20
425.8273629416171
 30
0.0
 11
122.3878418356448
 21
426.3273629416171
 31
0.0
  0
LINE
  5
1817
330
A
100
AcDbEntity
  8
MODEL
100
AcDbLine
 10
93.88784183564485
 20
425.8273629416171
 30
0.0
 11
93.88784183564485
 21
426.3273629416171
 31
0.0
  0
LINE
  5
1818
330
A
100
AcDbEntity
  8
MODEL
100
AcDbLine
 10
106.737841835645
 20
467.0273629416171
 30
0.0
 11
106.737841835645
 21
465.867362941617
 31
0.0
  0
LINE
  5
1819
330
A
100
AcDbEntity
  8
MODEL
100
AcDbLine
 10
106.737841835645
 20
442.965362941617
 30
0.0
 11
106.3378418356449
 21
439.965362941617
 31
0.0
  0
LINE
  5
181A
330
A
100
AcDbEntity
  8
MODEL
100
AcDbLine
 10
109.5378418356447
 20
468.099362941617
 30
0.0
 11
109.5378418356447
 21
466.9393629416169
 31
0.0
  0
LINE
  5
181B
330
A
100
AcDbEntity
  8
MODEL
100
AcDbLine
 10
106.737841835645
 20
468.117362941617
 30
0.0
 11
106.737841835645
 21
467.523362941617
 31
0.0
  0
LINE
  5
181C
330
A
100
AcDbEntity
  8
MODEL
100
AcDbLine
 10
110.1378418356448
 20
468.3473629416171
 30
0.0
 11
106.1378418356448
 21
467.2753629416169
 31
0.0
  0
LINE
  5
181D
330
A
100
AcDbEntity
  8
MODEL
100
AcDbLine
 10
110.1378418356448
 20
468.3473629416171
 30
0.0
 11
109.5378418356447
 21
468.099362941617
 31
0.0
  0
LINE
  5
181E
330
A
100
AcDbEntity
  8
MODEL
100
AcDbLine
 10
110.1378418356448
 20
468.3473629416171
 30
0.0
 11
109.333841835645
 21
468.6813629416171
 31
0.0
  0
LINE
  5
181F
330
A
100
AcDbEntity
  8
MODEL
100
AcDbLine
 10
110.1378418356448
 20
443.5013629416171
 30
0.0
 11
108.1378418356448
 21
442.965362941617
 31
0.0
  0
LINE
  5
1820
330
A
100
AcDbEntity
  8
MODEL
100
AcDbLine
 10
106.1378418356448
 20
467.2753629416169
 30
0.0
 11
106.737841835645
 21
467.523362941617
 31
0.0
  0
LINE
  5
1821
330
A
100
AcDbEntity
  8
MODEL
100
AcDbLine
 10
106.1378418356448
 20
467.2753629416169
 30
0.0
 11
106.737841835645
 21
467.0273629416171
 31
0.0
  0
LINE
  5
1822
330
A
100
AcDbEntity
  8
MODEL
100
AcDbLine
 10
110.1378418356448
 20
443.5013629416171
 30
0.0
 11
109.5378418356447
 21
443.7493629416171
 31
0.0
  0
LINE
  5
1823
330
A
100
AcDbEntity
  8
MODEL
100
AcDbLine
 10
110.1378418356448
 20
443.5013629416171
 30
0.0
 11
109.5378418356447
 21
443.2513629416171
 31
0.0
  0
LINE
  5
1824
330
A
100
AcDbEntity
  8
MODEL
100
AcDbLine
 10
109.3858418356449
 20
468.5373629416171
 30
0.0
 11
106.737841835645
 21
467.523362941617
 31
0.0
  0
LINE
  5
1825
330
A
100
AcDbEntity
  8
MODEL
100
AcDbLine
 10
106.737841835645
 20
467.0273629416171
 30
0.0
 11
109.5378418356447
 21
468.099362941617
 31
0.0
  0
LINE
  5
1826
330
A
100
AcDbEntity
  8
MODEL
100
AcDbLine
 10
109.5378418356447
 20
443.2513629416171
 30
0.0
 11
108.1378418356448
 21
442.965362941617
 31
0.0
  0
LINE
  5
1827
330
A
100
AcDbEntity
  8
MODEL
100
AcDbLine
 10
108.1378418356448
 20
442.965362941617
 30
0.0
 11
109.5378418356447
 21
443.7493629416171
 31
0.0
  0
LINE
  5
1828
330
A
100
AcDbEntity
  8
MODEL
100
AcDbLine
 10
109.5378418356447
 20
443.2513629416171
 30
0.0
 11
109.5378418356447
 21
442.965362941617
 31
0.0
  0
LINE
  5
1829
330
A
100
AcDbEntity
  8
MODEL
100
AcDbLine
 10
110.1378418356448
 20
445.157362941617
 30
0.0
 11
109.5378418356447
 21
445.4053629416171
 31
0.0
  0
LINE
  5
182A
330
A
100
AcDbEntity
  8
MODEL
100
AcDbLine
 10
110.1378418356448
 20
445.157362941617
 30
0.0
 11
106.1378418356448
 21
444.085362941617
 31
0.0
  0
LINE
  5
182B
330
A
100
AcDbEntity
  8
MODEL
100
AcDbLine
 10
109.5378418356447
 20
445.4053629416171
 30
0.0
 11
106.737841835645
 21
444.3333629416169
 31
0.0
  0
LINE
  5
182C
330
A
100
AcDbEntity
  8
MODEL
100
AcDbLine
 10
106.737841835645
 20
443.8373629416171
 30
0.0
 11
109.5378418356447
 21
444.909362941617
 31
0.0
  0
LINE
  5
182D
330
A
100
AcDbEntity
  8
MODEL
100
AcDbLine
 10
110.1378418356448
 20
445.157362941617
 30
0.0
 11
109.5378418356447
 21
444.909362941617
 31
0.0
  0
LINE
  5
182E
330
A
100
AcDbEntity
  8
MODEL
100
AcDbLine
 10
109.5378418356447
 20
444.909362941617
 30
0.0
 11
109.5378418356447
 21
443.7493629416171
 31
0.0
  0
LINE
  5
182F
330
A
100
AcDbEntity
  8
MODEL
100
AcDbLine
 10
106.1378418356448
 20
444.085362941617
 30
0.0
 11
106.737841835645
 21
444.3333629416169
 31
0.0
  0
LINE
  5
1830
330
A
100
AcDbEntity
  8
MODEL
100
AcDbLine
 10
106.1378418356448
 20
444.085362941617
 30
0.0
 11
106.737841835645
 21
443.8373629416171
 31
0.0
  0
LINE
  5
1831
330
A
100
AcDbEntity
  8
MODEL
100
AcDbLine
 10
106.737841835645
 20
443.8373629416171
 30
0.0
 11
106.737841835645
 21
442.965362941617
 31
0.0
  0
LINE
  5
1832
330
A
100
AcDbEntity
  8
MODEL
100
AcDbLine
 10
110.1378418356448
 20
446.813362941617
 30
0.0
 11
109.5378418356447
 21
447.061362941617
 31
0.0
  0
LINE
  5
1833
330
A
100
AcDbEntity
  8
MODEL
100
AcDbLine
 10
110.1378418356448
 20
446.813362941617
 30
0.0
 11
106.1378418356448
 21
445.7413629416171
 31
0.0
  0
LINE
  5
1834
330
A
100
AcDbEntity
  8
MODEL
100
AcDbLine
 10
109.5378418356447
 20
447.061362941617
 30
0.0
 11
106.737841835645
 21
445.989362941617
 31
0.0
  0
LINE
  5
1835
330
A
100
AcDbEntity
  8
MODEL
100
AcDbLine
 10
106.737841835645
 20
445.493362941617
 30
0.0
 11
109.5378418356447
 21
446.565362941617
 31
0.0
  0
LINE
  5
1836
330
A
100
AcDbEntity
  8
MODEL
100
AcDbLine
 10
110.1378418356448
 20
446.813362941617
 30
0.0
 11
109.5378418356447
 21
446.565362941617
 31
0.0
  0
LINE
  5
1837
330
A
100
AcDbEntity
  8
MODEL
100
AcDbLine
 10
109.5378418356447
 20
446.565362941617
 30
0.0
 11
109.5378418356447
 21
445.4053629416171
 31
0.0
  0
LINE
  5
1838
330
A
100
AcDbEntity
  8
MODEL
100
AcDbLine
 10
106.1378418356448
 20
445.7413629416171
 30
0.0
 11
106.737841835645
 21
445.989362941617
 31
0.0
  0
LINE
  5
1839
330
A
100
AcDbEntity
  8
MODEL
100
AcDbLine
 10
106.1378418356448
 20
445.7413629416171
 30
0.0
 11
106.737841835645
 21
445.493362941617
 31
0.0
  0
LINE
  5
183A
330
A
100
AcDbEntity
  8
MODEL
100
AcDbLine
 10
106.737841835645
 20
445.493362941617
 30
0.0
 11
106.737841835645
 21
444.3333629416169
 31
0.0
  0
LINE
  5
183B
330
A
100
AcDbEntity
  8
MODEL
100
AcDbLine
 10
110.1378418356448
 20
448.469362941617
 30
0.0
 11
109.5378418356447
 21
448.719362941617
 31
0.0
  0
LINE
  5
183C
330
A
100
AcDbEntity
  8
MODEL
100
AcDbLine
 10
110.1378418356448
 20
448.469362941617
 30
0.0
 11
106.1378418356448
 21
447.397362941617
 31
0.0
  0
LINE
  5
183D
330
A
100
AcDbEntity
  8
MODEL
100
AcDbLine
 10
109.5378418356447
 20
448.719362941617
 30
0.0
 11
106.737841835645
 21
447.647362941617
 31
0.0
  0
LINE
  5
183E
330
A
100
AcDbEntity
  8
MODEL
100
AcDbLine
 10
106.737841835645
 20
447.149362941617
 30
0.0
 11
109.5378418356447
 21
448.2213629416171
 31
0.0
  0
LINE
  5
183F
330
A
100
AcDbEntity
  8
MODEL
100
AcDbLine
 10
110.1378418356448
 20
448.469362941617
 30
0.0
 11
109.5378418356447
 21
448.2213629416171
 31
0.0
  0
LINE
  5
1840
330
A
100
AcDbEntity
  8
MODEL
100
AcDbLine
 10
109.5378418356447
 20
448.2213629416171
 30
0.0
 11
109.5378418356447
 21
447.061362941617
 31
0.0
  0
LINE
  5
1841
330
A
100
AcDbEntity
  8
MODEL
100
AcDbLine
 10
106.1378418356448
 20
447.397362941617
 30
0.0
 11
106.737841835645
 21
447.647362941617
 31
0.0
  0
LINE
  5
1842
330
A
100
AcDbEntity
  8
MODEL
100
AcDbLine
 10
106.1378418356448
 20
447.397362941617
 30
0.0
 11
106.737841835645
 21
447.149362941617
 31
0.0
  0
LINE
  5
1843
330
A
100
AcDbEntity
  8
MODEL
100
AcDbLine
 10
106.737841835645
 20
447.149362941617
 30
0.0
 11
106.737841835645
 21
445.989362941617
 31
0.0
  0
LINE
  5
1844
330
A
100
AcDbEntity
  8
MODEL
100
AcDbLine
 10
110.1378418356448
 20
450.127362941617
 30
0.0
 11
109.5378418356447
 21
450.3753629416171
 31
0.0
  0
LINE
  5
1845
330
A
100
AcDbEntity
  8
MODEL
100
AcDbLine
 10
110.1378418356448
 20
450.127362941617
 30
0.0
 11
106.1378418356448
 21
449.055362941617
 31
0.0
  0
LINE
  5
1846
330
A
100
AcDbEntity
  8
MODEL
100
AcDbLine
 10
109.5378418356447
 20
450.3753629416171
 30
0.0
 11
106.737841835645
 21
449.303362941617
 31
0.0
  0
LINE
  5
1847
330
A
100
AcDbEntity
  8
MODEL
100
AcDbLine
 10
106.737841835645
 20
448.805362941617
 30
0.0
 11
109.5378418356447
 21
449.877362941617
 31
0.0
  0
LINE
  5
1848
330
A
100
AcDbEntity
  8
MODEL
100
AcDbLine
 10
110.1378418356448
 20
450.127362941617
 30
0.0
 11
109.5378418356447
 21
449.877362941617
 31
0.0
  0
LINE
  5
1849
330
A
100
AcDbEntity
  8
MODEL
100
AcDbLine
 10
109.5378418356447
 20
449.877362941617
 30
0.0
 11
109.5378418356447
 21
448.719362941617
 31
0.0
  0
LINE
  5
184A
330
A
100
AcDbEntity
  8
MODEL
100
AcDbLine
 10
106.1378418356448
 20
449.055362941617
 30
0.0
 11
106.737841835645
 21
449.303362941617
 31
0.0
  0
LINE
  5
184B
330
A
100
AcDbEntity
  8
MODEL
100
AcDbLine
 10
106.1378418356448
 20
449.055362941617
 30
0.0
 11
106.737841835645
 21
448.805362941617
 31
0.0
  0
LINE
  5
184C
330
A
100
AcDbEntity
  8
MODEL
100
AcDbLine
 10
106.737841835645
 20
448.805362941617
 30
0.0
 11
106.737841835645
 21
447.647362941617
 31
0.0
  0
LINE
  5
184D
330
A
100
AcDbEntity
  8
MODEL
100
AcDbLine
 10
110.1378418356448
 20
451.783362941617
 30
0.0
 11
109.5378418356447
 21
452.031362941617
 31
0.0
  0
LINE
  5
184E
330
A
100
AcDbEntity
  8
MODEL
100
AcDbLine
 10
110.1378418356448
 20
451.783362941617
 30
0.0
 11
106.1378418356448
 21
450.7113629416171
 31
0.0
  0
LINE
  5
184F
330
A
100
AcDbEntity
  8
MODEL
100
AcDbLine
 10
109.5378418356447
 20
452.031362941617
 30
0.0
 11
106.737841835645
 21
450.959362941617
 31
0.0
  0
LINE
  5
1850
330
A
100
AcDbEntity
  8
MODEL
100
AcDbLine
 10
106.737841835645
 20
450.463362941617
 30
0.0
 11
109.5378418356447
 21
451.5353629416171
 31
0.0
  0
LINE
  5
1851
330
A
100
AcDbEntity
  8
MODEL
100
AcDbLine
 10
110.1378418356448
 20
451.783362941617
 30
0.0
 11
109.5378418356447
 21
451.5353629416171
 31
0.0
  0
LINE
  5
1852
330
A
100
AcDbEntity
  8
MODEL
100
AcDbLine
 10
109.5378418356447
 20
451.5353629416171
 30
0.0
 11
109.5378418356447
 21
450.3753629416171
 31
0.0
  0
LINE
  5
1853
330
A
100
AcDbEntity
  8
MODEL
100
AcDbLine
 10
106.1378418356448
 20
450.7113629416171
 30
0.0
 11
106.737841835645
 21
450.959362941617
 31
0.0
  0
LINE
  5
1854
330
A
100
AcDbEntity
  8
MODEL
100
AcDbLine
 10
106.1378418356448
 20
450.7113629416171
 30
0.0
 11
106.737841835645
 21
450.463362941617
 31
0.0
  0
LINE
  5
1855
330
A
100
AcDbEntity
  8
MODEL
100
AcDbLine
 10
106.737841835645
 20
450.463362941617
 30
0.0
 11
106.737841835645
 21
449.303362941617
 31
0.0
  0
LINE
  5
1856
330
A
100
AcDbEntity
  8
MODEL
100
AcDbLine
 10
110.1378418356448
 20
453.439362941617
 30
0.0
 11
109.5378418356447
 21
453.687362941617
 31
0.0
  0
LINE
  5
1857
330
A
100
AcDbEntity
  8
MODEL
100
AcDbLine
 10
110.1378418356448
 20
453.439362941617
 30
0.0
 11
106.1378418356448
 21
452.367362941617
 31
0.0
  0
LINE
  5
1858
330
A
100
AcDbEntity
  8
MODEL
100
AcDbLine
 10
109.5378418356447
 20
453.687362941617
 30
0.0
 11
106.737841835645
 21
452.6153629416171
 31
0.0
  0
LINE
  5
1859
330
A
100
AcDbEntity
  8
MODEL
100
AcDbLine
 10
106.737841835645
 20
452.119362941617
 30
0.0
 11
109.5378418356447
 21
453.191362941617
 31
0.0
  0
LINE
  5
185A
330
A
100
AcDbEntity
  8
MODEL
100
AcDbLine
 10
110.1378418356448
 20
453.439362941617
 30
0.0
 11
109.5378418356447
 21
453.191362941617
 31
0.0
  0
LINE
  5
185B
330
A
100
AcDbEntity
  8
MODEL
100
AcDbLine
 10
109.5378418356447
 20
453.191362941617
 30
0.0
 11
109.5378418356447
 21
452.031362941617
 31
0.0
  0
LINE
  5
185C
330
A
100
AcDbEntity
  8
MODEL
100
AcDbLine
 10
106.1378418356448
 20
452.367362941617
 30
0.0
 11
106.737841835645
 21
452.6153629416171
 31
0.0
  0
LINE
  5
185D
330
A
100
AcDbEntity
  8
MODEL
100
AcDbLine
 10
106.1378418356448
 20
452.367362941617
 30
0.0
 11
106.737841835645
 21
452.119362941617
 31
0.0
  0
LINE
  5
185E
330
A
100
AcDbEntity
  8
MODEL
100
AcDbLine
 10
106.737841835645
 20
452.119362941617
 30
0.0
 11
106.737841835645
 21
450.959362941617
 31
0.0
  0
LINE
  5
185F
330
A
100
AcDbEntity
  8
MODEL
100
AcDbLine
 10
110.1378418356448
 20
455.095362941617
 30
0.0
 11
109.5378418356447
 21
455.3433629416169
 31
0.0
  0
LINE
  5
1860
330
A
100
AcDbEntity
  8
MODEL
100
AcDbLine
 10
110.1378418356448
 20
455.095362941617
 30
0.0
 11
106.1378418356448
 21
454.023362941617
 31
0.0
  0
LINE
  5
1861
330
A
100
AcDbEntity
  8
MODEL
100
AcDbLine
 10
109.5378418356447
 20
455.3433629416169
 30
0.0
 11
106.737841835645
 21
454.273362941617
 31
0.0
  0
LINE
  5
1862
330
A
100
AcDbEntity
  8
MODEL
100
AcDbLine
 10
106.737841835645
 20
453.7753629416169
 30
0.0
 11
109.5378418356447
 21
454.8473629416171
 31
0.0
  0
LINE
  5
1863
330
A
100
AcDbEntity
  8
MODEL
100
AcDbLine
 10
110.1378418356448
 20
455.095362941617
 30
0.0
 11
109.5378418356447
 21
454.8473629416171
 31
0.0
  0
LINE
  5
1864
330
A
100
AcDbEntity
  8
MODEL
100
AcDbLine
 10
109.5378418356447
 20
454.8473629416171
 30
0.0
 11
109.5378418356447
 21
453.687362941617
 31
0.0
  0
LINE
  5
1865
330
A
100
AcDbEntity
  8
MODEL
100
AcDbLine
 10
106.1378418356448
 20
454.023362941617
 30
0.0
 11
106.737841835645
 21
454.273362941617
 31
0.0
  0
LINE
  5
1866
330
A
100
AcDbEntity
  8
MODEL
100
AcDbLine
 10
106.1378418356448
 20
454.023362941617
 30
0.0
 11
106.737841835645
 21
453.7753629416169
 31
0.0
  0
LINE
  5
1867
330
A
100
AcDbEntity
  8
MODEL
100
AcDbLine
 10
106.737841835645
 20
453.7753629416169
 30
0.0
 11
106.737841835645
 21
452.6153629416171
 31
0.0
  0
LINE
  5
1868
330
A
100
AcDbEntity
  8
MODEL
100
AcDbLine
 10
110.1378418356448
 20
456.7513629416171
 30
0.0
 11
109.5378418356447
 21
457.0013629416171
 31
0.0
  0
LINE
  5
1869
330
A
100
AcDbEntity
  8
MODEL
100
AcDbLine
 10
110.1378418356448
 20
456.7513629416171
 30
0.0
 11
106.1378418356448
 21
455.6813629416171
 31
0.0
  0
LINE
  5
186A
330
A
100
AcDbEntity
  8
MODEL
100
AcDbLine
 10
109.5378418356447
 20
457.0013629416171
 30
0.0
 11
106.737841835645
 21
455.9293629416169
 31
0.0
  0
LINE
  5
186B
330
A
100
AcDbEntity
  8
MODEL
100
AcDbLine
 10
106.737841835645
 20
455.4313629416171
 30
0.0
 11
109.5378418356447
 21
456.503362941617
 31
0.0
  0
LINE
  5
186C
330
A
100
AcDbEntity
  8
MODEL
100
AcDbLine
 10
110.1378418356448
 20
456.7513629416171
 30
0.0
 11
109.5378418356447
 21
456.503362941617
 31
0.0
  0
LINE
  5
186D
330
A
100
AcDbEntity
  8
MODEL
100
AcDbLine
 10
109.5378418356447
 20
456.503362941617
 30
0.0
 11
109.5378418356447
 21
455.3433629416169
 31
0.0
  0
LINE
  5
186E
330
A
100
AcDbEntity
  8
MODEL
100
AcDbLine
 10
106.1378418356448
 20
455.6813629416171
 30
0.0
 11
106.737841835645
 21
455.9293629416169
 31
0.0
  0
LINE
  5
186F
330
A
100
AcDbEntity
  8
MODEL
100
AcDbLine
 10
106.1378418356448
 20
455.6813629416171
 30
0.0
 11
106.737841835645
 21
455.4313629416171
 31
0.0
  0
LINE
  5
1870
330
A
100
AcDbEntity
  8
MODEL
100
AcDbLine
 10
106.737841835645
 20
455.4313629416171
 30
0.0
 11
106.737841835645
 21
454.273362941617
 31
0.0
  0
LINE
  5
1871
330
A
100
AcDbEntity
  8
MODEL
100
AcDbLine
 10
110.1378418356448
 20
458.409362941617
 30
0.0
 11
109.5378418356447
 21
458.657362941617
 31
0.0
  0
LINE
  5
1872
330
A
100
AcDbEntity
  8
MODEL
100
AcDbLine
 10
110.1378418356448
 20
458.409362941617
 30
0.0
 11
106.1378418356448
 21
457.3373629416171
 31
0.0
  0
LINE
  5
1873
330
A
100
AcDbEntity
  8
MODEL
100
AcDbLine
 10
109.5378418356447
 20
458.657362941617
 30
0.0
 11
106.737841835645
 21
457.5853629416171
 31
0.0
  0
LINE
  5
1874
330
A
100
AcDbEntity
  8
MODEL
100
AcDbLine
 10
106.737841835645
 20
457.0873629416171
 30
0.0
 11
109.5378418356447
 21
458.159362941617
 31
0.0
  0
LINE
  5
1875
330
A
100
AcDbEntity
  8
MODEL
100
AcDbLine
 10
110.1378418356448
 20
458.409362941617
 30
0.0
 11
109.5378418356447
 21
458.159362941617
 31
0.0
  0
LINE
  5
1876
330
A
100
AcDbEntity
  8
MODEL
100
AcDbLine
 10
109.5378418356447
 20
458.159362941617
 30
0.0
 11
109.5378418356447
 21
457.0013629416171
 31
0.0
  0
LINE
  5
1877
330
A
100
AcDbEntity
  8
MODEL
100
AcDbLine
 10
106.1378418356448
 20
457.3373629416171
 30
0.0
 11
106.737841835645
 21
457.5853629416171
 31
0.0
  0
LINE
  5
1878
330
A
100
AcDbEntity
  8
MODEL
100
AcDbLine
 10
106.1378418356448
 20
457.3373629416171
 30
0.0
 11
106.737841835645
 21
457.0873629416171
 31
0.0
  0
LINE
  5
1879
330
A
100
AcDbEntity
  8
MODEL
100
AcDbLine
 10
106.737841835645
 20
457.0873629416171
 30
0.0
 11
106.737841835645
 21
455.9293629416169
 31
0.0
  0
LINE
  5
187A
330
A
100
AcDbEntity
  8
MODEL
100
AcDbLine
 10
110.1378418356448
 20
460.0653629416171
 30
0.0
 11
109.5378418356447
 21
460.313362941617
 31
0.0
  0
LINE
  5
187B
330
A
100
AcDbEntity
  8
MODEL
100
AcDbLine
 10
110.1378418356448
 20
460.0653629416171
 30
0.0
 11
106.1378418356448
 21
458.993362941617
 31
0.0
  0
LINE
  5
187C
330
A
100
AcDbEntity
  8
MODEL
100
AcDbLine
 10
109.5378418356447
 20
460.313362941617
 30
0.0
 11
106.737841835645
 21
459.2413629416171
 31
0.0
  0
LINE
  5
187D
330
A
100
AcDbEntity
  8
MODEL
100
AcDbLine
 10
106.737841835645
 20
458.745362941617
 30
0.0
 11
109.5378418356447
 21
459.8173629416171
 31
0.0
  0
LINE
  5
187E
330
A
100
AcDbEntity
  8
MODEL
100
AcDbLine
 10
110.1378418356448
 20
460.0653629416171
 30
0.0
 11
109.5378418356447
 21
459.8173629416171
 31
0.0
  0
LINE
  5
187F
330
A
100
AcDbEntity
  8
MODEL
100
AcDbLine
 10
109.5378418356447
 20
459.8173629416171
 30
0.0
 11
109.5378418356447
 21
458.657362941617
 31
0.0
  0
LINE
  5
1880
330
A
100
AcDbEntity
  8
MODEL
100
AcDbLine
 10
106.1378418356448
 20
458.993362941617
 30
0.0
 11
106.737841835645
 21
459.2413629416171
 31
0.0
  0
LINE
  5
1881
330
A
100
AcDbEntity
  8
MODEL
100
AcDbLine
 10
106.1378418356448
 20
458.993362941617
 30
0.0
 11
106.737841835645
 21
458.745362941617
 31
0.0
  0
LINE
  5
1882
330
A
100
AcDbEntity
  8
MODEL
100
AcDbLine
 10
106.737841835645
 20
458.745362941617
 30
0.0
 11
106.737841835645
 21
457.5853629416171
 31
0.0
  0
LINE
  5
1883
330
A
100
AcDbEntity
  8
MODEL
100
AcDbLine
 10
110.1378418356448
 20
461.7213629416171
 30
0.0
 11
109.5378418356447
 21
461.9693629416171
 31
0.0
  0
LINE
  5
1884
330
A
100
AcDbEntity
  8
MODEL
100
AcDbLine
 10
110.1378418356448
 20
461.7213629416171
 30
0.0
 11
106.1378418356448
 21
460.649362941617
 31
0.0
  0
LINE
  5
1885
330
A
100
AcDbEntity
  8
MODEL
100
AcDbLine
 10
109.5378418356447
 20
461.9693629416171
 30
0.0
 11
106.737841835645
 21
460.897362941617
 31
0.0
  0
LINE
  5
1886
330
A
100
AcDbEntity
  8
MODEL
100
AcDbLine
 10
106.737841835645
 20
460.4013629416169
 30
0.0
 11
109.5378418356447
 21
461.473362941617
 31
0.0
  0
LINE
  5
1887
330
A
100
AcDbEntity
  8
MODEL
100
AcDbLine
 10
110.1378418356448
 20
461.7213629416171
 30
0.0
 11
109.5378418356447
 21
461.473362941617
 31
0.0
  0
LINE
  5
1888
330
A
100
AcDbEntity
  8
MODEL
100
AcDbLine
 10
109.5378418356447
 20
461.473362941617
 30
0.0
 11
109.5378418356447
 21
460.313362941617
 31
0.0
  0
LINE
  5
1889
330
A
100
AcDbEntity
  8
MODEL
100
AcDbLine
 10
106.1378418356448
 20
460.649362941617
 30
0.0
 11
106.737841835645
 21
460.897362941617
 31
0.0
  0
LINE
  5
188A
330
A
100
AcDbEntity
  8
MODEL
100
AcDbLine
 10
106.1378418356448
 20
460.649362941617
 30
0.0
 11
106.737841835645
 21
460.4013629416169
 31
0.0
  0
LINE
  5
188B
330
A
100
AcDbEntity
  8
MODEL
100
AcDbLine
 10
106.737841835645
 20
460.4013629416169
 30
0.0
 11
106.737841835645
 21
459.2413629416171
 31
0.0
  0
LINE
  5
188C
330
A
100
AcDbEntity
  8
MODEL
100
AcDbLine
 10
110.1378418356448
 20
463.377362941617
 30
0.0
 11
109.5378418356447
 21
463.627362941617
 31
0.0
  0
LINE
  5
188D
330
A
100
AcDbEntity
  8
MODEL
100
AcDbLine
 10
110.1378418356448
 20
463.377362941617
 30
0.0
 11
106.1378418356448
 21
462.3053629416169
 31
0.0
  0
LINE
  5
188E
330
A
100
AcDbEntity
  8
MODEL
100
AcDbLine
 10
109.5378418356447
 20
463.627362941617
 30
0.0
 11
106.737841835645
 21
462.5553629416169
 31
0.0
  0
LINE
  5
188F
330
A
100
AcDbEntity
  8
MODEL
100
AcDbLine
 10
106.737841835645
 20
462.0573629416171
 30
0.0
 11
109.5378418356447
 21
463.129362941617
 31
0.0
  0
LINE
  5
1890
330
A
100
AcDbEntity
  8
MODEL
100
AcDbLine
 10
110.1378418356448
 20
463.377362941617
 30
0.0
 11
109.5378418356447
 21
463.129362941617
 31
0.0
  0
LINE
  5
1891
330
A
100
AcDbEntity
  8
MODEL
100
AcDbLine
 10
109.5378418356447
 20
463.129362941617
 30
0.0
 11
109.5378418356447
 21
461.9693629416171
 31
0.0
  0
LINE
  5
1892
330
A
100
AcDbEntity
  8
MODEL
100
AcDbLine
 10
106.1378418356448
 20
462.3053629416169
 30
0.0
 11
106.737841835645
 21
462.5553629416169
 31
0.0
  0
LINE
  5
1893
330
A
100
AcDbEntity
  8
MODEL
100
AcDbLine
 10
106.1378418356448
 20
462.3053629416169
 30
0.0
 11
106.737841835645
 21
462.0573629416171
 31
0.0
  0
LINE
  5
1894
330
A
100
AcDbEntity
  8
MODEL
100
AcDbLine
 10
106.737841835645
 20
462.0573629416171
 30
0.0
 11
106.737841835645
 21
460.897362941617
 31
0.0
  0
LINE
  5
1895
330
A
100
AcDbEntity
  8
MODEL
100
AcDbLine
 10
110.1378418356448
 20
465.0353629416169
 30
0.0
 11
109.5378418356447
 21
465.283362941617
 31
0.0
  0
LINE
  5
1896
330
A
100
AcDbEntity
  8
MODEL
100
AcDbLine
 10
110.1378418356448
 20
465.0353629416169
 30
0.0
 11
106.1378418356448
 21
463.963362941617
 31
0.0
  0
LINE
  5
1897
330
A
100
AcDbEntity
  8
MODEL
100
AcDbLine
 10
109.5378418356447
 20
465.283362941617
 30
0.0
 11
106.737841835645
 21
464.2113629416171
 31
0.0
  0
LINE
  5
1898
330
A
100
AcDbEntity
  8
MODEL
100
AcDbLine
 10
106.737841835645
 20
463.713362941617
 30
0.0
 11
109.5378418356447
 21
464.7853629416169
 31
0.0
  0
LINE
  5
1899
330
A
100
AcDbEntity
  8
MODEL
100
AcDbLine
 10
110.1378418356448
 20
465.0353629416169
 30
0.0
 11
109.5378418356447
 21
464.7853629416169
 31
0.0
  0
LINE
  5
189A
330
A
100
AcDbEntity
  8
MODEL
100
AcDbLine
 10
109.5378418356447
 20
464.7853629416169
 30
0.0
 11
109.5378418356447
 21
463.627362941617
 31
0.0
  0
LINE
  5
189B
330
A
100
AcDbEntity
  8
MODEL
100
AcDbLine
 10
106.1378418356448
 20
463.963362941617
 30
0.0
 11
106.737841835645
 21
464.2113629416171
 31
0.0
  0
LINE
  5
189C
330
A
100
AcDbEntity
  8
MODEL
100
AcDbLine
 10
106.1378418356448
 20
463.963362941617
 30
0.0
 11
106.737841835645
 21
463.713362941617
 31
0.0
  0
LINE
  5
189D
330
A
100
AcDbEntity
  8
MODEL
100
AcDbLine
 10
106.737841835645
 20
463.713362941617
 30
0.0
 11
106.737841835645
 21
462.5553629416169
 31
0.0
  0
LINE
  5
189E
330
A
100
AcDbEntity
  8
MODEL
100
AcDbLine
 10
109.565841835645
 20
469.851362941617
 30
0.0
 11
108.7898418356449
 21
470.1713629416171
 31
0.0
  0
LINE
  5
189F
330
A
100
AcDbEntity
  8
MODEL
100
AcDbLine
 10
110.1378418356448
 20
466.6913629416171
 30
0.0
 11
106.1378418356448
 21
465.619362941617
 31
0.0
  0
LINE
  5
18A0
330
A
100
AcDbEntity
  8
MODEL
100
AcDbLine
 10
108.8358418356449
 20
470.0493629416171
 30
0.0
 11
107.2138418356449
 21
469.4293629416169
 31
0.0
  0
LINE
  5
18A1
330
A
100
AcDbEntity
  8
MODEL
100
AcDbLine
 10
106.9918418356449
 20
468.8453629416171
 30
0.0
 11
108.9658418356448
 21
469.601362941617
 31
0.0
  0
LINE
  5
18A2
330
A
100
AcDbEntity
  8
MODEL
100
AcDbLine
 10
109.565841835645
 20
469.851362941617
 30
0.0
 11
108.9658418356448
 21
469.601362941617
 31
0.0
  0
LINE
  5
18A3
330
A
100
AcDbEntity
  8
MODEL
100
AcDbLine
 10
109.5378418356447
 20
466.4413629416171
 30
0.0
 11
109.5378418356447
 21
465.283362941617
 31
0.0
  0
LINE
  5
18A4
330
A
100
AcDbEntity
  8
MODEL
100
AcDbLine
 10
106.5318418356449
 20
469.0373629416171
 30
0.0
 11
107.1678418356448
 21
469.301362941617
 31
0.0
  0
LINE
  5
18A5
330
A
100
AcDbEntity
  8
MODEL
100
AcDbLine
 10
106.5318418356449
 20
469.0373629416171
 30
0.0
 11
107.0018418356449
 21
468.8433629416169
 31
0.0
  0
LINE
  5
18A6
330
A
100
AcDbEntity
  8
MODEL
100
AcDbLine
 10
106.737841835645
 20
465.371362941617
 30
0.0
 11
106.737841835645
 21
464.2113629416171
 31
0.0
  0
LINE
  5
18A7
330
A
100
AcDbEntity
  8
MODEL
100
AcDbLine
 10
109.5378418356447
 20
442.965362941617
 30
0.0
 11
106.737841835645
 21
442.965362941617
 31
0.0
  0
LINE
  5
18A8
330
A
100
AcDbEntity
  8
MODEL
100
AcDbLine
 10
108.1378418356448
 20
471.965362941617
 30
0.0
 11
108.8358418356449
 21
470.0493629416171
 31
0.0
  0
LINE
  5
18A9
330
A
100
AcDbEntity
  8
MODEL
100
AcDbLine
 10
108.1378418356448
 20
471.965362941617
 30
0.0
 11
107.1678418356448
 21
469.301362941617
 31
0.0
  0
LINE
  5
18AA
330
A
100
AcDbEntity
  8
MODEL
100
AcDbLine
 10
109.565841835645
 20
469.851362941617
 30
0.0
 11
106.5318418356449
 21
469.0373629416171
 31
0.0
  0
LINE
  5
18AB
330
A
100
AcDbEntity
  8
MODEL
100
AcDbLine
 10
110.1378418356448
 20
466.6913629416171
 30
0.0
 11
109.5378418356447
 21
466.9393629416169
 31
0.0
  0
LINE
  5
18AC
330
A
100
AcDbEntity
  8
MODEL
100
AcDbLine
 10
110.1378418356448
 20
466.6913629416171
 30
0.0
 11
109.5378418356447
 21
466.4413629416171
 31
0.0
  0
LINE
  5
18AD
330
A
100
AcDbEntity
  8
MODEL
100
AcDbLine
 10
106.737841835645
 20
465.371362941617
 30
0.0
 11
109.5378418356447
 21
466.4413629416171
 31
0.0
  0
LINE
  5
18AE
330
A
100
AcDbEntity
  8
MODEL
100
AcDbLine
 10
109.5378418356447
 20
466.9393629416169
 30
0.0
 11
106.737841835645
 21
465.867362941617
 31
0.0
  0
LINE
  5
18AF
330
A
100
AcDbEntity
  8
MODEL
100
AcDbLine
 10
106.1378418356448
 20
465.619362941617
 30
0.0
 11
106.737841835645
 21
465.867362941617
 31
0.0
  0
LINE
  5
18B0
330
A
100
AcDbEntity
  8
MODEL
100
AcDbLine
 10
106.1378418356448
 20
465.619362941617
 30
0.0
 11
106.737841835645
 21
465.371362941617
 31
0.0
  0
LINE
  5
18B1
330
A
100
AcDbEntity
  8
MODEL
100
AcDbLine
 10
108.9938418356448
 20
469.6133629416169
 30
0.0
 11
109.3858418356449
 21
468.5373629416171
 31
0.0
  0
LINE
  5
18B2
330
A
100
AcDbEntity
  8
MODEL
100
AcDbLine
 10
107.0018418356449
 20
468.8433629416169
 30
0.0
 11
106.737841835645
 21
468.117362941617
 31
0.0
  0
LINE
  5
18B3
330
A
100
AcDbEntity
  8
MODEL
100
AcDbLine
 10
109.9378418356448
 20
439.965362941617
 30
0.0
 11
106.3378418356449
 21
439.965362941617
 31
0.0
  0
LINE
  5
18B4
330
A
100
AcDbEntity
  8
MODEL
100
AcDbLine
 10
109.5378418356447
 20
442.965362941617
 30
0.0
 11
109.9378418356448
 21
439.965362941617
 31
0.0
  0
LINE
  5
18B5
330
A
100
AcDbEntity
  8
MODEL
100
AcDbLine
 10
108.1378418356448
 20
361.0773629416171
 30
0.0
 11
108.1378418356448
 21
404.0393629416171
 31
0.0
  0
LINE
  5
18B6
330
A
100
AcDbEntity
  8
MODEL
100
AcDbLine
 10
108.1378418356448
 20
361.0773629416171
 30
0.0
 11
159.1378418356448
 21
361.0773629416171
 31
0.0
  0
LINE
  5
18B7
330
A
100
AcDbEntity
  8
MODEL
100
AcDbLine
 10
125.6378418356448
 20
405.5773629416171
 30
0.0
 11
159.1378418356448
 21
405.5773629416171
 31
0.0
  0
LINE
  5
18B8
330
A
100
AcDbEntity
  8
MODEL
100
AcDbLine
 10
161.1378418356448
 20
363.0773629416171
 30
0.0
 11
161.1378418356448
 21
373.8273629416171
 31
0.0
  0
LINE
  5
18BA
330
A
100
AcDbEntity
  8
MODEL
100
AcDbLine
 10
78.63784183564485
 20
405.3273629416171
 30
0.0
 11
82.63784183564485
 21
405.3273629416171
 31
0.0
  0
LINE
  5
18BB
330
A
100
AcDbEntity
  8
MODEL
100
AcDbLine
 10
76.63784183564485
 20
363.3273629416171
 30
0.0
 11
76.63784183564485
 21
403.3273629416171
 31
0.0
  0
LINE
  5
18BC
330
A
100
AcDbEntity
  8
MODEL
100
AcDbLine
 10
82.63784183564485
 20
361.3273629416171
 30
0.0
 11
82.63784183564485
 21
405.3273629416171
 31
0.0
  0
LINE
  5
18BD
330
A
100
AcDbEntity
  8
MODEL
100
AcDbLine
 10
78.63784183564485
 20
361.3273629416171
 30
0.0
 11
82.63784183564485
 21
361.3273629416171
 31
0.0
  0
LINE
  5
18BE
330
A
100
AcDbEntity
  8
MODEL
100
AcDbLine
 10
88.63784183564485
 20
362.3273629416171
 30
0.0
 11
89.13784183564485
 21
362.3273629416171
 31
0.0
  0
LINE
  5
18BF
330
A
100
AcDbEntity
  8
MODEL
100
AcDbLine
 10
88.63784183564485
 20
404.3273629416171
 30
0.0
 11
89.13784183564485
 21
404.3273629416171
 31
0.0
  0
LINE
  5
18C0
330
A
100
AcDbEntity
  8
MODEL
100
AcDbLine
 10
88.63784183564485
 20
361.589362941617
 30
0.0
 11
88.63784183564485
 21
405.065362941617
 31
0.0
  0
LINE
  5
18C1
330
A
100
AcDbEntity
  8
MODEL
100
AcDbLine
 10
89.13784183564485
 20
362.3273629416171
 30
0.0
 11
89.13784183564485
 21
404.3273629416171
 31
0.0
  0
LINE
  5
18C2
330
A
100
AcDbEntity
  8
MODEL
100
AcDbLine
 10
145.4078418356448
 20
374.3273629416171
 30
0.0
 11
160.6378418356448
 21
374.3273629416171
 31
0.0
  0
LINE
  5
18C3
330
A
100
AcDbEntity
  8
MODEL
100
AcDbLine
 10
145.4078418356448
 20
392.3273629416171
 30
0.0
 11
160.6378418356448
 21
392.3273629416171
 31
0.0
  0
LINE
  5
18C4
330
A
100
AcDbEntity
  8
MODEL
100
AcDbLine
 10
161.1378418356448
 20
392.8273629416171
 30
0.0
 11
161.1378418356448
 21
403.5773629416171
 31
0.0
  0
LINE
  5
18C5
330
A
100
AcDbEntity
  8
MODEL
100
AcDbLine
 10
161.1378418356448
 20
370.247362941617
 30
0.0
 11
126.007841835645
 21
370.247362941617
 31
0.0
  0
LINE
  5
18C6
330
A
100
AcDbEntity
  8
MODEL
100
AcDbLine
 10
161.1378418356448
 20
396.407362941617
 30
0.0
 11
126.007841835645
 21
396.407362941617
 31
0.0
  0
LINE
  5
18C7
330
A
100
AcDbEntity
  8
MODEL
100
AcDbLine
 10
90.63784183564485
 20
362.3273629416171
 30
0.0
 11
90.63784183564485
 21
425.8273629416171
 31
0.0
  0
LINE
  5
18C8
330
A
100
AcDbEntity
  8
MODEL
100
AcDbLine
 10
125.6378418356448
 20
405.0393629416171
 30
0.0
 11
125.6378418356448
 21
425.8273629416171
 31
0.0
  0
LINE
  5
18C9
330
A
100
AcDbEntity
  8
MODEL
100
AcDbLine
 10
90.63784183564485
 20
401.8273629416171
 30
0.0
 11
89.13784183564485
 21
401.8273629416171
 31
0.0
  0
LINE
  5
18CA
330
A
100
AcDbEntity
  8
MODEL
100
AcDbLine
 10
90.63784183564485
 20
364.8273629416171
 30
0.0
 11
89.13784183564485
 21
364.8273629416171
 31
0.0
  0
LINE
  5
18CB
330
A
100
AcDbEntity
  8
MODEL
100
AcDbLine
 10
108.1378418356448
 20
361.3273629416171
 30
0.0
 11
91.63784183564485
 21
361.3273629416171
 31
0.0
  0
LINE
  5
18CC
330
A
100
AcDbEntity
  8
MODEL
100
AcDbLine
 10
124.6378418356448
 20
404.0393629416171
 30
0.0
 11
108.1378418356448
 21
404.0393629416171
 31
0.0
  0
LINE
  5
18CD
330
A
100
AcDbEntity
  8
MODEL
100
AcDbLine
 10
108.1378418356448
 20
402.9233629416171
 30
0.0
 11
90.63784183564485
 21
402.9233629416171
 31
0.0
  0
CIRCLE
  5
18CE
330
A
100
AcDbEntity
  8
MODEL
100
AcDbCircle
 10
242.9319137437807
 20
230.6598970503146
 30
0.0
 40
22.0
  0
ARC
  5
18CF
330
A
100
AcDbEntity
  8
MODEL
100
AcDbCircle
 10
233.9319137437807
 20
257.1740410503146
 30
0.0
 40
6.0
100
AcDbArc
 50
288.7492779999994
 51
358.8322900000006
  0
ARC
  5
18D0
330
A
100
AcDbEntity
  8
MODEL
100
AcDbCircle
 10
240.4305717437807
 20
257.0415810503147
 30
0.0
 40
0.5
100
AcDbArc
 50
95.41632699999062
 51
178.832440000005
  0
ARC
  5
18D1
330
A
100
AcDbEntity
  8
MODEL
100
AcDbCircle
 10
242.9319137437807
 20
230.6598970503146
 30
0.0
 40
27.0
100
AcDbArc
 50
84.58383000000012
 51
95.41632700000015
  0
ARC
  5
18D2
330
A
100
AcDbEntity
  8
MODEL
100
AcDbCircle
 10
245.4332557437807
 20
257.0415810503147
 30
0.0
 40
0.5
100
AcDbArc
 50
1.167709999995173
 51
84.58382999999542
  0
ARC
  5
18D3
330
A
100
AcDbEntity
  8
MODEL
100
AcDbCircle
 10
251.9319137437807
 20
257.1740410503146
 30
0.0
 40
6.0
100
AcDbArc
 50
181.1675599999993
 51
251.2505650000006
  0
ARC
  5
18D4
330
A
100
AcDbEntity
  8
MODEL
100
AcDbCircle
 10
224.4699997437807
 20
209.6085970503146
 30
0.0
 40
6.0
100
AcDbArc
 50
48.74938300000039
 51
118.8323869999994
  0
ARC
  5
18D5
330
A
100
AcDbEntity
  8
MODEL
100
AcDbCircle
 10
221.3353857437806
 20
215.3028270503147
 30
0.0
 40
0.5
100
AcDbArc
 50
215.4161250000278
 51
298.8322370000215
  0
ARC
  5
18D6
330
A
100
AcDbEntity
  8
MODEL
100
AcDbCircle
 10
242.9319137437807
 20
230.6598970503146
 30
0.0
 40
27.0
100
AcDbArc
 50
204.5836269999998
 51
215.4161249999998
  0
ARC
  5
18D7
330
A
100
AcDbEntity
  8
MODEL
100
AcDbCircle
 10
218.8340137437807
 20
219.6352850503147
 30
0.0
 40
0.5
100
AcDbArc
 50
121.1678079999967
 51
204.5839270000033
  0
ARC
  5
18D8
330
A
100
AcDbEntity
  8
MODEL
100
AcDbCircle
 10
215.4699997437807
 20
225.1970530503147
 30
0.0
 40
6.0
100
AcDbArc
 50
301.167658
 51
11.25066899999964
  0
ARC
  5
18D9
330
A
100
AcDbEntity
  8
MODEL
100
AcDbCircle
 10
242.9319137437807
 20
230.6598970503146
 30
0.0
 40
23.0
100
AcDbArc
 50
261.5582170000004
 51
25.77148300000006
  0
ARC
  5
18DA
330
A
100
AcDbEntity
  8
MODEL
100
AcDbCircle
 10
230.9319137437807
 20
246.6598970503146
 30
0.0
 40
2.0
100
AcDbArc
 50
90.00007900000014
 51
126.8700099999984
  0
ARC
  5
18DB
330
A
100
AcDbEntity
  8
MODEL
100
AcDbCircle
 10
231.9319137437807
 20
246.6598970503146
 30
0.0
 40
2.0
100
AcDbArc
 50
0.0
 51
90.00007900000014
  0
ARC
  5
18DC
330
A
100
AcDbEntity
  8
MODEL
100
AcDbCircle
 10
253.9319137437807
 20
246.6598970503146
 30
0.0
 40
2.0
100
AcDbArc
 50
90.00007900000014
 51
180.0001569999989
  0
ARC
  5
18DD
330
A
100
AcDbEntity
  8
MODEL
100
AcDbCircle
 10
254.9319137437807
 20
246.6598970503146
 30
0.0
 40
2.0
100
AcDbArc
 50
53.13014700000195
 51
90.00007900000014
  0
ARC
  5
18DE
330
A
100
AcDbEntity
  8
MODEL
100
AcDbCircle
 10
231.9319137437807
 20
217.0349430503146
 30
0.0
 40
2.0
100
AcDbArc
 50
314.0213240000019
 51
0.0
  0
ARC
  5
18DF
330
A
100
AcDbEntity
  8
MODEL
100
AcDbCircle
 10
230.1302477437806
 20
215.2937930503147
 30
0.0
 40
2.0
100
AcDbArc
 50
230.2018440000003
 51
314.0213240000019
  0
ARC
  5
18E0
330
A
100
AcDbEntity
  8
MODEL
100
AcDbCircle
 10
255.7335797437808
 20
215.2937930503147
 30
0.0
 40
2.0
100
AcDbArc
 50
225.9785300000015
 51
309.7980060000004
  0
ARC
  5
18E1
330
A
100
AcDbEntity
  8
MODEL
100
AcDbCircle
 10
253.9319137437807
 20
217.0349430503146
 30
0.0
 40
2.0
100
AcDbArc
 50
179.999856999998
 51
225.9785300000009
  0
ARC
  5
18E2
330
A
100
AcDbEntity
  8
MODEL
100
AcDbCircle
 10
78.63784183564485
 20
250.6598970503146
 30
0.0
 40
2.0
100
AcDbArc
 50
90.00007900000014
 51
180.0001569999989
  0
ARC
  5
18E3
330
A
100
AcDbEntity
  8
MODEL
100
AcDbCircle
 10
78.63784183564485
 20
210.6598970503146
 30
0.0
 40
2.0
100
AcDbArc
 50
180.0001429999988
 51
270.0002289999957
  0
ARC
  5
18E4
330
A
100
AcDbEntity
  8
MODEL
100
AcDbCircle
 10
159.1378418356448
 20
217.8646390503146
 30
0.0
 40
2.0
100
AcDbArc
 50
279.9999280000001
 51
0.000008999999603
  0
ARC
  5
18E5
330
A
100
AcDbEntity
  8
MODEL
100
AcDbCircle
 10
159.1378418356448
 20
246.6598970503146
 30
0.0
 40
2.0
100
AcDbArc
 50
359.9999950000027
 51
90.00007200000334
  0
ARC
  5
18E6
330
A
100
AcDbEntity
  8
MODEL
100
AcDbCircle
 10
85.63784183564485
 20
254.6598970503146
 30
0.0
 40
3.0
100
AcDbArc
 50
359.9999950000017
 51
180.0001569999989
  0
ARC
  5
18E7
330
A
100
AcDbEntity
  8
MODEL
100
AcDbCircle
 10
85.63784183564485
 20
222.8415690503147
 30
0.0
 40
3.0
100
AcDbArc
 50
180.0001430000009
 51
0.0003139999999031
  0
ARC
  5
18E8
330
A
100
AcDbEntity
  8
MODEL
100
AcDbCircle
 10
85.63784183564485
 20
217.6454170503147
 30
0.0
 40
3.0
100
AcDbArc
 50
224.4151940000029
 51
315.5846530000006
  0
ARC
  5
18E9
330
A
100
AcDbEntity
  8
MODEL
100
AcDbCircle
 10
88.13784183564485
 20
215.1959230503146
 30
0.0
 40
0.5
100
AcDbArc
 50
359.9999949999995
 51
135.5848059999855
  0
ARC
  5
18EA
330
A
100
AcDbEntity
  8
MODEL
100
AcDbCircle
 10
83.13784183564485
 20
215.1959230503146
 30
0.0
 40
0.5
100
AcDbArc
 50
44.41534700000739
 51
180.0001569999924
  0
ARC
  5
18EB
330
A
100
AcDbEntity
  8
MODEL
100
AcDbCircle
 10
117.5293818356447
 20
250.9098970503146
 30
0.0
 40
2.0
100
AcDbArc
 50
53.64949799999584
 51
90.00007199999682
  0
ARC
  5
18EC
330
A
100
AcDbEntity
  8
MODEL
100
AcDbCircle
 10
91.63784183564485
 20
191.6598970503147
 30
0.0
 40
1.0
100
AcDbArc
 50
180.000143000002
 51
270.0002290000022
  0
ARC
  5
18ED
330
A
100
AcDbEntity
  8
MODEL
100
AcDbCircle
 10
124.6378418356448
 20
191.6598970503147
 30
0.0
 40
1.0
100
AcDbArc
 50
269.9999209999999
 51
0.0
  0
ARC
  5
18EE
330
A
100
AcDbEntity
  8
MODEL
100
AcDbCircle
 10
124.6378418356448
 20
206.9090890503146
 30
0.0
 40
1.0
100
AcDbArc
 50
0.0
 51
90.00007900000014
  0
ARC
  5
18EF
330
A
100
AcDbEntity
  8
MODEL
100
AcDbCircle
 10
78.63784183564485
 20
363.3273629416171
 30
0.0
 40
2.0
100
AcDbArc
 50
180.000143000002
 51
270.0002289999957
  0
ARC
  5
18F0
330
A
100
AcDbEntity
  8
MODEL
100
AcDbCircle
 10
78.63784183564485
 20
403.3273629416171
 30
0.0
 40
2.0
100
AcDbArc
 50
90.00007900000014
 51
180.0001570000021
  0
ARC
  5
18F1
330
A
100
AcDbEntity
  8
MODEL
100
AcDbCircle
 10
85.63784183564485
 20
361.589446941617
 30
0.0
 40
3.0
100
AcDbArc
 50
180.0001429999988
 51
0.0003139999999031
  0
ARC
  5
18F2
330
A
100
AcDbEntity
  8
MODEL
100
AcDbCircle
 10
85.63784183564485
 20
405.065278941617
 30
0.0
 40
3.0
100
AcDbArc
 50
359.9999949999995
 51
180.0001569999989
  0
ARC
  5
18F3
330
A
100
AcDbEntity
  8
MODEL
100
AcDbCircle
 10
159.1378418356448
 20
363.0773629416171
 30
0.0
 40
2.0
100
AcDbArc
 50
269.9999279999967
 51
0.0000050000005032
  0
ARC
  5
18F4
330
A
100
AcDbEntity
  8
MODEL
100
AcDbCircle
 10
159.1378418356448
 20
403.5773629416171
 30
0.0
 40
2.0
100
AcDbArc
 50
359.9999949999995
 51
90.00007200000334
  0
ARC
  5
18F5
330
A
100
AcDbEntity
  8
MODEL
100
AcDbCircle
 10
141.1378418356448
 20
383.3273629416171
 30
0.0
 40
12.01204
100
AcDbArc
 50
49.39981899999959
 51
310.6004919999995
  0
ARC
  5
18F6
330
A
100
AcDbEntity
  8
MODEL
100
AcDbCircle
 10
141.1378418356448
 20
383.3273629416171
 30
0.0
 40
9.915728
100
AcDbArc
 50
65.79475600000004
 51
294.2055379999998
  0
ARC
  5
18F7
330
A
100
AcDbEntity
  8
MODEL
100
AcDbCircle
 10
149.2804198356448
 20
373.8273629416171
 30
0.0
 40
0.5
100
AcDbArc
 50
90.00007199999682
 51
130.6003349999806
  0
ARC
  5
18F8
330
A
100
AcDbEntity
  8
MODEL
100
AcDbCircle
 10
145.4083498356447
 20
373.8273629416171
 30
0.0
 40
0.5
100
AcDbArc
 50
90.00007199999682
 51
114.2053949999914
  0
ARC
  5
18F9
330
A
100
AcDbEntity
  8
MODEL
100
AcDbCircle
 10
149.2804198356448
 20
392.8273629416171
 30
0.0
 40
0.5
100
AcDbArc
 50
229.3996650000194
 51
269.9999280000032
  0
ARC
  5
18FA
330
A
100
AcDbEntity
  8
MODEL
100
AcDbCircle
 10
145.4083498356447
 20
392.8273629416171
 30
0.0
 40
0.5
100
AcDbArc
 50
245.7946050000086
 51
269.9999280000032
  0
ARC
  5
18FB
330
A
100
AcDbEntity
  8
MODEL
100
AcDbCircle
 10
141.1378418356448
 20
383.3273629416171
 30
0.0
 40
20.000016
100
AcDbArc
 50
139.1597440000002
 51
220.8405560000001
  0
ARC
  5
18FC
330
A
100
AcDbEntity
  8
MODEL
100
AcDbCircle
 10
160.6378418356448
 20
373.8273629416171
 30
0.0
 40
0.5
100
AcDbArc
 50
359.9999949999995
 51
90.00007199999682
  0
ARC
  5
18FD
330
A
100
AcDbEntity
  8
MODEL
100
AcDbCircle
 10
160.6378418356448
 20
392.8273629416171
 30
0.0
 40
0.5
100
AcDbArc
 50
269.9999280000032
 51
0.0000050000005032
  0
ARC
  5
18FE
330
A
100
AcDbEntity
  8
MODEL
100
AcDbCircle
 10
134.0253538356449
 20
383.3273629416171
 30
0.0
 40
15.341252
100
AcDbArc
 50
121.5106840000005
 51
238.4896160000001
  0
ARC
  5
18FF
330
A
100
AcDbEntity
  8
MODEL
100
AcDbCircle
 10
85.63784183564485
 20
387.8273629416171
 30
0.0
 40
3.0
100
AcDbArc
 50
180.0001430000009
 51
0.0003139999977318
  0
ARC
  5
1900
330
A
100
AcDbEntity
  8
MODEL
100
AcDbCircle
 10
85.63784183564485
 20
378.8273629416171
 30
0.0
 40
3.0
100
AcDbArc
 50
0.0
 51
180.0001570000011
  0
ARC
  5
1901
330
A
100
AcDbEntity
  8
MODEL
100
AcDbCircle
 10
124.6378418356448
 20
405.039672941617
 30
0.0
 40
1.0
100
AcDbArc
 50
269.9999209999999
 51
0.0
  0
ARC
  5
1902
330
A
100
AcDbEntity
  8
MODEL
100
AcDbCircle
 10
91.63784183564485
 20
362.3273629416171
 30
0.0
 40
1.0
100
AcDbArc
 50
180.0001429999988
 51
270.0002290000022
  0
LINE
  5
1903
330
A
100
AcDbEntity
  8
MODEL
100
AcDbLine
 10
233.9319137437807
 20
212.6598970503146
 30
0.0
 11
234.3650257437806
 21
211.4339670503147
 31
0.0
  0
LINE
  5
1904
330
A
100
AcDbEntity
  8
MODEL
100
AcDbLine
 10
234.3650257437806
 20
211.4339670503147
 30
0.0
 11
235.3189917437807
 21
210.5264070503147
 31
0.0
  0
LINE
  5
1905
330
A
100
AcDbEntity
  8
MODEL
100
AcDbLine
 10
235.3189917437807
 20
210.5264070503147
 30
0.0
 11
236.4694757437807
 21
209.8759250503147
 31
0.0
  0
LINE
  5
1906
330
A
100
AcDbEntity
  8
MODEL
100
AcDbLine
 10
236.4694757437807
 20
209.8759250503147
 30
0.0
 11
237.7051497437807
 21
209.4035730503147
 31
0.0
  0
LINE
  5
1907
330
A
100
AcDbEntity
  8
MODEL
100
AcDbLine
 10
237.7051497437807
 20
209.4035730503147
 30
0.0
 11
238.9845977437807
 21
209.0651490503146
 31
0.0
  0
LINE
  5
1908
330
A
100
AcDbEntity
  8
MODEL
100
AcDbLine
 10
238.9845977437807
 20
209.0651490503146
 30
0.0
 11
240.2881917437807
 21
208.8363650503146
 31
0.0
  0
LINE
  5
1909
330
A
100
AcDbEntity
  8
MODEL
100
AcDbLine
 10
240.2881917437807
 20
208.8363650503146
 30
0.0
 11
241.6053977437808
 21
208.7035830503147
 31
0.0
  0
LINE
  5
190A
330
A
100
AcDbEntity
  8
MODEL
100
AcDbLine
 10
241.6053977437808
 20
208.7035830503147
 30
0.0
 11
242.9319137437807
 21
208.6598970503146
 31
0.0
  0
LINE
  5
190B
330
A
100
AcDbEntity
  8
MODEL
100
AcDbLine
 10
242.9319137437807
 20
208.6598970503146
 30
0.0
 11
244.2548637437807
 21
208.7033470503146
 31
0.0
  0
LINE
  5
190C
330
A
100
AcDbEntity
  8
MODEL
100
AcDbLine
 10
244.2548637437807
 20
208.7033470503146
 30
0.0
 11
245.5702157437808
 21
208.8356250503147
 31
0.0
  0
LINE
  5
190D
330
A
100
AcDbEntity
  8
MODEL
100
AcDbLine
 10
245.5702157437808
 20
208.8356250503147
 30
0.0
 11
246.8740157437807
 21
209.0640190503146
 31
0.0
  0
LINE
  5
190E
330
A
100
AcDbEntity
  8
MODEL
100
AcDbLine
 10
246.8740157437807
 20
209.0640190503146
 30
0.0
 11
248.1540317437806
 21
209.4021010503146
 31
0.0
  0
LINE
  5
190F
330
A
100
AcDbEntity
  8
MODEL
100
AcDbLine
 10
248.1540317437806
 20
209.4021010503146
 30
0.0
 11
249.3914177437808
 21
209.8745810503146
 31
0.0
  0
LINE
  5
1910
330
A
100
AcDbEntity
  8
MODEL
100
AcDbLine
 10
249.3914177437808
 20
209.8745810503146
 30
0.0
 11
250.5427617437807
 21
210.5249430503146
 31
0.0
  0
LINE
  5
1911
330
A
100
AcDbEntity
  8
MODEL
100
AcDbLine
 10
250.5427617437807
 20
210.5249430503146
 30
0.0
 11
251.4983237437808
 21
211.4333090503146
 31
0.0
  0
LINE
  5
1912
330
A
100
AcDbEntity
  8
MODEL
100
AcDbLine
 10
251.4983237437808
 20
211.4333090503146
 30
0.0
 11
251.9319137437807
 21
212.6598970503146
 31
0.0
  0
LINE
  5
1913
330
A
100
AcDbEntity
  8
MODEL
100
AcDbLine
 10
131.340055835645
 20
208.4095050503147
 30
0.0
 11
131.4423538356448
 21
209.1161770503146
 31
0.0
  0
LINE
  5
1914
330
A
100
AcDbEntity
  8
MODEL
100
AcDbLine
 10
131.4423538356448
 20
209.1161770503146
 30
0.0
 11
131.7793418356448
 21
209.7477530503146
 31
0.0
  0
LINE
  5
1915
330
A
100
AcDbEntity
  8
MODEL
100
AcDbLine
 10
131.7793418356448
 20
209.7477530503146
 30
0.0
 11
132.2624838356448
 21
210.2783970503147
 31
0.0
  0
LINE
  5
1916
330
A
100
AcDbEntity
  8
MODEL
100
AcDbLine
 10
132.2624838356448
 20
210.2783970503147
 30
0.0
 11
132.828903835645
 21
210.7202690503146
 31
0.0
  0
LINE
  5
1917
330
A
100
AcDbEntity
  8
MODEL
100
AcDbLine
 10
132.828903835645
 20
210.7202690503146
 30
0.0
 11
133.4444838356449
 21
211.0907010503147
 31
0.0
  0
LINE
  5
1918
330
A
100
AcDbEntity
  8
MODEL
100
AcDbLine
 10
133.4444838356449
 20
211.0907010503147
 30
0.0
 11
134.0920138356448
 21
211.4040190503147
 31
0.0
  0
LINE
  5
1919
330
A
100
AcDbEntity
  8
MODEL
100
AcDbLine
 10
134.0920138356448
 20
211.4040190503147
 30
0.0
 11
134.760177835645
 21
211.6696870503147
 31
0.0
  0
LINE
  5
191A
330
A
100
AcDbEntity
  8
MODEL
100
AcDbLine
 10
134.760177835645
 20
211.6696870503147
 30
0.0
 11
135.4435138356448
 21
211.8951970503147
 31
0.0
  0
LINE
  5
191B
330
A
100
AcDbEntity
  8
MODEL
100
AcDbLine
 10
135.4435138356448
 20
211.8951970503147
 30
0.0
 11
136.1369178356447
 21
212.0854130503146
 31
0.0
  0
LINE
  5
191C
330
A
100
AcDbEntity
  8
MODEL
100
AcDbLine
 10
136.1369178356447
 20
212.0854130503146
 30
0.0
 11
136.8388338356449
 21
212.2445090503146
 31
0.0
  0
LINE
  5
191D
330
A
100
AcDbEntity
  8
MODEL
100
AcDbLine
 10
136.8388338356449
 20
212.2445090503146
 30
0.0
 11
137.5466458356448
 21
212.3751590503147
 31
0.0
  0
LINE
  5
191E
330
A
100
AcDbEntity
  8
MODEL
100
AcDbLine
 10
137.5466458356448
 20
212.3751590503147
 30
0.0
 11
138.2588098356448
 21
212.4795030503146
 31
0.0
  0
LINE
  5
191F
330
A
100
AcDbEntity
  8
MODEL
100
AcDbLine
 10
138.2588098356448
 20
212.4795030503146
 30
0.0
 11
138.9742038356449
 21
212.5591530503146
 31
0.0
  0
LINE
  5
1920
330
A
100
AcDbEntity
  8
MODEL
100
AcDbLine
 10
138.9742038356449
 20
212.5591530503146
 30
0.0
 11
139.6918818356448
 21
212.6152750503146
 31
0.0
  0
LINE
  5
1921
330
A
100
AcDbEntity
  8
MODEL
100
AcDbLine
 10
139.6918818356448
 20
212.6152750503146
 30
0.0
 11
140.4109958356448
 21
212.6486870503146
 31
0.0
  0
LINE
  5
1922
330
A
100
AcDbEntity
  8
MODEL
100
AcDbLine
 10
140.4109958356448
 20
212.6486870503146
 30
0.0
 11
141.1307538356448
 21
212.6598990503146
 31
0.0
  0
LINE
  5
1923
330
A
100
AcDbEntity
  8
MODEL
100
AcDbLine
 10
126.0071398356447
 20
248.6598970503146
 30
0.0
 11
125.4540578356448
 21
248.6720350503147
 31
0.0
  0
LINE
  5
1924
330
A
100
AcDbEntity
  8
MODEL
100
AcDbLine
 10
125.4540578356448
 20
248.6720350503147
 30
0.0
 11
124.9019758356449
 21
248.7085730503146
 31
0.0
  0
LINE
  5
1925
330
A
100
AcDbEntity
  8
MODEL
100
AcDbLine
 10
124.9019758356449
 20
248.7085730503146
 30
0.0
 11
124.351861835645
 21
248.7698910503146
 31
0.0
  0
LINE
  5
1926
330
A
100
AcDbEntity
  8
MODEL
100
AcDbLine
 10
124.351861835645
 20
248.7698910503146
 30
0.0
 11
123.8048098356448
 21
248.8566450503147
 31
0.0
  0
LINE
  5
1927
330
A
100
AcDbEntity
  8
MODEL
100
AcDbLine
 10
123.8048098356448
 20
248.8566450503147
 30
0.0
 11
123.2621058356449
 21
248.9697810503146
 31
0.0
  0
LINE
  5
1928
330
A
100
AcDbEntity
  8
MODEL
100
AcDbLine
 10
123.2621058356449
 20
248.9697810503146
 30
0.0
 11
122.725319835645
 21
249.1105730503147
 31
0.0
  0
LINE
  5
1929
330
A
100
AcDbEntity
  8
MODEL
100
AcDbLine
 10
122.725319835645
 20
249.1105730503147
 30
0.0
 11
122.1964118356448
 21
249.2806590503146
 31
0.0
  0
LINE
  5
192A
330
A
100
AcDbEntity
  8
MODEL
100
AcDbLine
 10
122.1964118356448
 20
249.2806590503146
 30
0.0
 11
121.6797958356449
 21
249.4812950503147
 31
0.0
  0
LINE
  5
192B
330
A
100
AcDbEntity
  8
MODEL
100
AcDbLine
 10
121.6797958356449
 20
249.4812950503147
 30
0.0
 11
121.1773898356448
 21
249.7152530503147
 31
0.0
  0
LINE
  5
192C
330
A
100
AcDbEntity
  8
MODEL
100
AcDbLine
 10
121.1773898356448
 20
249.7152530503147
 30
0.0
 11
120.6934978356448
 21
249.9854230503147
 31
0.0
  0
LINE
  5
192D
330
A
100
AcDbEntity
  8
MODEL
100
AcDbLine
 10
120.6934978356448
 20
249.9854230503147
 30
0.0
 11
120.233979835645
 21
250.2952050503146
 31
0.0
  0
LINE
  5
192E
330
A
100
AcDbEntity
  8
MODEL
100
AcDbLine
 10
120.233979835645
 20
250.2952050503146
 30
0.0
 11
119.8069618356449
 21
250.6483650503146
 31
0.0
  0
LINE
  5
192F
330
A
100
AcDbEntity
  8
MODEL
100
AcDbLine
 10
119.8069618356449
 20
250.6483650503146
 30
0.0
 11
119.4237878356448
 21
251.0485290503146
 31
0.0
  0
LINE
  5
1930
330
A
100
AcDbEntity
  8
MODEL
100
AcDbLine
 10
119.4237878356448
 20
251.0485290503146
 30
0.0
 11
119.1000558356448
 21
251.4979070503147
 31
0.0
  0
LINE
  5
1931
330
A
100
AcDbEntity
  8
MODEL
100
AcDbLine
 10
119.1000558356448
 20
251.4979070503147
 30
0.0
 11
118.8553518356448
 21
251.9961270503146
 31
0.0
  0
LINE
  5
1932
330
A
100
AcDbEntity
  8
MODEL
100
AcDbLine
 10
118.8553518356448
 20
251.9961270503146
 30
0.0
 11
118.7131998356449
 21
252.5313090503147
 31
0.0
  0
TEXT
  5
1933
330
A
100
AcDbEntity
  8
DIM
100
AcDbText
 10
350.2372021739241
 20
214.1699150343081
 30
0.0
 40
6.4
  1
23
 50
90.000076
  7
ＭＳ ゴシック
100
AcDbText
  0
TEXT
  5
1934
330
A
100
AcDbEntity
  8
DIM
100
AcDbText
 10
374.1905657437807
 20
209.8884730503147
 30
0.0
 40
6.40000000000001
  1
50
 50
89.90007799999998
  7
ＭＳ ゴシック
100
AcDbText
  0
TEXT
  5
1935
330
A
100
AcDbEntity
  8
DIM
100
AcDbText
 10
260.6604897437807
 20
159.4949810503147
 30
0.0
 40
6.4
  1
43
  7
ＭＳ ゴシック
100
AcDbText
  0
TEXT
  5
1936
330
A
100
AcDbEntity
  8
DIM
100
AcDbText
 10
100.3664178356448
 20
489.9989329416171
 30
0.0
 40
6.4
  1
35
  7
ＭＳ ゴシック
100
AcDbText
  0
TEXT
  5
1937
330
A
100
AcDbEntity
  8
DIM
100
AcDbText
 10
120.8664178356448
 20
319.9429629416169
 30
0.0
 40
6.4
  1
33
  7
ＭＳ ゴシック
100
AcDbText
  0
TEXT
  5
1938
330
A
100
AcDbEntity
  8
DIM
100
AcDbText
 10
147.3664178356448
 20
319.9429629416169
 30
0.0
 40
6.4
  1
20
  7
ＭＳ ゴシック
100
AcDbText
  0
TEXT
  5
1939
330
A
100
AcDbEntity
  8
DIM
100
AcDbText
 10
88.61641783564482
 20
319.9429629416169
 30
0.0
 40
6.4
  1
32
  7
ＭＳ ゴシック
100
AcDbText
  0
VIEWPORT
  5
349
330
B
100
AcDbEntity
 67
     1
  8
0
100
AcDbViewport
 10
202.5
 20
128.5
 30
0.0
 40
486.0
 41
308.4
 68
     1
 69
     1
 12
202.5
 22
128.5
 13
0.0
 23
0.0
 14
0.5
 24
0.5
 15
0.0
 25
0.0
 16
0.0
 26
0.0
 36
1.0
 17
0.0
 27
0.0
 37
0.0
 42
50.0
 43
0.0
 44
0.0
 45
308.4
 50
0.0
 51
0.0
 72
   100
 90
   557152
  1

281
     0
 71
     1
 74
     0
110
0.0
120
0.0
130
0.0
111
1.0
121
0.0
131
0.0
112
0.0
122
1.0
132
0.0
 79
     0
146
0.0
170
     0
 61
     5
348
26C
292
     1
282
     1
141
0.0
142
0.0
 63
   256
  0
VIEWPORT
  5
34A
330
B
100
AcDbEntity
 67
     1
  8
0
100
AcDbViewport
 10
202.5
 20
128.5
 30
0.0
 40
324.0
 41
205.6
 68
     2
 69
     2
 12
986.6781359294573
 22
1427.077061889956
 13
0.0
 23
0.0
 14
0.5
 24
0.5
 15
0.0
 25
0.0
 16
0.0
 26
0.0
 36
1.0
 17
0.0
 27
0.0
 37
0.0
 42
50.0
 43
0.0
 44
0.0
 45
2890.021615685494
 50
0.0
 51
0.0
 72
   100
 90
   557152
  1

281
     0
 71
     1
 74
     0
110
0.0
120
0.0
130
0.0
111
1.0
121
0.0
131
0.0
112
0.0
122
1.0
132
0.0
 79
     0
146
0.0
170
     0
 61
     5
348
26C
292
     1
282
     1
141
0.0
142
0.0
 63
   256
  0
ENDSEC
  0
SECTION
  2
OBJECTS
  0
DICTIONARY
  5
19
330
0
100
AcDbDictionary
281
     1
  3
ACAD_COLOR
350
674
  3
ACAD_DETAILVIEWSTYLE
350
BBF
  3
ACAD_GROUP
350
1A
  3
ACAD_IMAGE_VARS
350
27B
  3
ACAD_LAYOUT
350
1E
  3
ACAD_MATERIAL
350
263
  3
ACAD_MLEADERSTYLE
350
336
  3
ACAD_MLINESTYLE
350
1B
  3
ACAD_PLOTSETTINGS
350
22
  3
ACAD_PLOTSTYLENAME
350
1F
  3
ACAD_SCALELIST
350
241
  3
ACAD_SECTIONVIEWSTYLE
350
BC0
  3
ACAD_TABLESTYLE
350
278
  3
ACAD_VISUALSTYLE
350
267
  3
ACDB_RECOMPOSE_DATA
350
194E
  3
AcDbVariableDictionary
350
330
  3
APPDATA
350
27A
  0
SUN
  5
904
330
15
100
AcDbSun
 90
        1
290
     0
 63
     7
421
 16777215
 40
1.0
291
     1
 91
  2455826
 92
 54000000
292
     0
 70
     2
 71
   256
280
     1
  0
DICTIONARY
  5
2E1
330
2
100
AcDbDictionary
280
     1
281
     1
  3
ACAD_LAYERSTATES
360
2E2
  3
ACLYDICTIONARY
360
D05
  0
DICTIONARY
  5
674
102
{ACAD_REACTORS
330
19
102
}
330
19
100
AcDbDictionary
281
     1
  0
DICTIONARY
  5
BBF
102
{ACAD_REACTORS
330
19
102
}
330
19
100
AcDbDictionary
281
     1
  0
DICTIONARY
  5
1A
102
{ACAD_REACTORS
330
19
102
}
330
19
100
AcDbDictionary
281
     1
  0
RASTERVARIABLES
  5
27B
102
{ACAD_REACTORS
330
19
102
}
330
19
100
AcDbRasterVariables
 90
        0
 70
     1
 71
     1
 72
     1
  0
DICTIONARY
  5
1E
102
{ACAD_REACTORS
330
19
102
}
330
19
100
AcDbDictionary
281
     1
  3
Layout1
350
21
  3
Model
350
20
  0
DICTIONARY
  5
263
102
{ACAD_REACTORS
330
19
102
}
330
19
100
AcDbDictionary
281
     1
  3
ByBlock
350
265
  3
ByLayer
350
264
  3
Global
350
266
  0
DICTIONARY
  5
336
102
{ACAD_REACTORS
330
19
102
}
330
19
100
AcDbDictionary
281
     1
  0
DICTIONARY
  5
1B
102
{ACAD_REACTORS
330
19
102
}
330
19
100
AcDbDictionary
281
     1
  3
Standard
350
1C
  0
DICTIONARY
  5
22
102
{ACAD_REACTORS
330
19
102
}
330
19
100
AcDbDictionary
281
     1
  0
ACDBDICTIONARYWDFLT
  5
1F
102
{ACAD_REACTORS
330
19
102
}
330
19
100
AcDbDictionary
281
     1
  3
Normal
350
1D
100
AcDbDictionaryWithDefault
340
1D
  0
DICTIONARY
  5
241
102
{ACAD_REACTORS
330
19
102
}
330
19
100
AcDbDictionary
281
     1
  3
A0
350
242
  3
A1
350
243
  3
A2
350
244
  3
A3
350
245
  3
A4
350
246
  3
A5
350
247
  3
A6
350
248
  3
A7
350
249
  3
A8
350
24A
  3
A9
350
24B
  3
B0
350
24C
  3
B1
350
24D
  3
B2
350
24E
  3
B3
350
24F
  3
B4
350
250
  3
B5
350
251
  3
B6
350
252
  3
B7
350
253
  3
B8
350
254
  3
B9
350
255
  3
C0
350
256
  3
C1
350
257
  3
C2
350
258
  3
C3
350
259
  3
C4
350
25A
  3
C5
350
25B
  3
C6
350
25C
  3
C7
350
25D
  3
C8
350
25E
  3
C9
350
25F
  3
D0
350
260
  3
D1
350
261
  3
D2
350
262
  0
DICTIONARY
  5
BC0
102
{ACAD_REACTORS
330
19
102
}
330
19
100
AcDbDictionary
281
     1
  0
DICTIONARY
  5
278
102
{ACAD_REACTORS
330
19
102
}
330
19
100
AcDbDictionary
281
     1
  3
Standard
350
279
  0
DICTIONARY
  5
267
102
{ACAD_REACTORS
330
19
102
}
330
19
100
AcDbDictionary
281
     1
  3
2dWireframe
350
26C
  3
3D Hidden
350
26E
  3
3dWireframe
350
26D
  3
Basic
350
26F
  3
Brighten
350
273
  3
ColorChange
350
277
  3
Conceptual
350
271
  3
Dim
350
272
  3
EdgeColorOff
350
8FE
  3
Facepattern
350
276
  3
Flat
350
268
  3
FlatWithEdges
350
269
  3
Gouraud
350
26A
  3
GouraudWithEdges
350
26B
  3
Hidden
350
8FB
  3
JitterOff
350
8FC
  3
Linepattern
350
275
  3
OverhangOff
350
8FD
  3
Realistic
350
270
  3
Shaded
350
903
  3
Shaded with edges
350
902
  3
Shades of Gray
350
8FF
  3
Sketchy
350
900
  3
Thicken
350
274
  3
Wireframe
350
8FA
  3
X-Ray
350
901
  0
XRECORD
  5
194E
102
{ACAD_REACTORS
330
19
102
}
330
19
100
AcDbXrecord
280
     1
 90
        1
330
279
  0
DICTIONARY
  5
330
102
{ACAD_REACTORS
330
19
102
}
330
19
100
AcDbDictionary
281
     1
  3
CANNOSCALE
350
331
  3
CTABLESTYLE
350
335
  3
HPTRANSPARENCY
350
D6B
  3
XCLIPFRAME
350
896
  0
DICTIONARY
  5
27A
102
{ACAD_REACTORS
330
19
102
}
330
19
100
AcDbDictionary
281
     1
  0
DICTIONARY
  5
2E2
102
{ACAD_REACTORS
330
2E1
102
}
330
2E1
100
AcDbDictionary
281
     1
  3
ARGON_LAYERP_2
350
88B
  3
ARGON_LAYERP_3
350
88F
  3
ARGON_LAYERP_4
350
892
  3
ARGON_LAYERP_5
350
8F6
  3
ARGON_LAYERP_6
350
BC1
  3
ARGON_LAYERP_7
350
C9E
  3
ARGON_LAYERP_8
350
C9F
  3
ARGON_LAYERP_9
350
7AA
  0
DICTIONARY
  5
D05
102
{ACAD_REACTORS
330
2E1
102
}
330
2E1
100
AcDbDictionary
281
     1
1001
ACAD
1000
<All
  0
LAYOUT
  5
21
102
{ACAD_REACTORS
330
1E
102
}
330
1E
100
AcDbPlotSettings
  1

  2
none_device
  4
ISO_A3_(420.00_x_297.00_MM)
  6

 40
7.5
 41
20.0
 42
7.5
 43
20.0
 44
420.0
 45
297.0
 46
0.0
 47
0.0
 48
0.0
 49
0.0
140
0.0
141
0.0
142
1.0
143
1.0
 70
     0
 72
     1
 73
     0
 74
     0
  7

 75
     0
 76
     0
 77
     2
 78
   300
147
1.0
148
0.0
149
0.0
100
AcDbLayout
  1
Layout1
 70
     0
 71
     0
 10
-7.5
 20
-20.0
 11
412.5
 21
277.0
 12
0.0
 22
0.0
 32
0.0
 14
0.0
 24
0.0
 34
0.0
 15
0.0
 25
0.0
 35
0.0
146
0.0
 13
0.0
 23
0.0
 33
0.0
 16
0.0
 26
0.0
 36
0.0
 17
0.0
 27
0.0
 37
0.0
 76
     0
330
B
331
349
  0
LAYOUT
  5
20
102
{ACAD_REACTORS
330
1E
102
}
330
1E
100
AcDbPlotSettings
  1

  2
none_device
  4
ISO_A3_(420.00_x_297.00_MM)
  6

 40
7.5
 41
20.0
 42
7.5
 43
20.0
 44
420.0
 45
297.0
 46
0.0
 47
0.0
 48
0.0
 49
0.0
140
0.0
141
0.0
142
1.0
143
1.0
 70
  1024
 72
     1
 73
     0
 74
     0
  7

 75
     0
 76
     0
 77
     2
 78
   300
147
1.0
148
0.0
149
0.0
100
AcDbLayout
  1
Model
 70
     0
 71
     1
 10
0.0
 20
0.0
 11
420.0000000000001
 21
594.0000000000001
 12
0.0
 22
0.0
 32
0.0
 14
14.44042890944974
 24
12.75842966491423
 34
0.0
 15
404.4404289095462
 25
579.4293347012853
 35
0.0
146
0.0
 13
0.0
 23
0.0
 33
0.0
 16
0.0
 26
0.0
 36
0.0
 17
0.0
 27
0.0
 37
0.0
 76
     0
330
A
331
15
  0
MATERIAL
  5
265
102
{ACAD_REACTORS
330
263
102
}
330
263
100
AcDbMaterial
  1
ByBlock
 72
     1
 94
      127
  0
MATERIAL
  5
264
102
{ACAD_REACTORS
330
263
102
}
330
263
100
AcDbMaterial
  1
ByLayer
 72
     1
 94
      127
  0
MATERIAL
  5
266
102
{ACAD_REACTORS
330
263
102
}
330
263
100
AcDbMaterial
  1
Global
 72
     1
 94
      127
  0
MLINESTYLE
  5
1C
102
{ACAD_REACTORS
330
1B
102
}
330
1B
100
AcDbMlineStyle
  2
Standard
 70
     0
  3

 62
     0
 51
90.0
 52
90.0
 71
     2
 49
0.5
 62
   256
  6
BYLAYER
 49
-0.5
 62
   256
  6
BYLAYER
  0
ACDBPLACEHOLDER
  5
1D
102
{ACAD_REACTORS
330
1F
102
}
330
1F
  0
SCALE
  5
242
102
{ACAD_REACTORS
330
241
102
}
330
241
100
AcDbScale
 70
     0
300
1:1
140
1.0
141
1.0
290
     1
  0
SCALE
  5
243
102
{ACAD_REACTORS
330
241
102
}
330
241
100
AcDbScale
 70
     0
300
1:2
140
1.0
141
2.0
290
     0
  0
SCALE
  5
244
102
{ACAD_REACTORS
330
241
102
}
330
241
100
AcDbScale
 70
     0
300
1:4
140
1.0
141
4.0
290
     0
  0
SCALE
  5
245
102
{ACAD_REACTORS
330
241
102
}
330
241
100
AcDbScale
 70
     0
300
1:5
140
1.0
141
5.0
290
     0
  0
SCALE
  5
246
102
{ACAD_REACTORS
330
241
102
}
330
241
100
AcDbScale
 70
     0
300
1:8
140
1.0
141
8.0
290
     0
  0
SCALE
  5
247
102
{ACAD_REACTORS
330
241
102
}
330
241
100
AcDbScale
 70
     0
300
1:10
140
1.0
141
10.0
290
     0
  0
SCALE
  5
248
102
{ACAD_REACTORS
330
241
102
}
330
241
100
AcDbScale
 70
     0
300
1:16
140
1.0
141
16.0
290
     0
  0
SCALE
  5
249
102
{ACAD_REACTORS
330
241
102
}
330
241
100
AcDbScale
 70
     0
300
1:20
140
1.0
141
20.0
290
     0
  0
SCALE
  5
24A
102
{ACAD_REACTORS
330
241
102
}
330
241
100
AcDbScale
 70
     0
300
1:30
140
1.0
141
30.0
290
     0
  0
SCALE
  5
24B
102
{ACAD_REACTORS
330
241
102
}
330
241
100
AcDbScale
 70
     0
300
1:40
140
1.0
141
40.0
290
     0
  0
SCALE
  5
24C
102
{ACAD_REACTORS
330
241
102
}
330
241
100
AcDbScale
 70
     0
300
1:50
140
1.0
141
50.0
290
     0
  0
SCALE
  5
24D
102
{ACAD_REACTORS
330
241
102
}
330
241
100
AcDbScale
 70
     0
300
1:100
140
1.0
141
100.0
290
     0
  0
SCALE
  5
24E
102
{ACAD_REACTORS
330
241
102
}
330
241
100
AcDbScale
 70
     0
300
2:1
140
2.0
141
1.0
290
     0
  0
SCALE
  5
24F
102
{ACAD_REACTORS
330
241
102
}
330
241
100
AcDbScale
 70
     0
300
4:1
140
4.0
141
1.0
290
     0
  0
SCALE
  5
250
102
{ACAD_REACTORS
330
241
102
}
330
241
100
AcDbScale
 70
     0
300
8:1
140
8.0
141
1.0
290
     0
  0
SCALE
  5
251
102
{ACAD_REACTORS
330
241
102
}
330
241
100
AcDbScale
 70
     0
300
10:1
140
10.0
141
1.0
290
     0
  0
SCALE
  5
252
102
{ACAD_REACTORS
330
241
102
}
330
241
100
AcDbScale
 70
     0
300
100:1
140
100.0
141
1.0
290
     0
  0
SCALE
  5
253
102
{ACAD_REACTORS
330
241
102
}
330
241
100
AcDbScale
 70
     0
300
1/128" = 1'-0"
140
0.0078125
141
12.0
290
     0
  0
SCALE
  5
254
102
{ACAD_REACTORS
330
241
102
}
330
241
100
AcDbScale
 70
     0
300
1/64" = 1'-0"
140
0.015625
141
12.0
290
     0
  0
SCALE
  5
255
102
{ACAD_REACTORS
330
241
102
}
330
241
100
AcDbScale
 70
     0
300
1/32" = 1'-0"
140
0.03125
141
12.0
290
     0
  0
SCALE
  5
256
102
{ACAD_REACTORS
330
241
102
}
330
241
100
AcDbScale
 70
     0
300
1/16" = 1'-0"
140
0.0625
141
12.0
290
     0
  0
SCALE
  5
257
102
{ACAD_REACTORS
330
241
102
}
330
241
100
AcDbScale
 70
     0
300
3/32" = 1'-0"
140
0.09375
141
12.0
290
     0
  0
SCALE
  5
258
102
{ACAD_REACTORS
330
241
102
}
330
241
100
AcDbScale
 70
     0
300
1/8" = 1'-0"
140
0.125
141
12.0
290
     0
  0
SCALE
  5
259
102
{ACAD_REACTORS
330
241
102
}
330
241
100
AcDbScale
 70
     0
300
3/16" = 1'-0"
140
0.1875
141
12.0
290
     0
  0
SCALE
  5
25A
102
{ACAD_REACTORS
330
241
102
}
330
241
100
AcDbScale
 70
     0
300
1/4" = 1'-0"
140
0.25
141
12.0
290
     0
  0
SCALE
  5
25B
102
{ACAD_REACTORS
330
241
102
}
330
241
100
AcDbScale
 70
     0
300
3/8" = 1'-0"
140
0.375
141
12.0
290
     0
  0
SCALE
  5
25C
102
{ACAD_REACTORS
330
241
102
}
330
241
100
AcDbScale
 70
     0
300
1/2" = 1'-0"
140
0.5
141
12.0
290
     0
  0
SCALE
  5
25D
102
{ACAD_REACTORS
330
241
102
}
330
241
100
AcDbScale
 70
     0
300
3/4" = 1'-0"
140
0.75
141
12.0
290
     0
  0
SCALE
  5
25E
102
{ACAD_REACTORS
330
241
102
}
330
241
100
AcDbScale
 70
     0
300
1" = 1'-0"
140
1.0
141
12.0
290
     0
  0
SCALE
  5
25F
102
{ACAD_REACTORS
330
241
102
}
330
241
100
AcDbScale
 70
     0
300
1-1/2" = 1'-0"
140
1.5
141
12.0
290
     0
  0
SCALE
  5
260
102
{ACAD_REACTORS
330
241
102
}
330
241
100
AcDbScale
 70
     0
300
3" = 1'-0"
140
3.0
141
12.0
290
     0
  0
SCALE
  5
261
102
{ACAD_REACTORS
330
241
102
}
330
241
100
AcDbScale
 70
     0
300
6" = 1'-0"
140
6.0
141
12.0
290
     0
  0
SCALE
  5
262
102
{ACAD_REACTORS
330
241
102
}
330
241
100
AcDbScale
 70
     0
300
1'-0" = 1'-0"
140
12.0
141
12.0
290
     0
  0
TABLESTYLE
  5
279
102
{ACAD_REACTORS
330
278
102
}
102
{ACAD_XDICTIONARY
360
194C
102
}
330
278
100
AcDbTableStyle
  3
Standard
 70
     0
 71
     0
 40
0.06
 41
0.06
280
     0
281
     0
  7
Standard
140
4.5
170
     2
 62
     0
 63
   257
283
     0
 90
        4
 91
        0
  1

274
    -2
284
     1
 64
     0
275
    -2
285
     1
 65
     0
276
    -2
286
     1
 66
     0
277
    -2
287
     1
 67
     0
278
    -2
288
     1
 68
     0
279
    -2
289
     1
 69
     0
  7
Standard
140
6.0
170
     5
 62
     0
 63
   257
283
     0
 90
        4
 91
        0
  1

274
    -2
284
     1
 64
     0
275
    -2
285
     1
 65
     0
276
    -2
286
     1
 66
     0
277
    -2
287
     1
 67
     0
278
    -2
288
     1
 68
     0
279
    -2
289
     1
 69
     0
  7
Standard
140
4.5
170
     5
 62
     0
 63
   257
283
     0
 90
        4
 91
        0
  1

274
    -2
284
     1
 64
     0
275
    -2
285
     1
 65
     0
276
    -2
286
     1
 66
     0
277
    -2
287
     1
 67
     0
278
    -2
288
     1
 68
     0
279
    -2
289
     1
 69
     0
  0
VISUALSTYLE
  5
26C
102
{ACAD_REACTORS
330
267
102
}
330
267
100
AcDbVisualStyle
  2
2dWireframe
 70
     4
 71
     0
 72
     2
 73
     0
 90
        0
 40
-0.6
 41
-30.0
 62
     5
 63
     7
421
 16777215
 74
     1
 91
        4
 64
     7
 65
   257
 75
     1
175
     1
 42
1.0
 92
        0
 66
   257
 43
1.0
 76
     1
 77
     6
 78
     2
 67
     7
 79
     5
170
     0
171
     0
290
     0
174
     0
 93
        1
 44
0.0
173
     0
291
     0
 45
0.0
  0
VISUALSTYLE
  5
26E
102
{ACAD_REACTORS
330
267
102
}
330
267
100
AcDbVisualStyle
  2
3D Hidden
 70
     6
 71
     1
 72
     2
 73
     2
 90
        0
 40
-0.6
 41
-30.0
 62
     5
 63
     7
421
 16777215
 74
     2
 91
        2
 64
     7
 65
   257
 75
     2
175
     1
 42
40.0
 92
        0
 66
   257
 43
1.0
 76
     1
 77
     6
 78
     2
 67
     7
 79
     3
170
     0
171
     0
290
     0
174
     0
 93
        1
 44
0.0
173
     0
291
     0
 45
0.0
  0
VISUALSTYLE
  5
26D
102
{ACAD_REACTORS
330
267
102
}
330
267
100
AcDbVisualStyle
  2
3dWireframe
 70
     5
 71
     0
 72
     2
 73
     0
 90
        0
 40
-0.6
 41
-30.0
 62
     5
 63
     7
421
 16777215
 74
     1
 91
        4
 64
     7
 65
   257
 75
     1
175
     1
 42
1.0
 92
        0
 66
   257
 43
1.0
 76
     1
 77
     6
 78
     2
 67
     7
 79
     5
170
     0
171
     0
290
     0
174
     0
 93
        1
 44
0.0
173
     0
291
     0
 45
0.0
  0
VISUALSTYLE
  5
26F
102
{ACAD_REACTORS
330
267
102
}
330
267
100
AcDbVisualStyle
  2
Basic
 70
     7
 71
     1
 72
     0
 73
     1
 90
        0
 40
-0.6
 41
-30.0
 62
     5
 63
     7
421
 16777215
 74
     0
 91
        4
 64
     7
 65
   257
 75
     1
175
     1
 42
1.0
 92
        8
 66
     7
 43
1.0
 76
     1
 77
     6
 78
     2
 67
     7
 79
     5
170
     0
171
     0
290
     0
174
     0
 93
        1
 44
0.0
173
     0
291
     1
 45
0.0
  0
VISUALSTYLE
  5
273
102
{ACAD_REACTORS
330
267
102
}
330
267
100
AcDbVisualStyle
  2
Brighten
 70
    12
 71
     2
 72
     2
 73
     0
 90
        0
 40
-0.6
 41
-30.0
 62
     5
 63
     7
421
 16777215
 74
     1
 91
        4
 64
     7
 65
   257
 75
     1
175
     1
 42
1.0
 92
        8
 66
     7
 43
1.0
 76
     1
 77
     6
 78
     2
 67
     7
 79
     5
170
     0
171
     0
290
     0
174
     0
 93
        1
 44
50.0
173
     0
291
     1
 45
0.0
  0
VISUALSTYLE
  5
277
102
{ACAD_REACTORS
330
267
102
}
330
267
100
AcDbVisualStyle
  2
ColorChange
 70
    16
 71
     2
 72
     2
 73
     3
 90
        0
 40
-0.6
 41
-30.0
 62
     5
 63
     8
421
  8421504
 74
     1
 91
        4
 64
     7
 65
   257
 75
     1
175
     1
 42
1.0
 92
        8
 66
     8
424
  8421504
 43
1.0
 76
     1
 77
     6
 78
     2
 67
     7
 79
     5
170
     0
171
     0
290
     0
174
     0
 93
        1
 44
0.0
173
     0
291
     1
 45
0.0
  0
VISUALSTYLE
  5
271
102
{ACAD_REACTORS
330
267
102
}
330
267
100
AcDbVisualStyle
  2
Conceptual
 70
     9
 71
     3
 72
     2
 73
     0
 90
        0
 40
-0.6
 41
-30.0
 62
     5
 63
     7
421
 16777215
 74
     2
 91
        2
 64
     7
 65
   257
 75
     1
175
     1
 42
40.0
 92
        8
 66
     7
 43
1.0
 76
     1
 77
     6
 78
     2
 67
     7
 79
     3
170
     0
171
     0
290
     0
174
     0
 93
        1
 44
0.0
173
     0
291
     0
 45
0.0
  0
VISUALSTYLE
  5
272
102
{ACAD_REACTORS
330
267
102
}
330
267
100
AcDbVisualStyle
  2
Dim
 70
    11
 71
     2
 72
     2
 73
     0
 90
        0
 40
-0.6
 41
-30.0
 62
     5
 63
     7
421
 16777215
 74
     1
 91
        4
 64
     7
 65
   257
 75
     1
175
     1
 42
1.0
 92
        8
 66
     7
 43
1.0
 76
     1
 77
     6
 78
     2
 67
     7
 79
     5
170
     0
171
     0
290
     0
174
     0
 93
        1
 44
-50.0
173
     0
291
     1
 45
0.0
  0
VISUALSTYLE
  5
8FE
102
{ACAD_REACTORS
330
267
102
}
330
267
100
AcDbVisualStyle
  2
EdgeColorOff
 70
    22
 71
     2
 72
     2
 73
     0
 90
        0
 40
0.6
 41
30.0
 62
     5
 63
     7
421
 16777215
 74
     1
 91
        4
 64
     7
 65
   257
 75
     1
175
     1
 42
1.0
 92
        8
 66
     7
 43
1.0
 76
     1
 77
     6
 78
     2
 67
     7
 79
     5
170
     0
171
     0
290
     0
174
     0
 93
        1
 44
0.0
173
     0
291
     1
 45
0.0
  0
VISUALSTYLE
  5
276
102
{ACAD_REACTORS
330
267
102
}
330
267
100
AcDbVisualStyle
  2
Facepattern
 70
    15
 71
     2
 72
     2
 73
     0
 90
        0
 40
-0.6
 41
-30.0
 62
     5
 63
     7
421
 16777215
 74
     1
 91
        4
 64
     7
 65
   257
 75
     1
175
     1
 42
1.0
 92
        8
 66
     7
 43
1.0
 76
     1
 77
     6
 78
     2
 67
     7
 79
     5
170
     0
171
     0
290
     0
174
     0
 93
        1
 44
0.0
173
     0
291
     1
 45
0.0
  0
VISUALSTYLE
  5
268
102
{ACAD_REACTORS
330
267
102
}
330
267
100
AcDbVisualStyle
  2
Flat
 70
     0
 71
     2
 72
     1
 73
     1
 90
        2
 40
-0.6
 41
30.0
 62
     5
 63
     7
421
 16777215
 74
     0
 91
        4
 64
     7
 65
   257
 75
     1
175
     1
 42
1.0
 92
        8
 66
     7
 43
1.0
 76
     1
 77
     6
 78
     2
 67
     7
 79
     5
170
     0
171
     0
290
     0
174
     0
 93
       13
 44
0.0
173
     0
291
     1
 45
0.0
  0
VISUALSTYLE
  5
269
102
{ACAD_REACTORS
330
267
102
}
330
267
100
AcDbVisualStyle
  2
FlatWithEdges
 70
     1
 71
     2
 72
     1
 73
     1
 90
        2
 40
-0.6
 41
30.0
 62
     5
 63
     7
421
 16777215
 74
     1
 91
        4
 64
     7
 65
   257
 75
     1
175
     1
 42
1.0
 92
        0
 66
   257
 43
1.0
 76
     1
 77
     6
 78
     2
 67
     7
 79
     5
170
     0
171
     0
290
     0
174
     0
 93
       13
 44
0.0
173
     0
291
     1
 45
0.0
  0
VISUALSTYLE
  5
26A
102
{ACAD_REACTORS
330
267
102
}
330
267
100
AcDbVisualStyle
  2
Gouraud
 70
     2
 71
     2
 72
     2
 73
     1
 90
        2
 40
-0.6
 41
30.0
 62
     5
 63
     7
421
 16777215
 74
     0
 91
        4
 64
     7
 65
   257
 75
     1
175
     1
 42
1.0
 92
        0
 66
     7
 43
1.0
 76
     1
 77
     6
 78
     2
 67
     7
 79
     5
170
     0
171
     0
290
     0
174
     0
 93
       13
 44
0.0
173
     0
291
     1
 45
0.0
  0
VISUALSTYLE
  5
26B
102
{ACAD_REACTORS
330
267
102
}
330
267
100
AcDbVisualStyle
  2
GouraudWithEdges
 70
     3
 71
     2
 72
     2
 73
     1
 90
        2
 40
-0.6
 41
30.0
 62
     5
 63
     7
421
 16777215
 74
     1
 91
        4
 64
     7
 65
   257
 75
     1
175
     1
 42
1.0
 92
        0
 66
   257
 43
1.0
 76
     1
 77
     6
 78
     2
 67
     7
 79
     5
170
     0
171
     0
290
     0
174
     0
 93
       13
 44
0.0
173
     0
291
     1
 45
0.0
  0
VISUALSTYLE
  5
8FB
102
{ACAD_REACTORS
330
267
102
}
330
267
100
AcDbVisualStyle
  2
Hidden
 70
     6
 71
     1
 72
     2
 73
     2
 90
        0
 40
0.6
 41
30.0
 62
     5
 63
     7
421
 16777215
 74
     2
 91
        2
 64
     7
 65
   257
 75
     2
175
     1
 42
40.0
 92
        0
 66
   257
 43
1.0
 76
     1
 77
     6
 78
     2
 67
     7
 79
     3
170
     0
171
     0
290
     0
174
     0
 93
        1
 44
0.0
173
     0
291
     0
 45
0.0
  0
VISUALSTYLE
  5
8FC
102
{ACAD_REACTORS
330
267
102
}
330
267
100
AcDbVisualStyle
  2
JitterOff
 70
    20
 71
     2
 72
     2
 73
     0
 90
        0
 40
0.6
 41
30.0
 62
     5
 63
     7
421
 16777215
 74
     1
 91
        4
 64
     7
 65
   257
 75
     1
175
     1
 42
1.0
 92
       10
 66
     7
 43
1.0
 76
     1
 77
     6
 78
     2
 67
     7
 79
     5
170
     0
171
     0
290
     0
174
     0
 93
        1
 44
0.0
173
     0
291
     1
 45
0.0
  0
VISUALSTYLE
  5
275
102
{ACAD_REACTORS
330
267
102
}
330
267
100
AcDbVisualStyle
  2
Linepattern
 70
    14
 71
     2
 72
     2
 73
     0
 90
        0
 40
-0.6
 41
-30.0
 62
     5
 63
     7
421
 16777215
 74
     1
 91
        4
 64
     7
 65
   257
 75
     7
175
     7
 42
1.0
 92
        8
 66
     7
 43
1.0
 76
     1
 77
     6
 78
     2
 67
     7
 79
     5
170
     0
171
     0
290
     0
174
     0
 93
        1
 44
0.0
173
     0
291
     1
 45
0.0
  0
VISUALSTYLE
  5
8FD
102
{ACAD_REACTORS
330
267
102
}
330
267
100
AcDbVisualStyle
  2
OverhangOff
 70
    21
 71
     2
 72
     2
 73
     0
 90
        0
 40
0.6
 41
30.0
 62
     5
 63
     7
421
 16777215
 74
     1
 91
        4
 64
     7
 65
   257
 75
     1
175
     1
 42
1.0
 92
        9
 66
     7
 43
1.0
 76
     1
 77
     6
 78
     2
 67
     7
 79
     5
170
     0
171
     0
290
     0
174
     0
 93
        1
 44
0.0
173
     0
291
     1
 45
0.0
  0
VISUALSTYLE
  5
270
102
{ACAD_REACTORS
330
267
102
}
330
267
100
AcDbVisualStyle
  2
Realistic
 70
     8
 71
     2
 72
     2
 73
     0
 90
        0
 40
-0.6
 41
-30.0
 62
     5
 63
     7
421
 16777215
 74
     1
 91
        0
 64
     7
 65
   257
 75
     1
175
     1
 42
1.0
 92
        8
 66
     8
424
  7895160
 43
1.0
 76
     1
 77
     6
 78
     2
 67
     7
 79
     5
170
     0
171
     0
290
     0
174
     0
 93
       13
 44
0.0
173
     0
291
     0
 45
0.0
  0
VISUALSTYLE
  5
903
102
{ACAD_REACTORS
330
267
102
}
330
267
100
AcDbVisualStyle
  2
Shaded
 70
    27
 71
     2
 72
     2
 73
     1
 90
        2
 40
0.6
 41
30.0
 62
     5
 63
     7
421
 16777215
 74
     0
 91
        4
 64
     7
 65
   257
 75
     1
175
     1
 42
1.0
 92
        8
 66
   257
 43
1.0
 76
     1
 77
     6
 78
     2
 67
     8
425
  7895160
 79
     3
170
     0
171
     0
290
     0
174
     0
 93
        5
 44
0.0
173
     0
291
     0
 45
0.0
  0
VISUALSTYLE
  5
902
102
{ACAD_REACTORS
330
267
102
}
330
267
100
AcDbVisualStyle
  2
Shaded with edges
 70
    26
 71
     2
 72
     2
 73
     1
 90
        2
 40
0.6
 41
30.0
 62
     5
 63
     7
421
 16777215
 74
     1
 91
       10
 64
     7
 65
   257
 75
     2
175
     1
 42
1.0
 92
        8
 66
   257
 43
1.0
 76
     1
 77
     6
 78
     2
 67
     7
 79
     3
170
     0
171
     0
290
     0
174
     0
 93
        5
 44
0.0
173
     0
291
     0
 45
0.0
  0
VISUALSTYLE
  5
8FF
102
{ACAD_REACTORS
330
267
102
}
330
267
100
AcDbVisualStyle
  2
Shades of Gray
 70
    23
 71
     2
 72
     2
 73
     3
 90
        0
 40
0.6
 41
30.0
 62
     5
 63
     7
421
 16777215
 74
     2
 91
        2
 64
     7
 65
     7
 75
     1
175
     1
 42
40.0
 92
        8
 66
     7
 43
1.0
 76
     1
 77
     6
 78
     2
 67
     7
 79
     3
170
     0
171
     0
290
     0
174
     0
 93
        1
 44
0.0
173
     0
291
     0
 45
0.0
  0
VISUALSTYLE
  5
900
102
{ACAD_REACTORS
330
267
102
}
330
267
100
AcDbVisualStyle
  2
Sketchy
 70
    24
 71
     1
 72
     2
 73
     2
 90
        0
 40
0.6
 41
30.0
 62
     5
 63
     7
421
 16777215
 74
     2
 91
        2
 64
     7
 65
     7
 75
     1
175
     1
 42
40.0
 92
       11
 66
     7
 43
1.0
 76
     1
 77
     6
 78
     2
 67
     7
 79
     6
170
     0
171
     0
290
     0
174
     0
 93
        1
 44
0.0
173
     0
291
     0
 45
0.0
  0
VISUALSTYLE
  5
274
102
{ACAD_REACTORS
330
267
102
}
330
267
100
AcDbVisualStyle
  2
Thicken
 70
    13
 71
     2
 72
     2
 73
     0
 90
        0
 40
-0.6
 41
-30.0
 62
     5
 63
     7
421
 16777215
 74
     1
 91
        4
 64
     7
 65
   257
 75
     1
175
     1
 42
1.0
 92
       12
 66
     7
 43
1.0
 76
     1
 77
     6
 78
     2
 67
     7
 79
     5
170
     0
171
     0
290
     0
174
     0
 93
        1
 44
0.0
173
     0
291
     1
 45
0.0
  0
VISUALSTYLE
  5
8FA
102
{ACAD_REACTORS
330
267
102
}
330
267
100
AcDbVisualStyle
  2
Wireframe
 70
     5
 71
     0
 72
     2
 73
     0
 90
        0
 40
0.6
 41
30.0
 62
     5
 63
     7
421
 16777215
 74
     1
 91
        4
 64
     7
 65
   257
 75
     1
175
     1
 42
1.0
 92
        0
 66
   257
 43
1.0
 76
     1
 77
     6
 78
     2
 67
     7
 79
     3
170
     0
171
     0
290
     0
174
     0
 93
        1
 44
0.0
173
     0
291
     0
 45
0.0
  0
VISUALSTYLE
  5
901
102
{ACAD_REACTORS
330
267
102
}
330
267
100
AcDbVisualStyle
  2
X-Ray
 70
    25
 71
     2
 72
     2
 73
     1
 90
        1
 40
0.5
 41
30.0
 62
     5
 63
     7
421
 16777215
 74
     1
 91
        0
 64
     7
 65
   257
 75
     1
175
     1
 42
1.0
 92
        8
 66
     7
 43
1.0
 76
     1
 77
     6
 78
     2
 67
     7
 79
     3
170
     0
171
     0
290
     0
174
     0
 93
       13
 44
0.0
173
     0
291
     0
 45
0.0
  0
DICTIONARYVAR
  5
331
102
{ACAD_REACTORS
330
330
102
}
330
330
100
DictionaryVariables
280
     0
  1
1:1
  0
DICTIONARYVAR
  5
335
102
{ACAD_REACTORS
330
330
102
}
330
330
100
DictionaryVariables
280
     0
  1
Standard
  0
DICTIONARYVAR
  5
D6B
102
{ACAD_REACTORS
330
330
102
}
330
330
100
DictionaryVariables
280
     0
  1
ByLayer
  0
DICTIONARYVAR
  5
896
102
{ACAD_REACTORS
330
330
102
}
330
330
100
DictionaryVariables
280
     0
  1
0
  0
XRECORD
  5
88B
102
{ACAD_REACTORS
330
2E2
102
}
330
2E2
100
AcDbXrecord
280
     1
 91
     1023
301

290
     0
302
MODEL
330
14
 90
        8
 62
     7
370
    -3
331
13
  1
Color_7
330
0
 90
        0
 62
     7
370
    -3
331
13
  1
Color_7
330
4B
 90
        8
 62
     7
370
    -3
331
13
  1
Color_7
330
4C
 90
        8
 62
     7
370
    -3
331
13
  1
Color_7
330
4D
 90
        8
 62
     7
370
    -3
331
13
  1
Color_7
330
0
 90
        9
 62
     1
370
    -3
331
13
  1
Color_1
330
0
 90
        8
 62
     4
370
    -3
331
13
  1
Color_4
330
667
 90
        8
 62
     7
370
    -3
331
13
  1
Color_7
330
0
 90
        9
 62
     1
370
    -3
331
13
  1
Color_1
  0
XRECORD
  5
88F
102
{ACAD_REACTORS
330
2E2
102
}
330
2E2
100
AcDbXrecord
280
     1
 91
     1023
301

290
     0
302
MODEL
330
14
 90
        8
 62
     7
370
    -3
331
13
  1
Color_7
330
0
 90
        0
 62
     7
370
    -3
331
13
  1
Color_7
330
4B
 90
        8
 62
     7
370
     0
331
13
  1
Color_7
330
4C
 90
        8
 62
     7
370
     9
331
13
  1
Color_7
330
4D
 90
        8
 62
     7
370
    -3
331
13
  1
Color_7
330
667
 90
        8
 62
     7
370
    -3
331
13
  1
Color_7
330
88C
 90
        8
 62
     7
370
     9
331
45
  1
Color_7
  0
XRECORD
  5
892
102
{ACAD_REACTORS
330
2E2
102
}
330
2E2
100
AcDbXrecord
280
     1
 91
     1023
301

290
     0
302
MODEL
330
14
 90
        8
 62
     7
370
    -3
331
13
  1
Color_7
330
0
 90
        0
 62
     7
370
    -3
331
13
  1
Color_7
330
4B
 90
        8
 62
     7
370
     0
331
13
  1
Color_7
330
4C
 90
        8
 62
     7
370
     9
331
13
  1
Color_7
330
4D
 90
        8
 62
     7
370
    -3
331
13
  1
Color_7
330
667
 90
        8
 62
     3
370
    -3
331
13
  1
Color_3
330
88C
 90
        8
 62
     7
370
     9
331
45
  1
Color_7
  0
XRECORD
  5
8F6
102
{ACAD_REACTORS
330
2E2
102
}
330
2E2
100
AcDbXrecord
280
     1
 91
     1023
301

290
     0
302
MODEL
330
14
 90
        8
 62
     7
370
    -3
331
13
  1
Color_7
330
0
 90
        0
 62
     7
370
    -3
331
13
  1
Color_7
330
4B
 90
        8
 62
     7
370
     0
331
13
  1
Color_7
330
4C
 90
        8
 62
     7
370
     9
331
13
  1
Color_7
330
4D
 90
        8
 62
     7
370
    -3
331
13
  1
Color_7
330
667
 90
        8
 62
     7
370
    -3
331
13
  1
Color_7
330
88C
 90
        8
 62
     7
370
     9
331
45
  1
Color_7
  0
XRECORD
  5
BC1
102
{ACAD_REACTORS
330
2E2
102
}
330
2E2
100
AcDbXrecord
280
     1
 91
     1023
301

290
     0
302
MODEL
330
14
 90
        8
 62
     7
370
    -3
331
13
  1
Color_7
330
0
 90
        0
 62
     7
370
    -3
331
13
  1
Color_7
330
4B
 90
        8
 62
     7
370
     0
331
13
  1
Color_7
330
4C
 90
        8
 62
     7
370
     9
331
13
  1
Color_7
330
4D
 90
        8
 62
     7
370
    -3
331
13
  1
Color_7
330
667
 90
        8
 62
     7
370
    -3
331
13
  1
Color_7
330
88C
 90
        8
 62
     7
370
     9
331
45
  1
Color_7
330
0
 90
        8
 62
     7
370
    -3
331
13
  1
Color_7
  0
XRECORD
  5
C9E
102
{ACAD_REACTORS
330
2E2
102
}
330
2E2
100
AcDbXrecord
280
     1
 91
     1023
301

290
     0
302
DIM
330
14
 90
        8
 62
     7
370
    -3
331
13
  1
Color_7
330
0
 90
        0
 62
     7
370
    -3
331
13
  1
Color_7
330
4B
 90
        8
 62
     7
370
     0
331
13
  1
Color_7
330
4C
 90
        8
 62
     7
370
     9
331
13
  1
Color_7
330
4D
 90
        8
 62
     7
370
    -3
331
13
  1
Color_7
330
667
 90
        8
 62
     7
370
    -3
331
13
  1
Color_7
330
88C
 90
        8
 62
     7
370
     9
331
45
  1
Color_7
330
0
 90
        8
 62
     7
370
    -3
331
13
  1
Color_7
  0
XRECORD
  5
C9F
102
{ACAD_REACTORS
330
2E2
102
}
330
2E2
100
AcDbXrecord
280
     1
 91
     1023
301

290
     0
302
MODEL
330
14
 90
        8
 62
     7
370
    -3
331
13
  1
Color_7
330
0
 90
        0
 62
     7
370
    -3
331
13
  1
Color_7
330
4B
 90
        8
 62
     7
370
     0
331
13
  1
Color_7
330
4C
 90
        8
 62
     7
370
     9
331
13
  1
Color_7
330
4D
 90
        8
 62
     7
370
    -3
331
13
  1
Color_7
330
667
 90
        8
 62
     7
370
    -3
331
13
  1
Color_7
330
88C
 90
        8
 62
     7
370
     9
331
45
  1
Color_7
330
0
 90
        8
 62
     7
370
    -3
331
13
  1
Color_7
  0
XRECORD
  5
7AA
102
{ACAD_REACTORS
330
2E2
102
}
330
2E2
100
AcDbXrecord
280
     1
 91
     1023
301

290
     0
302
MODEL
330
14
 90
        8
 62
     7
370
    -3
331
13
  1
Color_7
330
0
 90
        0
 62
     7
370
    -3
331
13
  1
Color_7
330
4B
 90
        8
 62
     7
370
     0
331
13
  1
Color_7
330
4C
 90
        8
 62
     7
370
     9
331
13
  1
Color_7
330
4D
 90
        8
 62
     7
370
    -3
331
13
  1
Color_7
330
667
 90
        8
 62
     7
370
    -3
331
13
  1
Color_7
330
88C
 90
        8
 62
     7
370
     9
331
45
  1
Color_7
330
0
 90
        8
 62
     7
370
    -3
331
13
  1
Color_7
  0
DICTIONARY
  5
194C
330
279
100
AcDbDictionary
280
     1
281
     1
  3
ACAD_ROUNDTRIP_2008_TABLESTYLE_CELLSTYLEMAP
360
194D
  0
CELLSTYLEMAP
  5
194D
102
{ACAD_REACTORS
330
194C
102
}
330
194C
100
AcDbCellStyleMap
 90
        3
300
CELLSTYLE
  1
TABLEFORMAT_BEGIN
 90
        5
170
     1
 91
        0
 92
    32768
 62
   257
 93
        1
300
CONTENTFORMAT
  1
CONTENTFORMAT_BEGIN
 90
        0
 91
        0
 92
        4
 93
        0
300

 40
0.0
140
1.0
 94
        5
 62
     0
340
17
144
6.0
309
CONTENTFORMAT_END
171
     1
301
MARGIN
  1
CELLMARGIN_BEGIN
 40
0.06
 40
0.06
 40
0.06
 40
0.06
 40
0.18
 40
0.18
309
CELLMARGIN_END
 94
        6
 95
        1
302
GRIDFORMAT
  1
GRIDFORMAT_BEGIN
 90
        0
 91
        1
 62
     0
 92
       -2
340
0
 93
        0
 40
0.045
309
GRIDFORMAT_END
 95
        2
302
GRIDFORMAT
  1
GRIDFORMAT_BEGIN
 90
        0
 91
        1
 62
     0
 92
       -2
340
0
 93
        0
 40
0.045
309
GRIDFORMAT_END
 95
        4
302
GRIDFORMAT
  1
GRIDFORMAT_BEGIN
 90
        0
 91
        1
 62
     0
 92
       -2
340
0
 93
        0
 40
0.045
309
GRIDFORMAT_END
 95
        8
302
GRIDFORMAT
  1
GRIDFORMAT_BEGIN
 90
        0
 91
        1
 62
     0
 92
       -2
340
0
 93
        0
 40
0.045
309
GRIDFORMAT_END
 95
       16
302
GRIDFORMAT
  1
GRIDFORMAT_BEGIN
 90
        0
 91
        1
 62
     0
 92
       -2
340
0
 93
        0
 40
0.045
309
GRIDFORMAT_END
 95
       32
302
GRIDFORMAT
  1
GRIDFORMAT_BEGIN
 90
        0
 91
        1
 62
     0
 92
       -2
340
0
 93
        0
 40
0.045
309
GRIDFORMAT_END
309
TABLEFORMAT_END
  1
CELLSTYLE_BEGIN
 90
        1
 91
        1
300
_TITLE
309
CELLSTYLE_END
300
CELLSTYLE
  1
TABLEFORMAT_BEGIN
 90
        5
170
     1
 91
        0
 92
        0
 62
   257
 93
        1
300
CONTENTFORMAT
  1
CONTENTFORMAT_BEGIN
 90
        0
 91
        0
 92
        4
 93
        0
300

 40
0.0
140
1.0
 94
        5
 62
     0
340
17
144
4.5
309
CONTENTFORMAT_END
171
     1
301
MARGIN
  1
CELLMARGIN_BEGIN
 40
0.06
 40
0.06
 40
0.06
 40
0.06
 40
0.18
 40
0.18
309
CELLMARGIN_END
 94
        6
 95
        1
302
GRIDFORMAT
  1
GRIDFORMAT_BEGIN
 90
        0
 91
        1
 62
     0
 92
       -2
340
0
 93
        0
 40
0.045
309
GRIDFORMAT_END
 95
        2
302
GRIDFORMAT
  1
GRIDFORMAT_BEGIN
 90
        0
 91
        1
 62
     0
 92
       -2
340
0
 93
        0
 40
0.045
309
GRIDFORMAT_END
 95
        4
302
GRIDFORMAT
  1
GRIDFORMAT_BEGIN
 90
        0
 91
        1
 62
     0
 92
       -2
340
0
 93
        0
 40
0.045
309
GRIDFORMAT_END
 95
        8
302
GRIDFORMAT
  1
GRIDFORMAT_BEGIN
 90
        0
 91
        1
 62
     0
 92
       -2
340
0
 93
        0
 40
0.045
309
GRIDFORMAT_END
 95
       16
302
GRIDFORMAT
  1
GRIDFORMAT_BEGIN
 90
        0
 91
        1
 62
     0
 92
       -2
340
0
 93
        0
 40
0.045
309
GRIDFORMAT_END
 95
       32
302
GRIDFORMAT
  1
GRIDFORMAT_BEGIN
 90
        0
 91
        1
 62
     0
 92
       -2
340
0
 93
        0
 40
0.045
309
GRIDFORMAT_END
309
TABLEFORMAT_END
  1
CELLSTYLE_BEGIN
 90
        2
 91
        1
300
_HEADER
309
CELLSTYLE_END
300
CELLSTYLE
  1
TABLEFORMAT_BEGIN
 90
        5
170
     1
 91
        0
 92
        0
 62
   257
 93
        1
300
CONTENTFORMAT
  1
CONTENTFORMAT_BEGIN
 90
        0
 91
        0
 92
        4
 93
        0
300

 40
0.0
140
1.0
 94
        2
 62
     0
340
17
144
4.5
309
CONTENTFORMAT_END
171
     1
301
MARGIN
  1
CELLMARGIN_BEGIN
 40
0.06
 40
0.06
 40
0.06
 40
0.06
 40
0.18
 40
0.18
309
CELLMARGIN_END
 94
        6
 95
        1
302
GRIDFORMAT
  1
GRIDFORMAT_BEGIN
 90
        0
 91
        1
 62
     0
 92
       -2
340
0
 93
        0
 40
0.045
309
GRIDFORMAT_END
 95
        2
302
GRIDFORMAT
  1
GRIDFORMAT_BEGIN
 90
        0
 91
        1
 62
     0
 92
       -2
340
0
 93
        0
 40
0.045
309
GRIDFORMAT_END
 95
        4
302
GRIDFORMAT
  1
GRIDFORMAT_BEGIN
 90
        0
 91
        1
 62
     0
 92
       -2
340
0
 93
        0
 40
0.045
309
GRIDFORMAT_END
 95
        8
302
GRIDFORMAT
  1
GRIDFORMAT_BEGIN
 90
        0
 91
        1
 62
     0
 92
       -2
340
0
 93
        0
 40
0.045
309
GRIDFORMAT_END
 95
       16
302
GRIDFORMAT
  1
GRIDFORMAT_BEGIN
 90
        0
 91
        1
 62
     0
 92
       -2
340
0
 93
        0
 40
0.045
309
GRIDFORMAT_END
 95
       32
302
GRIDFORMAT
  1
GRIDFORMAT_BEGIN
 90
        0
 91
        1
 62
     0
 92
       -2
340
0
 93
        0
 40
0.045
309
GRIDFORMAT_END
309
TABLEFORMAT_END
  1
CELLSTYLE_BEGIN
 90
        3
 91
        2
300
_DATA
309
CELLSTYLE_END
  0
ENDSEC
  0
EOF
