  0
SECTION
  2
HEADER
  9
$ACADVER
  1
AC1021
  9
$ACADMAINTVER
 70
    25
  9
$DWGCODEPAGE
  3
ANSI_932
  9
$LASTSAVEDBY
  1
howeNelson
  9
$INSBASE
 10
0.0
 20
0.0
 30
0.0
  9
$EXTMIN
 10
14.44042890944974
 20
12.75842966491423
 30
0.0
  9
$EXTMAX
 10
404.4404289095462
 20
579.4293347012853
 30
0.0
  9
$LIMMIN
 10
0.0
 20
0.0
  9
$LIMMAX
 10
420.0000000000001
 20
594.0000000000001
  9
$ORTHOMODE
 70
     0
  9
$REGENMODE
 70
     1
  9
$FILLMODE
 70
     1
  9
$QTEXTMODE
 70
     0
  9
$MIRRTEXT
 70
     1
  9
$LTSCALE
 40
50.8
  9
$ATTMODE
 70
     1
  9
$TEXTSIZE
 40
2.5
  9
$TRACEWID
 40
1.0
  9
$TEXTSTYLE
  7
ＭＳ ゴシック
  9
$CLAYER
  8
MODEL
  9
$CELTYPE
  6
ByLayer
  9
$CECOLOR
 62
   256
  9
$CELTSCALE
 40
1.0
  9
$DISPSILH
 70
     0
  9
$DIMSCALE
 40
1.0
  9
$DIMASZ
 40
2.0
  9
$DIMEXO
 40
5.0
  9
$DIMDLI
 40
0.0
  9
$DIMRND
 40
0.0
  9
$DIMDLE
 40
0.0
  9
$DIMEXE
 40
0.0
  9
$DIMTP
 40
0.0
  9
$DIMTM
 40
0.0
  9
$DIMTXT
 40
6.0
  9
$DIMCEN
 40
0.0
  9
$DIMTSZ
 40
0.0
  9
$DIMTOL
 70
     0
  9
$DIMLIM
 70
     0
  9
$DIMTIH
 70
     0
  9
$DIMTOH
 70
     0
  9
$DIMSE1
 70
     0
  9
$DIMSE2
 70
     0
  9
$DIMTAD
 70
     1
  9
$DIMZIN
 70
    11
  9
$DIMBLK
  1
DOT
  9
$DIMASO
 70
     1
  9
$DIMSHO
 70
     1
  9
$DIMPOST
  1
<>
  9
$DIMAPOST
  1
[]
  9
$DIMALT
 70
     0
  9
$DIMALTD
 70
     1
  9
$DIMALTF
 40
1.0
  9
$DIMLFAC
 40
1.0
  9
$DIMTOFL
 70
     0
  9
$DIMTVP
 40
0.0
  9
$DIMTIX
 70
     1
  9
$DIMSOXD
 70
     0
  9
$DIMSAH
 70
     0
  9
$DIMBLK1
  1

  9
$DIMBLK2
  1

  9
$DIMSTYLE
  2
tfrom線あり
  9
$DIMCLRD
 70
     0
  9
$DIMCLRE
 70
     0
  9
$DIMCLRT
 70
     0
  9
$DIMTFAC
 40
1.0
  9
$DIMGAP
 40
5.0
  9
$DIMJUST
 70
     0
  9
$DIMSD1
 70
     0
  9
$DIMSD2
 70
     0
  9
$DIMTOLJ
 70
     1
  9
$DIMTZIN
 70
    11
  9
$DIMALTZ
 70
    11
  9
$DIMALTTZ
 70
    11
  9
$DIMUPT
 70
     0
  9
$DIMDEC
 70
     0
  9
$DIMTDEC
 70
     1
  9
$DIMALTU
 70
     2
  9
$DIMALTTD
 70
     2
  9
$DIMTXSTY
  7
ＭＳ ゴシック
  9
$DIMAUNIT
 70
     0
  9
$DIMADEC
 70
     2
  9
$DIMALTRND
 40
0.0
  9
$DIMAZIN
 70
     0
  9
$DIMDSEP
 70
    46
  9
$DIMATFIT
 70
     0
  9
$DIMFRAC
 70
     2
  9
$DIMLDRBLK
  1
DOT
  9
$DIMLUNIT
 70
     2
  9
$DIMLWD
 70
    -2
  9
$DIMLWE
 70
    -2
  9
$DIMTMOVE
 70
     0
  9
$DIMFXL
 40
1.0
  9
$DIMFXLON
 70
     0
  9
$DIMJOGANG
 40
0.7853981633974483
  9
$DIMTFILL
 70
     0
  9
$DIMTFILLCLR
 70
     0
  9
$DIMARCSYM
 70
     0
  9
$DIMLTYPE
  6

  9
$DIMLTEX1
  6

  9
$DIMLTEX2
  6

  9
$LUNITS
 70
     2
  9
$LUPREC
 70
     0
  9
$SKETCHINC
 40
0.1
  9
$FILLETRAD
 40
0.0
  9
$AUNITS
 70
     0
  9
$AUPREC
 70
     0
  9
$MENU
  1
acad
  9
$ELEVATION
 40
0.0
  9
$PELEVATION
 40
0.0
  9
$THICKNESS
 40
0.0
  9
$LIMCHECK
 70
     0
  9
$CHAMFERA
 40
0.0
  9
$CHAMFERB
 40
0.0
  9
$CHAMFERC
 40
0.0
  9
$CHAMFERD
 40
0.0
  9
$SKPOLY
 70
     0
  9
$TDCREATE
 40
2447893.375
  9
$TDUCREATE
 40
0.0
  9
$TDUPDATE
 40
2457347.559275891
  9
$TDUUPDATE
 40
2457347.184275891
  9
$TDINDWG
 40
0.1247752315
  9
$TDUSRTIMER
 40
2457347.18406507
  9
$USRTIMER
 70
     1
  9
$ANGBASE
 50
0.0
  9
$ANGDIR
 70
     0
  9
$PDMODE
 70
     1
  9
$PDSIZE
 40
-2.0
  9
$PLINEWID
 40
0.0
  9
$SPLFRAME
 70
     0
  9
$SPLINETYPE
 70
     6
  9
$SPLINESEGS
 70
     8
  9
$HANDSEED
  5
1BF9
  9
$SURFTAB1
 70
     6
  9
$SURFTAB2
 70
     6
  9
$SURFTYPE
 70
     6
  9
$SURFU
 70
     6
  9
$SURFV
 70
     6
  9
$UCSBASE
  2

  9
$UCSNAME
  2

  9
$UCSORG
 10
0.0
 20
0.0
 30
0.0
  9
$UCSXDIR
 10
1.0
 20
0.0
 30
0.0
  9
$UCSYDIR
 10
0.0
 20
1.0
 30
0.0
  9
$UCSORTHOREF
  2

  9
$UCSORTHOVIEW
 70
     0
  9
$UCSORGTOP
 10
0.0
 20
0.0
 30
0.0
  9
$UCSORGBOTTOM
 10
0.0
 20
0.0
 30
0.0
  9
$UCSORGLEFT
 10
0.0
 20
0.0
 30
0.0
  9
$UCSORGRIGHT
 10
0.0
 20
0.0
 30
0.0
  9
$UCSORGFRONT
 10
0.0
 20
0.0
 30
0.0
  9
$UCSORGBACK
 10
0.0
 20
0.0
 30
0.0
  9
$PUCSBASE
  2

  9
$PUCSNAME
  2

  9
$PUCSORG
 10
0.0
 20
0.0
 30
0.0
  9
$PUCSXDIR
 10
1.0
 20
0.0
 30
0.0
  9
$PUCSYDIR
 10
0.0
 20
1.0
 30
0.0
  9
$PUCSORTHOREF
  2

  9
$PUCSORTHOVIEW
 70
     0
  9
$PUCSORGTOP
 10
0.0
 20
0.0
 30
0.0
  9
$PUCSORGBOTTOM
 10
0.0
 20
0.0
 30
0.0
  9
$PUCSORGLEFT
 10
0.0
 20
0.0
 30
0.0
  9
$PUCSORGRIGHT
 10
0.0
 20
0.0
 30
0.0
  9
$PUCSORGFRONT
 10
0.0
 20
0.0
 30
0.0
  9
$PUCSORGBACK
 10
0.0
 20
0.0
 30
0.0
  9
$USERI1
 70
     0
  9
$USERI2
 70
     0
  9
$USERI3
 70
     0
  9
$USERI4
 70
     0
  9
$USERI5
 70
     0
  9
$USERR1
 40
0.0
  9
$USERR2
 40
0.0
  9
$USERR3
 40
0.0
  9
$USERR4
 40
0.0
  9
$USERR5
 40
0.0
  9
$WORLDVIEW
 70
     1
  9
$SHADEDGE
 70
     3
  9
$SHADEDIF
 70
    70
  9
$TILEMODE
 70
     1
  9
$MAXACTVP
 70
    64
  9
$PINSBASE
 10
0.0
 20
0.0
 30
0.0
  9
$PLIMCHECK
 70
     0
  9
$PEXTMIN
 10
0.0
 20
0.0
 30
0.0
  9
$PEXTMAX
 10
0.0
 20
0.0
 30
0.0
  9
$PLIMMIN
 10
-95.87226993865028
 20
-25.69999999999999
  9
$PLIMMAX
 10
201.1277300613497
 20
184.3
  9
$UNITMODE
 70
     0
  9
$VISRETAIN
 70
     0
  9
$PLINEGEN
 70
     1
  9
$PSLTSCALE
 70
     0
  9
$TREEDEPTH
 70
  3020
  9
$CMLSTYLE
  2
Standard
  9
$CMLJUST
 70
     0
  9
$CMLSCALE
 40
1.0
  9
$PROXYGRAPHICS
 70
     0
  9
$MEASUREMENT
 70
     1
  9
$CELWEIGHT
370
    -1
  9
$ENDCAPS
280
     0
  9
$JOINSTYLE
280
     0
  9
$LWDISPLAY
290
     1
  9
$INSUNITS
 70
     4
  9
$HYPERLINKBASE
  1

  9
$STYLESHEET
  1

  9
$XEDIT
290
     1
  9
$CEPSNTYPE
380
     0
  9
$PSTYLEMODE
290
     1
  9
$FINGERPRINTGUID
  2

  9
$VERSIONGUID
  2

  9
$EXTNAMES
290
     1
  9
$PSVPSCALE
 40
0.0
  9
$OLESTARTUP
290
     0
  9
$SORTENTS
280
   127
  9
$INDEXCTL
280
     0
  9
$HIDETEXT
280
     1
  9
$XCLIPFRAME
290
     0
  9
$HALOGAP
280
     0
  9
$OBSCOLOR
 70
   257
  9
$OBSLTYPE
280
     0
  9
$INTERSECTIONDISPLAY
280
     0
  9
$INTERSECTIONCOLOR
 70
   257
  9
$DIMASSOC
280
     2
  9
$PROJECTNAME
  1

  9
$CAMERADISPLAY
290
     0
  9
$LENSLENGTH
 40
50.0
  9
$CAMERAHEIGHT
 40
0.0
  9
$STEPSPERSEC
 40
2.0
  9
$STEPSIZE
 40
6.0
  9
$3DDWFPREC
 40
2.0
  9
$PSOLWIDTH
 40
0.25
  9
$PSOLHEIGHT
 40
4.0
  9
$LOFTANG1
 40
1.570796326794897
  9
$LOFTANG2
 40
1.570796326794897
  9
$LOFTMAG1
 40
0.0
  9
$LOFTMAG2
 40
0.0
  9
$LOFTPARAM
 70
     7
  9
$LOFTNORMALS
280
     1
  9
$LATITUDE
 40
37.795
  9
$LONGITUDE
 40
-122.394
  9
$NORTHDIRECTION
 40
0.0
  9
$TIMEZONE
 70
 -8000
  9
$LIGHTGLYPHDISPLAY
280
     1
  9
$TILEMODELIGHTSYNCH
280
     1
  9
$SOLIDHIST
280
     1
  9
$SHOWHIST
280
     1
  9
$DWFFRAME
280
     2
  9
$DGNFRAME
280
     2
  9
$REALWORLDSCALE
290
     1
  9
$INTERFERECOLOR
 62
   256
  9
$CSHADOW
280
     0
  9
$SHADOWPLANELOCATION
 40
0.0
  0
ENDSEC
  0
SECTION
  2
CLASSES
  0
CLASS
  1
LWPOLYLINE
  2
AcDbPolyline
  3
ObjectDBX Classes
 90
        0
 91
        1
280
     0
281
     1
  0
CLASS
  1
IMAGE
  2
AcDbRasterImage
  3
ISM
 90
      127
 91
        6
280
     0
281
     1
  0
CLASS
  1
OLE2FRAME
  2
AcDbOle2Frame
  3
ObjectDBX Classes
 90
        0
 91
        1
280
     0
281
     1
  0
CLASS
  1
HATCH
  2
AcDbHatch
  3
ObjectDBX Classes
 90
        0
 91
        1
280
     0
281
     1
  0
CLASS
  1
DICTIONARYVAR
  2
AcDbDictionaryVar
  3
ObjectDBX Classes
 90
        0
 91
        5
280
     0
281
     0
  0
CLASS
  1
RASTERVARIABLES
  2
AcDbRasterVariables
  3
ISM
 90
        0
 91
        7
280
     0
281
     0
  0
CLASS
  1
IMAGEDEF
  2
AcDbRasterImageDef
  3
ISM
 90
        0
 91
        5
280
     0
281
     0
  0
CLASS
  1
IMAGEDEF_REACTOR
  2
AcDbRasterImageDefReactor
  3
ISM
 90
        1
 91
        5
280
     0
281
     0
  0
CLASS
  1
IDBUFFER
  2
AcDbIdBuffer
  3
ObjectDBX Classes
 90
        0
 91
        5
280
     0
281
     0
  0
CLASS
  1
SPATIAL_FILTER
  2
AcDbSpatialFilter
  3
ObjectDBX Classes
 90
        0
 91
        5
280
     0
281
     0
  0
CLASS
  1
XRECORD
  2
AcDbXrecord
  3
ObjectDBX Classes
 90
        0
 91
        1
280
     0
281
     0
  0
CLASS
  1
SORTENTSTABLE
  2
AcDbSortentsTable
  3
ObjectDBX Classes
 90
        0
 91
        5
280
     0
281
     0
  0
CLASS
  1
LAYER_INDEX
  2
AcDbLayerIndex
  3
ObjectDBX Classes
 90
        0
 91
        5
280
     0
281
     0
  0
CLASS
  1
SPATIAL_INDEX
  2
AcDbSpatialIndex
  3
AutoCAD 2000
 90
        0
 91
        5
280
     0
281
     0
  0
CLASS
  1
OBJECT_PTR
  2
CAseDLPNTableRecord
  3
ASE-LPNTableRecord
 90
        1
 91
        5
280
     0
281
     0
  0
CLASS
  1
LAYOUT
  2
AcDbLayout
  3
ObjectDBX Classes
 90
        0
 91
        1
280
     0
281
     0
  0
CLASS
  1
PLOTSETTINGS
  2
AcDbPlotSettings
  3
ObjectDBX Classes
 90
        0
 91
        5
280
     0
281
     0
  0
CLASS
  1
ACDBDICTIONARYWDFLT
  2
AcDbDictionaryWithDefault
  3
ObjectDBX Classes
 90
        0
 91
        7
280
     0
281
     0
  0
CLASS
  1
ACDBPLACEHOLDER
  2
AcDbPlaceHolder
  3
ObjectDBX Classes
 90
        0
 91
        1
280
     0
281
     0
  0
CLASS
  1
SCALE
  2
AcDbScale
  3
ObjectDBX Classes
 90
     1153
 91
        7
280
     0
281
     0
  0
CLASS
  1
MATERIAL
  2
AcDbMaterial
  3
ObjectDBX Classes
 90
     1153
 91
        7
280
     0
281
     0
  0
CLASS
  1
VISUALSTYLE
  2
AcDbVisualStyle
  3
ObjectDBX Classes
 90
     4095
 91
        7
280
     0
281
     0
  0
CLASS
  1
TABLESTYLE
  2
AcDbTableStyle
  3
ObjectDBX Classes
 90
     4095
 91
        7
280
     0
281
     0
  0
CLASS
  1
DIMASSOC
  2
AcDbDimAssoc
  3
"AcDbDimAssoc|Product Desc:     AcDim ARX App For Dimension|Company:          Autodesk, Inc.|WEB Address:      www.autodesk.com"
 90
        0
 91
        5
280
     0
281
     0
  0
CLASS
  1
CELLSTYLEMAP
  2
AcDbCellStyleMap
  3
ObjectDBX Classes
 90
     1152
 91
        5
280
     0
281
     0
  0
CLASS
  1
SUN
  2
AcDbSun
  3
SCENEOE
 90
     1153
 91
        7
280
     0
281
     0
  0
ENDSEC
  0
SECTION
  2
TABLES
  0
TABLE
  2
VPORT
  5
7
330
0
100
AcDbSymbolTable
 70
     1
  0
VPORT
  5
15
330
7
100
AcDbSymbolTableRecord
100
AcDbViewportTableRecord
  2
*ACTIVE
 70
     0
 10
0.0
 20
0.0
 11
1.0
 21
1.0
 12
300.4605645803982
 22
222.4951676529337
 13
0.0
 23
0.0
 14
1.0
 24
1.0
 15
0.0
 25
0.0
 16
0.0
 26
0.0
 36
1.0
 17
-91.02013567090026
 27
73.59871453016603
 37
-46.86809886248109
 40
578.0043231370985
 41
1.934969325153374
 42
50.0
 43
0.0
 44
0.0
 50
0.0
 51
0.0
 71
    16
 72
  2000
 73
     1
 74
     1
 75
     0
 76
     0
 77
     0
 78
     0
281
     0
 65
     1
110
0.0
120
0.0
130
0.0
111
1.0
121
0.0
131
0.0
112
0.0
122
1.0
132
0.0
 79
     0
146
0.0
348
26C
 60
     3
 61
     5
292
     1
282
     1
141
0.0
142
0.0
 63
   256
361
904
  0
ENDTAB
  0
TABLE
  2
LTYPE
  5
4
330
0
100
AcDbSymbolTable
 70
    22
  0
LTYPE
  5
11
330
4
100
AcDbSymbolTableRecord
100
AcDbLinetypeTableRecord
  2
ByBlock
 70
     0
  3

 72
    65
 73
     0
 40
0.0
  0
LTYPE
  5
12
330
4
100
AcDbSymbolTableRecord
100
AcDbLinetypeTableRecord
  2
ByLayer
 70
     0
  3

 72
    65
 73
     0
 40
0.0
  0
LTYPE
  5
13
330
4
100
AcDbSymbolTableRecord
100
AcDbLinetypeTableRecord
  2
Continuous
 70
     0
  3
Solid line
 72
    65
 73
     0
 40
0.0
  0
LTYPE
  5
3A
330
4
100
AcDbSymbolTableRecord
100
AcDbLinetypeTableRecord
  2
STYLE_01
 70
     0
  3

 72
    65
 73
     2
 40
0.2460629921259842
 49
0.1230314960629921
 74
     0
 49
-0.1230314960629921
 74
     0
  0
LTYPE
  5
3B
330
4
100
AcDbSymbolTableRecord
100
AcDbLinetypeTableRecord
  2
STYLE_02
 70
     0
  3

 72
    65
 73
     2
 40
0.6944250000000001
 49
0.48607
 74
     0
 49
-0.2083550000000001
 74
     0
  0
LTYPE
  5
3C
330
4
100
AcDbSymbolTableRecord
100
AcDbLinetypeTableRecord
  2
STYLE_03
 70
     0
  3

 72
    65
 73
     2
 40
1.25
 49
1.04164
 74
     0
 49
-0.2083599999999999
 74
     0
  0
LTYPE
  5
3D
330
4
100
AcDbSymbolTableRecord
100
AcDbLinetypeTableRecord
  2
STYLE_04
 70
     0
  3

 72
    65
 73
     2
 40
1.52771
 49
1.319425
 74
     0
 49
-0.208285
 74
     0
  0
LTYPE
  5
3E
330
4
100
AcDbSymbolTableRecord
100
AcDbLinetypeTableRecord
  2
STYLE_05
 70
     0
  3

 72
    65
 73
     2
 40
0.20828
 49
0.069425
 74
     0
 49
-0.138855
 74
     0
  0
LTYPE
  5
3F
330
4
100
AcDbSymbolTableRecord
100
AcDbLinetypeTableRecord
  2
STYLE_06
 70
     0
  3

 72
    65
 73
     4
 40
1.04164
 49
0.625
 74
     0
 49
-0.20828
 74
     0
 49
0.06943
 74
     0
 49
-0.13893
 74
     0
  0
LTYPE
  5
40
330
4
100
AcDbSymbolTableRecord
100
AcDbLinetypeTableRecord
  2
STYLE_07
 70
     0
  3

 72
    65
 73
     6
 40
1.875
 49
0.625
 74
     0
 49
-0.20828
 74
     0
 49
0.6250000000000001
 74
     0
 49
-0.2083599999999999
 74
     0
 49
0.06943
 74
     0
 49
-0.1389299999999999
 74
     0
  0
LTYPE
  5
41
330
4
100
AcDbSymbolTableRecord
100
AcDbLinetypeTableRecord
  2
STYLE_08
 70
     0
  3

 72
    65
 73
     6
 40
1.25
 49
0.625
 74
     0
 49
-0.20828
 74
     0
 49
0.06943
 74
     0
 49
-0.13893
 74
     0
 49
0.0694299999999999
 74
     0
 49
-0.13893
 74
     0
  0
LTYPE
  5
42
330
4
100
AcDbSymbolTableRecord
100
AcDbLinetypeTableRecord
  2
STYLE_09
 70
     0
  3

 72
    65
 73
     4
 40
5.0
 49
3.75
 74
     0
 49
-0.2777849999999998
 74
     0
 49
0.6944300000000003
 74
     0
 49
-0.2777849999999998
 74
     0
  0
LTYPE
  5
43
330
4
100
AcDbSymbolTableRecord
100
AcDbLinetypeTableRecord
  2
STYLE_10
 70
     0
  3

 72
    65
 73
     6
 40
5.9375
 49
3.75
 74
     0
 49
-0.2777849999999998
 74
     0
 49
0.6944300000000003
 74
     0
 49
-0.2777849999999998
 74
     0
 49
0.625
 74
     0
 49
-0.3125
 74
     0
  0
LTYPE
  5
44
330
4
100
AcDbSymbolTableRecord
100
AcDbLinetypeTableRecord
  2
STYLE_11
 70
     0
  3

 72
    65
 73
     2
 40
0.0694444881889764
 49
0.0347222440944882
 74
     0
 49
-0.0347222440944882
 74
     0
  0
LTYPE
  5
45
330
4
100
AcDbSymbolTableRecord
100
AcDbLinetypeTableRecord
  2
STYLE_12
 70
     0
  3

 72
    65
 73
     2
 40
0.3937007874015748
 49
0.1968503937007874
 74
     0
 49
-0.1968503937007874
 74
     0
  0
LTYPE
  5
46
330
4
100
AcDbSymbolTableRecord
100
AcDbLinetypeTableRecord
  2
STYLE_13
 70
     0
  3

 72
    65
 73
     2
 40
0.5905511811023622
 49
0.2952755905511811
 74
     0
 49
-0.2952755905511811
 74
     0
  0
LTYPE
  5
47
330
4
100
AcDbSymbolTableRecord
100
AcDbLinetypeTableRecord
  2
STYLE_14
 70
     0
  3

 72
    65
 73
     2
 40
1.968503937007874
 49
0.9842519685039369
 74
     0
 49
-0.9842519685039369
 74
     0
  0
LTYPE
  5
48
330
4
100
AcDbSymbolTableRecord
100
AcDbLinetypeTableRecord
  2
STYLE_15
 70
     0
  3

 72
    65
 73
     2
 40
0.1875
 49
0.125
 74
     0
 49
-0.0625
 74
     0
  0
LTYPE
  5
49
330
4
100
AcDbSymbolTableRecord
100
AcDbLinetypeTableRecord
  2
STYLE_16
 70
     0
  3

 72
    65
 73
     2
 40
0.3690944881889764
 49
0.2460629921259843
 74
     0
 49
-0.1230314960629922
 74
     0
  0
LTYPE
  5
908
330
4
100
AcDbSymbolTableRecord
100
AcDbLinetypeTableRecord
  2
AI-LINETYPE-1
 70
     0
  3
Adobe Illustrator Linetype No. 1
 72
    65
 73
     4
 40
2.116668062491661
 49
1.058334031245831
 74
     0
 49
-0.3527780104152769
 74
     0
 49
0.3527780104152769
 74
     0
 49
-0.3527780104152769
 74
     0
  0
LTYPE
  5
909
330
4
100
AcDbSymbolTableRecord
100
AcDbLinetypeTableRecord
  2
AI-LINETYPE-2
 70
     0
  3
Adobe Illustrator Linetype No. 2
 72
    65
 73
     4
 40
2.116668062491661
 49
1.058334031245831
 74
     0
 49
-0.3527780104152769
 74
     0
 49
0.3527780104152769
 74
     0
 49
-0.3527780104152769
 74
     0
  0
LTYPE
  5
E70
330
4
100
AcDbSymbolTableRecord
100
AcDbLinetypeTableRecord
  2
CENTER
 70
     0
  3
____ _ ____ _ ____ _ ____ _ ____ _ ____ _ ____
 72
    65
 73
     4
 40
2.0
 49
1.25
 74
     0
 49
-0.25
 74
     0
 49
0.25
 74
     0
 49
-0.25
 74
     0
  0
LTYPE
  5
1959
330
4
100
AcDbSymbolTableRecord
100
AcDbLinetypeTableRecord
  2
HIDDEN2
 70
     0
  3
_ _ _ _ _ _ _ _ _ _ _ _ _ _ _ _ _ _ _ _ _ _ _ _
 72
    65
 73
     2
 40
0.1875
 49
0.125
 74
     4
 75
     0
340
0
 46
0.0
 50
0.0
 44
0.0
 45
0.0
 49
-0.0625
 74
     4
 75
     0
340
0
 46
0.0
 50
0.0
 44
0.0
 45
0.0
  0
LTYPE
  5
195A
330
4
100
AcDbSymbolTableRecord
100
AcDbLinetypeTableRecord
  2
CENTER2
 70
     0
  3
___ _ ___ _ ___ _ ___ _ ___ _ ___ _ ___ _ ___ _
 72
    65
 73
     4
 40
1.125
 49
0.75
 74
     4
 75
     0
340
0
 46
0.0
 50
0.0
 44
0.0
 45
0.0
 49
-0.125
 74
     4
 75
     0
340
0
 46
0.0
 50
0.0
 44
0.0
 45
0.0
 49
0.125
 74
     4
 75
     0
340
0
 46
0.0
 50
0.0
 44
0.0
 45
0.0
 49
-0.125
 74
     4
 75
     0
340
0
 46
0.0
 50
0.0
 44
0.0
 45
0.0
  0
ENDTAB
  0
TABLE
  2
LAYER
  5
2
102
{ACAD_XDICTIONARY
360
2E1
102
}
330
0
100
AcDbSymbolTable
 70
     9
  0
LAYER
  5
14
330
2
100
AcDbSymbolTableRecord
100
AcDbLayerTableRecord
  2
0
 70
     0
 62
     7
  6
Continuous
370
    -3
390
1D
347
266
  0
LAYER
  5
4B
330
2
100
AcDbSymbolTableRecord
100
AcDbLayerTableRecord
  2
TEMPLATE
 70
     0
 62
     7
  6
Continuous
370
    20
390
1D
347
266
  0
LAYER
  5
4C
330
2
100
AcDbSymbolTableRecord
100
AcDbLayerTableRecord
  2
DIM
 70
     0
 62
     7
  6
Continuous
370
    13
390
1D
347
266
  0
LAYER
  5
4D
330
2
100
AcDbSymbolTableRecord
100
AcDbLayerTableRecord
  2
MODEL
 70
     0
 62
     7
  6
Continuous
370
    20
390
1D
347
266
  0
LAYER
  5
667
330
2
100
AcDbSymbolTableRecord
100
AcDbLayerTableRecord
  2
LOGO
 70
     0
 62
     7
  6
Continuous
370
    -3
390
1D
347
266
  0
LAYER
  5
88C
330
2
100
AcDbSymbolTableRecord
100
AcDbLayerTableRecord
  2
HIDDEN
 70
     0
 62
     7
  6
STYLE_12
370
    20
390
1D
347
266
1001
AcAecLayerStandard
1000

1000

  0
LAYER
  5
DDE
330
2
100
AcDbSymbolTableRecord
100
AcDbLayerTableRecord
  2
Defpoints
 70
     0
 62
     7
  6
Continuous
290
     0
370
    -3
390
1D
347
266
  0
LAYER
  5
1956
330
2
100
AcDbSymbolTableRecord
100
AcDbLayerTableRecord
  2
Default
 70
     0
 62
     7
  6
Continuous
370
    -3
390
1D
347
266
  0
LAYER
  5
1958
330
2
100
AcDbSymbolTableRecord
100
AcDbLayerTableRecord
  2
DV1_デフォルト
 70
     0
 62
     7
  6
Continuous
370
    -3
390
1D
347
266
  0
ENDTAB
  0
TABLE
  2
STYLE
  5
3
330
0
100
AcDbSymbolTable
 70
     6
  0
STYLE
  5
17
330
3
100
AcDbSymbolTableRecord
100
AcDbTextStyleTableRecord
  2
Standard
 70
     0
 40
0.0
 41
1.0
 50
0.0
 71
     0
 42
2.5
  3
txt
  4
BIGFONT.SHX
  0
STYLE
  5
39
330
3
100
AcDbSymbolTableRecord
100
AcDbTextStyleTableRecord
  2
ＭＳ ゴシック
 70
     0
 40
0.0
 41
1.0
 50
0.0
 71
     0
 42
2.5
  3
msgothic.ttc
  4
ＭＳ ゴシック
1001
ACAD
1000
ＭＳ ゴシック
1071
        0
  0
STYLE
  5
384
330
3
100
AcDbSymbolTableRecord
100
AcDbTextStyleTableRecord
  2
ARIAL
 70
     0
 40
0.0
 41
1.0
 50
0.0
 71
     0
 42
12.0
  3
ARIAL.TTF
  4

1001
ACAD
1000
Arial
1071
       34
  0
STYLE
  5
385
330
3
100
AcDbSymbolTableRecord
100
AcDbTextStyleTableRecord
  2
ROMANS
 70
     0
 40
0.0
 41
1.0
 50
0.0
 71
     0
 42
5.0
  3
romans.shx
  4

  0
STYLE
  5
195D
330
3
100
AcDbSymbolTableRecord
100
AcDbTextStyleTableRecord
  2
SEACAD_arial_ttf
 70
     0
 40
0.2
 41
1.0
 50
0.0
 71
     0
 42
2.5
  3
arial.ttf
  4

  0
STYLE
  5
195E
330
3
100
AcDbSymbolTableRecord
100
AcDbTextStyleTableRecord
  2
SEACAD_semeca1_ttf
 70
     0
 40
0.2
 41
1.0
 50
0.0
 71
     0
 42
2.5
  3
semeca1.ttf
  4

  0
ENDTAB
  0
TABLE
  2
VIEW
  5
5
330
0
100
AcDbSymbolTable
 70
     0
  0
ENDTAB
  0
TABLE
  2
UCS
  5
6
330
0
100
AcDbSymbolTable
 70
     0
  0
ENDTAB
  0
TABLE
  2
APPID
  5
8
330
0
100
AcDbSymbolTable
 70
     2
  0
APPID
  5
16
330
8
100
AcDbSymbolTableRecord
100
AcDbRegAppTableRecord
  2
ACAD
 70
     0
  0
APPID
  5
7AC
330
8
100
AcDbSymbolTableRecord
100
AcDbRegAppTableRecord
  2
AcAecLayerStandard
 70
     0
  0
ENDTAB
  0
TABLE
  2
DIMSTYLE
  5
9
330
0
100
AcDbSymbolTable
 70
     5
100
AcDbDimStyleTable
  0
DIMSTYLE
105
18
330
9
100
AcDbSymbolTableRecord
100
AcDbDimStyleTableRecord
  2
Standard
 70
     0
178
     0
340
17
  0
DIMSTYLE
105
56
330
9
100
AcDbSymbolTableRecord
100
AcDbDimStyleTableRecord
  2
tform線あり
 70
     0
  3
<>
  4
[]
 41
9.999389648437498
 42
25.0
 43
0.9999999999999999
 44
0.0
 73
     0
 74
     0
 77
     1
 78
    11
140
24.4326171875
141
0.0
143
1.0
146
0.8
147
0.4999999999999999
171
     1
172
     1
174
     1
178
     0
179
     2
271
     1
272
     1
276
     2
284
    11
285
    11
286
    11
289
     0
340
39
341
4E
342
4E
  0
DIMSTYLE
105
57
330
9
100
AcDbSymbolTableRecord
100
AcDbDimStyleTableRecord
  2
tfrom線あり
 70
     0
  3
<>
  4
[]
 41
2.0
 42
5.0
 43
0.0
 44
0.0
 73
     0
 74
     0
 77
     1
 78
    11
140
6.0
141
0.0
143
1.0
147
5.0
171
     1
174
     1
178
     0
179
     2
271
     0
272
     1
276
     2
284
    11
285
    11
286
    11
289
     0
340
39
341
4E
342
4E
  0
DIMSTYLE
105
5C
330
9
100
AcDbSymbolTableRecord
100
AcDbDimStyleTableRecord
  2
JIS
 70
     0
  3
<>
  4
[]
 41
9.0
 42
0.0
 43
6.99999999999994
 44
19.9999999999962
 73
     0
 74
     0
 77
     1
 78
    11
140
24.4326171875
141
0.0
143
1.0
147
10.0
171
     1
174
     1
178
     0
179
     2
271
     1
272
     1
276
     2
284
    11
285
    11
286
    11
289
     0
340
39
341
4E
342
4E
  0
DIMSTYLE
105
383
330
9
100
AcDbSymbolTableRecord
100
AcDbDimStyleTableRecord
  2
ARIAL
 70
     0
 41
10.0
 42
3.0
 43
0.5
 44
3.0
 73
     0
 74
     0
 77
     1
 78
     8
140
12.0
141
0.0
146
0.5
147
4.0
171
     1
172
     1
178
     0
271
     1
289
     0
340
384
  0
ENDTAB
  0
TABLE
  2
BLOCK_RECORD
  5
1
330
0
100
AcDbSymbolTable
 70
    23
  0
BLOCK_RECORD
  5
A
330
1
100
AcDbSymbolTableRecord
100
AcDbBlockTableRecord
  2
*MODEL_SPACE
340
20
 70
     0
280
     1
281
     0
  0
BLOCK_RECORD
  5
B
330
1
100
AcDbSymbolTableRecord
100
AcDbBlockTableRecord
  2
*PAPER_SPACE
340
21
 70
     0
280
     1
281
     0
  0
BLOCK_RECORD
  5
4E
330
1
100
AcDbSymbolTableRecord
100
AcDbBlockTableRecord
  2
_DOT
340
0
102
{BLKREFS
331
DE8
331
DE9
331
E01
331
E02
331
E10
331
E11
331
E35
331
E36
331
E42
331
E43
331
E51
331
E52
331
1360
331
1361
331
136F
331
1370
331
137E
331
137F
331
1943
331
1944
331
1A48
331
1A49
102
}
 70
     0
280
     1
281
     0
  0
BLOCK_RECORD
  5
68A
330
1
100
AcDbSymbolTableRecord
100
AcDbBlockTableRecord
  2
名称未設定-1
340
0
102
{BLKREFS
331
6B5
102
}
 70
     1
280
     1
281
     0
  0
BLOCK_RECORD
  5
68D
330
1
100
AcDbSymbolTableRecord
100
AcDbBlockTableRecord
  2
block 2
340
0
102
{BLKREFS
331
68C
102
}
 70
     0
280
     1
281
     0
  0
BLOCK_RECORD
  5
690
330
1
100
AcDbSymbolTableRecord
100
AcDbBlockTableRecord
  2
block 3
340
0
102
{BLKREFS
331
68F
102
}
 70
     0
280
     1
281
     0
  0
BLOCK_RECORD
  5
693
330
1
100
AcDbSymbolTableRecord
100
AcDbBlockTableRecord
  2
block 4
340
0
102
{BLKREFS
331
692
102
}
 70
     0
280
     1
281
     0
  0
BLOCK_RECORD
  5
6A2
330
1
100
AcDbSymbolTableRecord
100
AcDbBlockTableRecord
  2
block 5
340
0
102
{BLKREFS
331
6A1
102
}
 70
     0
280
     1
281
     0
  0
BLOCK_RECORD
  5
DE2
330
1
100
AcDbSymbolTableRecord
100
AcDbBlockTableRecord
  2
*D6
340
0
 70
     0
280
     1
281
     0
  0
BLOCK_RECORD
  5
DFB
330
1
100
AcDbSymbolTableRecord
100
AcDbBlockTableRecord
  2
*D7
340
0
 70
     0
280
     1
281
     0
  0
BLOCK_RECORD
  5
E0A
330
1
100
AcDbSymbolTableRecord
100
AcDbBlockTableRecord
  2
*D8
340
0
 70
     0
280
     1
281
     0
  0
BLOCK_RECORD
  5
E2F
330
1
100
AcDbSymbolTableRecord
100
AcDbBlockTableRecord
  2
*D9
340
0
 70
     0
280
     1
281
     0
  0
BLOCK_RECORD
  5
E3C
330
1
100
AcDbSymbolTableRecord
100
AcDbBlockTableRecord
  2
*D10
340
0
 70
     0
280
     1
281
     0
  0
BLOCK_RECORD
  5
E4B
330
1
100
AcDbSymbolTableRecord
100
AcDbBlockTableRecord
  2
*D11
340
0
 70
     0
280
     1
281
     0
  0
BLOCK_RECORD
  5
1359
330
1
100
AcDbSymbolTableRecord
100
AcDbBlockTableRecord
  2
*D12
340
0
 70
     0
280
     1
281
     0
  0
BLOCK_RECORD
  5
1369
330
1
100
AcDbSymbolTableRecord
100
AcDbBlockTableRecord
  2
*D13
340
0
 70
     0
280
     1
281
     0
  0
BLOCK_RECORD
  5
1378
330
1
100
AcDbSymbolTableRecord
100
AcDbBlockTableRecord
  2
*D14
340
0
 70
     0
280
     1
281
     0
  0
BLOCK_RECORD
  5
193D
330
1
100
AcDbSymbolTableRecord
100
AcDbBlockTableRecord
  2
*D15
340
0
 70
     0
280
     1
281
     0
  0
BLOCK_RECORD
  5
197D
330
1
100
AcDbSymbolTableRecord
100
AcDbBlockTableRecord
  2
SEANNOT_GROUP
340
0
102
{BLKREFS
331
1A39
102
}
 70
     0
280
     1
281
     0
  0
BLOCK_RECORD
  5
1986
330
1
100
AcDbSymbolTableRecord
100
AcDbBlockTableRecord
  2
SE
340
0
102
{BLKREFS
331
1A3A
102
}
 70
     0
280
     1
281
     0
  0
BLOCK_RECORD
  5
1A0F
330
1
100
AcDbSymbolTableRecord
100
AcDbBlockTableRecord
  2
GDimGGroup
340
0
102
{BLKREFS
331
1A3B
102
}
 70
     0
280
     1
281
     0
  0
BLOCK_RECORD
  5
1A1C
330
1
100
AcDbSymbolTableRecord
100
AcDbBlockTableRecord
  2
GDimGGroup1
340
0
102
{BLKREFS
331
1A3C
102
}
 70
     0
280
     1
281
     0
  0
BLOCK_RECORD
  5
1A2A
330
1
100
AcDbSymbolTableRecord
100
AcDbBlockTableRecord
  2
GDimGGroup2
340
0
102
{BLKREFS
331
1A3D
102
}
 70
     0
280
     1
281
     0
  0
BLOCK_RECORD
  5
1A41
330
1
100
AcDbSymbolTableRecord
100
AcDbBlockTableRecord
  2
*D21
340
0
 70
     0
280
     1
281
     0
  0
ENDTAB
  0
ENDSEC
  0
SECTION
  2
BLOCKS
  0
BLOCK
  5
D
330
A
100
AcDbEntity
  8
0
390
1D
100
AcDbBlockBegin
  2
*MODEL_SPACE
 70
     0
 10
0.0
 20
0.0
 30
0.0
  3
*MODEL_SPACE
  1
*MODEL_SPACE
  0
ENDBLK
  5
E
330
A
100
AcDbEntity
  8
0
390
1D
100
AcDbBlockEnd
  0
BLOCK
  5
F
330
B
100
AcDbEntity
 67
     1
  8
0
390
1D
100
AcDbBlockBegin
  2
*PAPER_SPACE
 70
     0
 10
0.0
 20
0.0
 30
0.0
  3
*PAPER_SPACE
  1
*PAPER_SPACE
  0
ENDBLK
  5
10
330
B
100
AcDbEntity
 67
     1
  8
0
390
1D
100
AcDbBlockEnd
  0
BLOCK
  5
E24
330
4E
100
AcDbEntity
  8
0
390
1D
100
AcDbBlockBegin
  2
_DOT
 70
     0
 10
0.0
 20
0.0
 30
0.0
  3
_DOT
  1
_DOT
  0
POLYLINE
  5
E26
330
4E
100
AcDbEntity
  8
0
  6
ByBlock
 62
     0
370
    -2
390
1D
100
AcDb2dPolyline
 66
     1
 10
0.0
 20
0.0
 30
0.0
 70
     1
 40
0.5
 41
0.5
  0
VERTEX
  5
E27
330
E26
100
AcDbEntity
  8
0
  6
ByBlock
 62
     0
370
    -2
390
1D
100
AcDbVertex
100
AcDb2dVertex
 10
-0.25
 20
0.0
 30
0.0
 42
1.0
  0
VERTEX
  5
E28
330
E26
100
AcDbEntity
  8
0
  6
ByBlock
 62
     0
370
    -2
390
1D
100
AcDbVertex
100
AcDb2dVertex
 10
0.25
 20
0.0
 30
0.0
 42
1.0
  0
SEQEND
  5
E29
330
E26
100
AcDbEntity
  8
0
390
1D
  0
LINE
  5
E2A
330
4E
100
AcDbEntity
  8
0
  6
ByBlock
 62
     0
370
    -2
390
1D
100
AcDbLine
 10
-0.5
 20
0.0
 30
0.0
 11
-1.0
 21
0.0
 31
0.0
  0
ENDBLK
  5
E2B
330
4E
100
AcDbEntity
  8
0
390
1D
100
AcDbBlockEnd
  0
BLOCK
  5
68B
330
68A
100
AcDbEntity
  8
0
100
AcDbBlockBegin
  2
名称未設定-1
 70
     0
 10
0.0
 20
0.0
 30
0.0
  3
名称未設定-1
  1
名称未設定-1
  0
INSERT
  5
68F
330
68A
100
AcDbEntity
  8
LOGO
100
AcDbBlockReference
  2
block 3
 10
0.0
 20
0.0
 30
0.0
  0
ENDBLK
  5
6B1
330
68A
100
AcDbEntity
  8
0
100
AcDbBlockEnd
  0
BLOCK
  5
68E
330
68D
100
AcDbEntity
  8
0
100
AcDbBlockBegin
  2
block 2
 70
     0
 10
0.0
 20
0.0
 30
0.0
  3
block 2
  1
block 2
  0
ENDBLK
  5
6B0
330
68D
100
AcDbEntity
  8
0
100
AcDbBlockEnd
  0
BLOCK
  5
691
330
690
100
AcDbEntity
  8
0
100
AcDbBlockBegin
  2
block 3
 70
     0
 10
0.0
 20
0.0
 30
0.0
  3
block 3
  1
block 3
  0
INSERT
  5
692
330
690
100
AcDbEntity
  8
LOGO
100
AcDbBlockReference
  2
block 4
 10
0.0
 20
0.0
 30
0.0
  0
INSERT
  5
6A1
330
690
100
AcDbEntity
  8
LOGO
100
AcDbBlockReference
  2
block 5
 10
0.0
 20
0.0
 30
0.0
  0
ENDBLK
  5
6AF
330
690
100
AcDbEntity
  8
0
100
AcDbBlockEnd
  0
BLOCK
  5
694
330
693
100
AcDbEntity
  8
0
100
AcDbBlockBegin
  2
block 4
 70
     0
 10
0.0
 20
0.0
 30
0.0
  3
block 4
  1
block 4
  0
POLYLINE
  5
695
330
693
100
AcDbEntity
  8
LOGO
370
     0
100
AcDb2dPolyline
 66
     1
 10
0.0
 20
0.0
 30
0.0
  0
VERTEX
  5
696
330
695
100
AcDbEntity
  8
LOGO
370
     0
100
AcDbVertex
100
AcDb2dVertex
 10
83.79545727667795
 20
167.6444858234922
 30
0.0
  0
VERTEX
  5
697
330
695
100
AcDbEntity
  8
LOGO
370
     0
100
AcDbVertex
100
AcDb2dVertex
 10
83.79545727667795
 20
159.7968976406313
 30
0.0
  0
VERTEX
  5
698
330
695
100
AcDbEntity
  8
LOGO
370
     0
100
AcDbVertex
100
AcDb2dVertex
 10
71.3631329975216
 20
159.7968976406313
 30
0.0
  0
VERTEX
  5
699
330
695
100
AcDbEntity
  8
LOGO
370
     0
100
AcDbVertex
100
AcDb2dVertex
 10
71.3631329975216
 20
127.8027915271048
 30
0.0
  0
VERTEX
  5
69A
330
695
100
AcDbEntity
  8
LOGO
370
     0
100
AcDbVertex
100
AcDb2dVertex
 10
60.43011526263018
 20
127.8027915271048
 30
0.0
  0
VERTEX
  5
69B
330
695
100
AcDbEntity
  8
LOGO
370
     0
100
AcDbVertex
100
AcDb2dVertex
 10
60.43011526263018
 20
159.7968976406313
 30
0.0
  0
VERTEX
  5
69C
330
695
100
AcDbEntity
  8
LOGO
370
     0
100
AcDbVertex
100
AcDb2dVertex
 10
48.21793273020759
 20
159.7968976406313
 30
0.0
  0
VERTEX
  5
69D
330
695
100
AcDbEntity
  8
LOGO
370
     0
100
AcDbVertex
100
AcDb2dVertex
 10
48.21793273020759
 20
167.6444858234922
 30
0.0
  0
VERTEX
  5
69E
330
695
100
AcDbEntity
  8
LOGO
370
     0
100
AcDbVertex
100
AcDb2dVertex
 10
83.79545727667795
 20
167.6444858234922
 30
0.0
  0
SEQEND
  5
69F
330
695
100
AcDbEntity
  8
LOGO
370
     0
  0
HATCH
  5
6A0
330
693
100
AcDbEntity
  8
LOGO
 62
   250
420
  2234388
100
AcDbHatch
 10
0.0
 20
0.0
 30
0.0
210
0.0
220
0.0
230
1.0
  2
SOLID
 70
     1
 71
     0
 91
        1
 92
        1
 93
        8
 72
     1
 10
83.79545727667795
 20
167.6444858234922
 11
83.79545727667795
 21
159.7968976406313
 72
     1
 10
83.79545727667795
 20
159.7968976406313
 11
71.3631329975216
 21
159.7968976406313
 72
     1
 10
71.3631329975216
 20
159.7968976406313
 11
71.3631329975216
 21
127.8027915271048
 72
     1
 10
71.3631329975216
 20
127.8027915271048
 11
60.43011526263018
 21
127.8027915271048
 72
     1
 10
60.43011526263018
 20
127.8027915271048
 11
60.43011526263018
 21
159.7968976406313
 72
     1
 10
60.43011526263018
 20
159.7968976406313
 11
48.21793273020759
 21
159.7968976406313
 72
     1
 10
48.21793273020759
 20
159.7968976406313
 11
48.21793273020759
 21
167.6444858234922
 72
     1
 10
48.21793273020759
 20
167.6444858234922
 11
83.79545727667795
 21
167.6444858234922
 97
        0
 75
     2
 76
     1
 98
        0
  0
ENDBLK
  5
6AE
330
693
100
AcDbEntity
  8
0
100
AcDbBlockEnd
  0
BLOCK
  5
6A3
330
6A2
100
AcDbEntity
  8
0
100
AcDbBlockBegin
  2
block 5
 70
     0
 10
0.0
 20
0.0
 30
0.0
  3
block 5
  1
block 5
  0
SPLINE
  5
6A4
330
6A2
100
AcDbEntity
  8
LOGO
370
     0
100
AcDbSpline
210
0.0
220
0.0
230
1.0
 70
    11
 71
     3
 72
    56
 73
    52
 74
     0
 42
0.000000001
 43
0.0000000001
 40
0.0
 40
0.0
 40
0.0
 40
0.0
 40
1.0
 40
1.0
 40
1.0
 40
2.0
 40
2.0
 40
2.0
 40
3.0
 40
3.0
 40
3.0
 40
4.0
 40
4.0
 40
4.0
 40
5.0
 40
5.0
 40
5.0
 40
6.0
 40
6.0
 40
6.0
 40
7.0
 40
7.0
 40
7.0
 40
8.0
 40
8.0
 40
8.0
 40
9.0
 40
9.0
 40
9.0
 40
10.0
 40
10.0
 40
10.0
 40
11.0
 40
11.0
 40
11.0
 40
12.0
 40
12.0
 40
12.0
 40
13.0
 40
13.0
 40
13.0
 40
14.0
 40
14.0
 40
14.0
 40
15.0
 40
15.0
 40
15.0
 40
16.0
 40
16.0
 40
16.0
 40
17.0
 40
17.0
 40
17.0
 40
17.0
 10
100.4504378777679
 20
166.69157178364
 30
0.0
 10
101.9848844191641
 20
167.1313385124438
 30
0.0
 10
103.9637485713373
 20
166.7649523658846
 30
0.0
 10
103.9637485713373
 20
166.7649523658846
 30
0.0
 10
103.9637485713373
 20
166.7649523658846
 30
0.0
 10
103.0132460999156
 20
163.911205638077
 30
0.0
 10
103.0132460999156
 20
163.911205638077
 30
0.0
 10
103.0132460999156
 20
163.911205638077
 30
0.0
 10
101.0674548862189
 20
164.3601018759394
 30
0.0
 10
99.57090442016032
 20
163.1805004036133
 30
0.0
 10
98.40508333886608
 20
162.258247733807
 30
0.0
 10
97.65301849830304
 20
159.804132345923
 30
0.0
 10
97.3598406791005
 20
158.8699940888517
 30
0.0
 10
97.3598406791005
 20
158.8699940888517
 30
0.0
 10
96.07137411762282
 20
154.9119212747295
 30
0.0
 10
96.07137411762282
 20
154.9119212747295
 30
0.0
 10
96.07137411762282
 20
154.9119212747295
 30
0.0
 10
100.3012651448482
 20
154.9119212747295
 30
0.0
 10
100.3012651448482
 20
154.9119212747295
 30
0.0
 10
100.3012651448482
 20
154.9119212747295
 30
0.0
 10
99.64152892419852
 20
152.4199098115079
 30
0.0
 10
99.64152892419852
 20
152.4199098115079
 30
0.0
 10
99.64152892419852
 20
152.4199098115079
 30
0.0
 10
95.38097652692731
 20
152.4199098115079
 30
0.0
 10
95.38097652692731
 20
152.4199098115079
 30
0.0
 10
95.38097652692731
 20
152.4199098115079
 30
0.0
 10
87.75353009080013
 20
127.8027915271048
 30
0.0
 10
87.75353009080013
 20
127.8027915271048
 30
0.0
 10
87.75353009080013
 20
127.8027915271048
 30
0.0
 10
85.36538832498108
 20
127.8027915271048
 30
0.0
 10
85.36538832498108
 20
127.8027915271048
 30
0.0
 10
85.36538832498108
 20
127.8027915271048
 30
0.0
 10
93.00006946639998
 20
152.4199098115079
 30
0.0
 10
93.00006946639998
 20
152.4199098115079
 30
0.0
 10
93.00006946639998
 20
152.4199098115079
 30
0.0
 10
89.85297266450198
 20
152.4199098115079
 30
0.0
 10
89.85297266450198
 20
152.4199098115079
 30
0.0
 10
89.85297266450198
 20
152.4199098115079
 30
0.0
 10
90.51270888515164
 20
154.9119212747295
 30
0.0
 10
90.51270888515164
 20
154.9119212747295
 30
0.0
 10
90.51270888515164
 20
154.9119212747295
 30
0.0
 10
93.6904670570955
 20
154.9119212747295
 30
0.0
 10
93.6904670570955
 20
154.9119212747295
 30
0.0
 10
93.6904670570955
 20
154.9119212747295
 30
0.0
 10
94.81598049462158
 20
158.3616699146644
 30
0.0
 10
94.81598049462158
 20
158.3616699146644
 30
0.0
 10
95.7237637538445
 20
161.2605474231013
 30
0.0
 10
96.4968436907311
 20
162.8139420021662
 30
0.0
 10
97.15657991138076
 20
163.9844139654337
 30
0.0
 10
97.81183750494507
 20
165.1523021053827
 30
0.0
 10
99.1047826935081
 20
166.3084769129547
 30
0.0
 10
100.4504378777679
 20
166.69157178364
 30
0.0
  0
HATCH
  5
6A5
330
6A2
100
AcDbEntity
  8
LOGO
 62
   250
420
  2234388
100
AcDbHatch
 10
0.0
 20
0.0
 30
0.0
210
0.0
220
0.0
230
1.0
  2
SOLID
 70
     1
 71
     0
 91
        1
 92
        1
 93
        1
 72
     4
 94
        3
 73
     0
 74
     1
 95
       56
 96
       52
 40
0.0
 40
0.0
 40
0.0
 40
0.0
 40
1.0
 40
1.0
 40
1.0
 40
2.0
 40
2.0
 40
2.0
 40
3.0
 40
3.0
 40
3.0
 40
4.0
 40
4.0
 40
4.0
 40
5.0
 40
5.0
 40
5.0
 40
6.0
 40
6.0
 40
6.0
 40
7.0
 40
7.0
 40
7.0
 40
8.0
 40
8.0
 40
8.0
 40
9.0
 40
9.0
 40
9.0
 40
10.0
 40
10.0
 40
10.0
 40
11.0
 40
11.0
 40
11.0
 40
12.0
 40
12.0
 40
12.0
 40
13.0
 40
13.0
 40
13.0
 40
14.0
 40
14.0
 40
14.0
 40
15.0
 40
15.0
 40
15.0
 40
16.0
 40
16.0
 40
16.0
 40
17.0
 40
17.0
 40
17.0
 40
17.0
 10
100.4504378777679
 20
166.69157178364
 10
101.9848844191641
 20
167.1313385124438
 10
103.9637485713373
 20
166.7649523658846
 10
103.9637485713373
 20
166.7649523658846
 10
103.9637485713373
 20
166.7649523658846
 10
103.0132460999156
 20
163.911205638077
 10
103.0132460999156
 20
163.911205638077
 10
103.0132460999156
 20
163.911205638077
 10
101.0674548862189
 20
164.3601018759394
 10
99.57090442016032
 20
163.1805004036133
 10
98.40508333886608
 20
162.258247733807
 10
97.65301849830304
 20
159.804132345923
 10
97.3598406791005
 20
158.8699940888517
 10
97.3598406791005
 20
158.8699940888517
 10
96.07137411762282
 20
154.9119212747295
 10
96.07137411762282
 20
154.9119212747295
 10
96.07137411762282
 20
154.9119212747295
 10
100.3012651448482
 20
154.9119212747295
 10
100.3012651448482
 20
154.9119212747295
 10
100.3012651448482
 20
154.9119212747295
 10
99.64152892419852
 20
152.4199098115079
 10
99.64152892419852
 20
152.4199098115079
 10
99.64152892419852
 20
152.4199098115079
 10
95.38097652692731
 20
152.4199098115079
 10
95.38097652692731
 20
152.4199098115079
 10
95.38097652692731
 20
152.4199098115079
 10
87.75353009080013
 20
127.8027915271048
 10
87.75353009080013
 20
127.8027915271048
 10
87.75353009080013
 20
127.8027915271048
 10
85.36538832498108
 20
127.8027915271048
 10
85.36538832498108
 20
127.8027915271048
 10
85.36538832498108
 20
127.8027915271048
 10
93.00006946639998
 20
152.4199098115079
 10
93.00006946639998
 20
152.4199098115079
 10
93.00006946639998
 20
152.4199098115079
 10
89.85297266450198
 20
152.4199098115079
 10
89.85297266450198
 20
152.4199098115079
 10
89.85297266450198
 20
152.4199098115079
 10
90.51270888515164
 20
154.9119212747295
 10
90.51270888515164
 20
154.9119212747295
 10
90.51270888515164
 20
154.9119212747295
 10
93.6904670570955
 20
154.9119212747295
 10
93.6904670570955
 20
154.9119212747295
 10
93.6904670570955
 20
154.9119212747295
 10
94.81598049462158
 20
158.3616699146644
 10
94.81598049462158
 20
158.3616699146644
 10
95.7237637538445
 20
161.2605474231013
 10
96.4968436907311
 20
162.8139420021662
 10
97.15657991138076
 20
163.9844139654337
 10
97.81183750494507
 20
165.1523021053827
 10
99.1047826935081
 20
166.3084769129547
 10
100.4504378777679
 20
166.69157178364
 97
        0
 75
     2
 76
     1
 98
        0
  0
SPLINE
  5
6A6
330
6A2
100
AcDbEntity
  8
LOGO
370
     0
100
AcDbSpline
210
0.0
220
0.0
230
1.0
 70
    11
 71
     3
 72
    38
 73
    34
 74
     0
 42
0.000000001
 43
0.0000000001
 40
0.0
 40
0.0
 40
0.0
 40
0.0
 40
1.0
 40
1.0
 40
1.0
 40
2.0
 40
2.0
 40
2.0
 40
3.0
 40
3.0
 40
3.0
 40
4.0
 40
4.0
 40
4.0
 40
5.0
 40
5.0
 40
5.0
 40
6.0
 40
6.0
 40
6.0
 40
7.0
 40
7.0
 40
7.0
 40
8.0
 40
8.0
 40
8.0
 40
9.0
 40
9.0
 40
9.0
 40
10.0
 40
10.0
 40
10.0
 40
11.0
 40
11.0
 40
11.0
 40
11.0
 10
126.377554584636
 20
154.8151140277308
 30
0.0
 10
126.377554584636
 20
154.8151140277308
 30
0.0
 10
128.8311532078563
 20
154.8151140277308
 30
0.0
 10
128.8311532078563
 20
154.8151140277308
 30
0.0
 10
128.8311532078563
 20
154.8151140277308
 30
0.0
 10
127.7345785914971
 20
151.3062819612468
 30
0.0
 10
127.7345785914971
 20
151.3062819612468
 30
0.0
 10
128.571392836906
 20
152.2922689395754
 30
0.0
 10
129.8860421413442
 20
153.604506675583
 30
0.0
 10
131.0163787157314
 20
154.2664822097754
 30
0.0
 10
132.7044766171327
 20
155.2500576196734
 30
0.0
 10
133.6642808525008
 20
155.3847609420097
 30
0.0
 10
134.7284715499351
 20
155.3565111403944
 30
0.0
 10
134.7284715499351
 20
155.3565111403944
 30
0.0
 10
133.6877075172549
 20
152.0345756272799
 30
0.0
 10
133.6877075172549
 20
152.0345756272799
 30
0.0
 10
133.011434827367
 20
152.3184516825359
 30
0.0
 10
130.930940291334
 20
151.7768823149844
 30
0.0
 10
129.739280976855
 20
150.9162968950455
 30
0.0
 10
128.66613302525
 20
150.1454562717016
 30
0.0
 10
127.9192358313239
 20
149.4857200510519
 30
0.0
 10
127.0393578639405
 20
147.8282835196966
 30
0.0
 10
126.164647543194
 20
146.1699857139017
 30
0.0
 10
125.4742499524985
 20
143.5262176944419
 30
0.0
 10
124.2822461282437
 20
139.6959580071401
 30
0.0
 10
124.2822461282437
 20
139.6959580071401
 30
0.0
 10
120.5753209406769
 20
127.8027915271048
 30
0.0
 10
120.5753209406769
 20
127.8027915271048
 30
0.0
 10
120.5753209406769
 20
127.8027915271048
 30
0.0
 10
118.1964809388044
 20
127.8027915271048
 30
0.0
 10
118.1964809388044
 20
127.8027915271048
 30
0.0
 10
118.1964809388044
 20
127.8027915271048
 30
0.0
 10
126.377554584636
 20
154.8151140277308
 30
0.0
 10
126.377554584636
 20
154.8151140277308
 30
0.0
  0
HATCH
  5
6A7
330
6A2
100
AcDbEntity
  8
LOGO
 62
   250
420
  2234388
100
AcDbHatch
 10
0.0
 20
0.0
 30
0.0
210
0.0
220
0.0
230
1.0
  2
SOLID
 70
     1
 71
     0
 91
        1
 92
        1
 93
        1
 72
     4
 94
        3
 73
     0
 74
     1
 95
       38
 96
       34
 40
0.0
 40
0.0
 40
0.0
 40
0.0
 40
1.0
 40
1.0
 40
1.0
 40
2.0
 40
2.0
 40
2.0
 40
3.0
 40
3.0
 40
3.0
 40
4.0
 40
4.0
 40
4.0
 40
5.0
 40
5.0
 40
5.0
 40
6.0
 40
6.0
 40
6.0
 40
7.0
 40
7.0
 40
7.0
 40
8.0
 40
8.0
 40
8.0
 40
9.0
 40
9.0
 40
9.0
 40
10.0
 40
10.0
 40
10.0
 40
11.0
 40
11.0
 40
11.0
 40
11.0
 10
126.377554584636
 20
154.8151140277308
 10
126.377554584636
 20
154.8151140277308
 10
128.8311532078563
 20
154.8151140277308
 10
128.8311532078563
 20
154.8151140277308
 10
128.8311532078563
 20
154.8151140277308
 10
127.7345785914971
 20
151.3062819612468
 10
127.7345785914971
 20
151.3062819612468
 10
128.571392836906
 20
152.2922689395754
 10
129.8860421413442
 20
153.604506675583
 10
131.0163787157314
 20
154.2664822097754
 10
132.7044766171327
 20
155.2500576196734
 10
133.6642808525008
 20
155.3847609420097
 10
134.7284715499351
 20
155.3565111403944
 10
134.7284715499351
 20
155.3565111403944
 10
133.6877075172549
 20
152.0345756272799
 10
133.6877075172549
 20
152.0345756272799
 10
133.011434827367
 20
152.3184516825359
 10
130.930940291334
 20
151.7768823149844
 10
129.739280976855
 20
150.9162968950455
 10
128.66613302525
 20
150.1454562717016
 10
127.9192358313239
 20
149.4857200510519
 10
127.0393578639405
 20
147.8282835196966
 10
126.164647543194
 20
146.1699857139017
 10
125.4742499524985
 20
143.5262176944419
 10
124.2822461282437
 20
139.6959580071401
 10
124.2822461282437
 20
139.6959580071401
 10
120.5753209406769
 20
127.8027915271048
 10
120.5753209406769
 20
127.8027915271048
 10
120.5753209406769
 20
127.8027915271048
 10
118.1964809388044
 20
127.8027915271048
 10
118.1964809388044
 20
127.8027915271048
 10
118.1964809388044
 20
127.8027915271048
 10
126.377554584636
 20
154.8151140277308
 10
126.377554584636
 20
154.8151140277308
 97
        0
 75
     2
 76
     1
 98
        0
  0
SPLINE
  5
6A8
330
6A2
100
AcDbEntity
  8
LOGO
370
     0
100
AcDbSpline
210
0.0
220
0.0
230
1.0
 70
    11
 71
     3
 72
   104
 73
   100
 74
     0
 42
0.000000001
 43
0.0000000001
 40
0.0
 40
0.0
 40
0.0
 40
0.0
 40
1.0
 40
1.0
 40
1.0
 40
2.0
 40
2.0
 40
2.0
 40
3.0
 40
3.0
 40
3.0
 40
4.0
 40
4.0
 40
4.0
 40
5.0
 40
5.0
 40
5.0
 40
6.0
 40
6.0
 40
6.0
 40
7.0
 40
7.0
 40
7.0
 40
8.0
 40
8.0
 40
8.0
 40
9.0
 40
9.0
 40
9.0
 40
10.0
 40
10.0
 40
10.0
 40
11.0
 40
11.0
 40
11.0
 40
12.0
 40
12.0
 40
12.0
 40
13.0
 40
13.0
 40
13.0
 40
14.0
 40
14.0
 40
14.0
 40
15.0
 40
15.0
 40
15.0
 40
16.0
 40
16.0
 40
16.0
 40
17.0
 40
17.0
 40
17.0
 40
18.0
 40
18.0
 40
18.0
 40
19.0
 40
19.0
 40
19.0
 40
20.0
 40
20.0
 40
20.0
 40
21.0
 40
21.0
 40
21.0
 40
22.0
 40
22.0
 40
22.0
 40
23.0
 40
23.0
 40
23.0
 40
24.0
 40
24.0
 40
24.0
 40
25.0
 40
25.0
 40
25.0
 40
26.0
 40
26.0
 40
26.0
 40
27.0
 40
27.0
 40
27.0
 40
28.0
 40
28.0
 40
28.0
 40
29.0
 40
29.0
 40
29.0
 40
30.0
 40
30.0
 40
30.0
 40
31.0
 40
31.0
 40
31.0
 40
32.0
 40
32.0
 40
32.0
 40
33.0
 40
33.0
 40
33.0
 40
33.0
 10
139.8926730891197
 20
154.8294111834263
 30
0.0
 10
139.8926730891197
 20
154.8294111834263
 30
0.0
 10
142.0344903652445
 20
154.8294111834263
 30
0.0
 10
142.0344903652445
 20
154.8294111834263
 30
0.0
 10
142.0344903652445
 20
154.8294111834263
 30
0.0
 10
140.9516961399171
 20
151.3157559800812
 30
0.0
 10
140.9516961399171
 20
151.3157559800812
 30
0.0
 10
141.8928968473923
 20
152.7887075264977
 30
0.0
 10
142.7341897198865
 20
153.4484437471474
 30
0.0
 10
143.8552245303272
 20
154.2926649527359
 30
0.0
 10
144.9803934580775
 20
155.1296514530327
 30
0.0
 10
146.3139908001845
 20
155.3044901642492
 30
0.0
 10
147.241066606852
 20
155.3044901642492
 30
0.0
 10
148.3855280820469
 20
155.3044901642492
 30
0.0
 10
149.4969166187653
 20
155.0752189084569
 30
0.0
 10
150.0784491203092
 20
153.8172414621372
 30
0.0
 10
150.5228667310863
 20
152.833838307127
 30
0.0
 10
150.5414702589793
 20
152.7201500811143
 30
0.0
 10
150.4140016419347
 20
150.7765981809602
 30
0.0
 10
151.5818897818837
 20
152.7699317437168
 30
0.0
 10
152.4424752018226
 20
153.6256940267945
 30
0.0
 10
153.9038856707499
 20
154.4507949398263
 30
0.0
 10
155.4455669174378
 20
155.3044901642492
 30
0.0
 10
156.339225275853
 20
155.3659851592288
 30
0.0
 10
157.3748216618963
 20
155.2147453676543
 30
0.0
 10
158.911679771723
 20
154.9877134254046
 30
0.0
 10
159.8859534176746
 20
154.4390816074493
 30
0.0
 10
160.3965169054045
 20
152.7816450760939
 30
0.0
 10
160.9070803931344
 20
151.1219692311958
 30
0.0
 10
160.6328506116007
 20
150.2303779314354
 30
0.0
 10
159.9992971339115
 20
147.597634224801
 30
0.0
 10
159.7105979417943
 20
146.4014962832367
 30
0.0
 10
159.2947746424084
 20
144.9400858143094
 30
0.0
 10
158.7463150793409
 20
143.2092687007094
 30
0.0
 10
158.7463150793409
 20
143.2092687007094
 30
0.0
 10
153.9038856707499
 20
127.8027915271048
 30
0.0
 10
153.9038856707499
 20
127.8027915271048
 30
0.0
 10
153.9038856707499
 20
127.8027915271048
 30
0.0
 10
151.3882752878863
 20
127.8027915271048
 30
0.0
 10
151.3882752878863
 20
127.8027915271048
 30
0.0
 10
151.3882752878863
 20
127.8027915271048
 30
0.0
 10
155.6250565106276
 20
141.2751908193897
 30
0.0
 10
155.6250565106276
 20
141.2751908193897
 30
0.0
 10
156.5094131050963
 20
144.0936252951782
 30
0.0
 10
157.109893644309
 20
146.1506931664571
 30
0.0
 10
157.4220195011804
 20
147.4415712963654
 30
0.0
 10
157.8095929989511
 20
149.0530157726519
 30
0.0
 10
157.9656559273867
 20
149.5826995529385
 30
0.0
 10
157.7816877071116
 20
150.7529992613181
 30
0.0
 10
157.6111553680925
 20
151.8430281919372
 30
0.0
 10
157.0582171779396
 20
152.5547853887321
 30
0.0
 10
156.1170164704645
 20
152.5547853887321
 30
0.0
 10
155.1096698860365
 20
152.5547853887321
 30
0.0
 10
154.2962823053817
 20
152.4412694176073
 30
0.0
 10
153.156643967048
 20
151.2945686288697
 30
0.0
 10
152.0170056287143
 20
150.1476955852443
 30
0.0
 10
151.076149431015
 20
148.7930831468137
 30
0.0
 10
150.3337308641742
 20
147.2290087646991
 30
0.0
 10
149.5957909244188
 20
145.6683794803425
 30
0.0
 10
148.8530278478023
 20
143.6822806228776
 30
0.0
 10
148.0964843801539
 20
141.2751908193897
 30
0.0
 10
148.0964843801539
 20
141.2751908193897
 30
0.0
 10
143.8552245303272
 20
127.8027915271048
 30
0.0
 10
143.8552245303272
 20
127.8027915271048
 30
0.0
 10
143.8552245303272
 20
127.8027915271048
 30
0.0
 10
141.486030802177
 20
127.8027915271048
 30
0.0
 10
141.486030802177
 20
127.8027915271048
 30
0.0
 10
141.486030802177
 20
127.8027915271048
 30
0.0
 10
146.3329388378533
 20
143.2092687007094
 30
0.0
 10
146.3329388378533
 20
143.2092687007094
 30
0.0
 10
146.8483254624444
 20
144.8408669988801
 30
0.0
 10
147.2314203331297
 20
146.1837661049335
 30
0.0
 10
147.4867020769946
 20
147.224185627838
 30
0.0
 10
147.9169947869641
 20
149.0197705792876
 30
0.0
 10
148.0306830129768
 20
150.2400242051577
 30
0.0
 10
147.709255392159
 20
151.3157559800812
 30
0.0
 10
147.3874832615654
 20
152.3916600098926
 30
0.0
 10
146.8245542879144
 20
152.6683013598569
 30
0.0
 10
145.8840425999909
 20
152.6683013598569
 30
0.0
 10
145.0989048209514
 20
152.6683013598569
 30
0.0
 10
144.3282364524954
 20
152.3275811915945
 30
0.0
 10
143.4531816219731
 20
151.6538923250251
 30
0.0
 10
142.34627171234
 20
150.8074318058939
 30
0.0
 10
141.901854101563
 20
150.1097995099067
 30
0.0
 10
141.3578731655808
 20
149.289521733736
 30
0.0
 10
140.6299240093235
 20
148.192602607601
 30
0.0
 10
140.2850697237515
 20
147.455696197173
 30
0.0
 10
139.6652966370942
 20
145.8385673095858
 30
0.0
 10
139.0506911970739
 20
144.2214384219986
 30
0.0
 10
138.463991048893
 20
142.3252566160164
 30
0.0
 10
138.0571250036777
 20
141.0154304484394
 30
0.0
 10
138.0571250036777
 20
141.0154304484394
 30
0.0
 10
133.9009590684727
 20
127.8027915271048
 30
0.0
 10
133.9009590684727
 20
127.8027915271048
 30
0.0
 10
133.9009590684727
 20
127.8027915271048
 30
0.0
 10
131.4180771143097
 20
127.8027915271048
 30
0.0
 10
131.4180771143097
 20
127.8027915271048
 30
0.0
 10
131.4180771143097
 20
127.8027915271048
 30
0.0
 10
139.8926730891197
 20
154.8294111834263
 30
0.0
 10
139.8926730891197
 20
154.8294111834263
 30
0.0
  0
HATCH
  5
6A9
330
6A2
100
AcDbEntity
  8
LOGO
 62
   250
420
  2234388
100
AcDbHatch
 10
0.0
 20
0.0
 30
0.0
210
0.0
220
0.0
230
1.0
  2
SOLID
 70
     1
 71
     0
 91
        1
 92
        1
 93
        1
 72
     4
 94
        3
 73
     0
 74
     1
 95
      104
 96
      100
 40
0.0
 40
0.0
 40
0.0
 40
0.0
 40
1.0
 40
1.0
 40
1.0
 40
2.0
 40
2.0
 40
2.0
 40
3.0
 40
3.0
 40
3.0
 40
4.0
 40
4.0
 40
4.0
 40
5.0
 40
5.0
 40
5.0
 40
6.0
 40
6.0
 40
6.0
 40
7.0
 40
7.0
 40
7.0
 40
8.0
 40
8.0
 40
8.0
 40
9.0
 40
9.0
 40
9.0
 40
10.0
 40
10.0
 40
10.0
 40
11.0
 40
11.0
 40
11.0
 40
12.0
 40
12.0
 40
12.0
 40
13.0
 40
13.0
 40
13.0
 40
14.0
 40
14.0
 40
14.0
 40
15.0
 40
15.0
 40
15.0
 40
16.0
 40
16.0
 40
16.0
 40
17.0
 40
17.0
 40
17.0
 40
18.0
 40
18.0
 40
18.0
 40
19.0
 40
19.0
 40
19.0
 40
20.0
 40
20.0
 40
20.0
 40
21.0
 40
21.0
 40
21.0
 40
22.0
 40
22.0
 40
22.0
 40
23.0
 40
23.0
 40
23.0
 40
24.0
 40
24.0
 40
24.0
 40
25.0
 40
25.0
 40
25.0
 40
26.0
 40
26.0
 40
26.0
 40
27.0
 40
27.0
 40
27.0
 40
28.0
 40
28.0
 40
28.0
 40
29.0
 40
29.0
 40
29.0
 40
30.0
 40
30.0
 40
30.0
 40
31.0
 40
31.0
 40
31.0
 40
32.0
 40
32.0
 40
32.0
 40
33.0
 40
33.0
 40
33.0
 40
33.0
 10
139.8926730891197
 20
154.8294111834263
 10
139.8926730891197
 20
154.8294111834263
 10
142.0344903652445
 20
154.8294111834263
 10
142.0344903652445
 20
154.8294111834263
 10
142.0344903652445
 20
154.8294111834263
 10
140.9516961399171
 20
151.3157559800812
 10
140.9516961399171
 20
151.3157559800812
 10
141.8928968473923
 20
152.7887075264977
 10
142.7341897198865
 20
153.4484437471474
 10
143.8552245303272
 20
154.2926649527359
 10
144.9803934580775
 20
155.1296514530327
 10
146.3139908001845
 20
155.3044901642492
 10
147.241066606852
 20
155.3044901642492
 10
148.3855280820469
 20
155.3044901642492
 10
149.4969166187653
 20
155.0752189084569
 10
150.0784491203092
 20
153.8172414621372
 10
150.5228667310863
 20
152.833838307127
 10
150.5414702589793
 20
152.7201500811143
 10
150.4140016419347
 20
150.7765981809602
 10
151.5818897818837
 20
152.7699317437168
 10
152.4424752018226
 20
153.6256940267945
 10
153.9038856707499
 20
154.4507949398263
 10
155.4455669174378
 20
155.3044901642492
 10
156.339225275853
 20
155.3659851592288
 10
157.3748216618963
 20
155.2147453676543
 10
158.911679771723
 20
154.9877134254046
 10
159.8859534176746
 20
154.4390816074493
 10
160.3965169054045
 20
152.7816450760939
 10
160.9070803931344
 20
151.1219692311958
 10
160.6328506116007
 20
150.2303779314354
 10
159.9992971339115
 20
147.597634224801
 10
159.7105979417943
 20
146.4014962832367
 10
159.2947746424084
 20
144.9400858143094
 10
158.7463150793409
 20
143.2092687007094
 10
158.7463150793409
 20
143.2092687007094
 10
153.9038856707499
 20
127.8027915271048
 10
153.9038856707499
 20
127.8027915271048
 10
153.9038856707499
 20
127.8027915271048
 10
151.3882752878863
 20
127.8027915271048
 10
151.3882752878863
 20
127.8027915271048
 10
151.3882752878863
 20
127.8027915271048
 10
155.6250565106276
 20
141.2751908193897
 10
155.6250565106276
 20
141.2751908193897
 10
156.5094131050963
 20
144.0936252951782
 10
157.109893644309
 20
146.1506931664571
 10
157.4220195011804
 20
147.4415712963654
 10
157.8095929989511
 20
149.0530157726519
 10
157.9656559273867
 20
149.5826995529385
 10
157.7816877071116
 20
150.7529992613181
 10
157.6111553680925
 20
151.8430281919372
 10
157.0582171779396
 20
152.5547853887321
 10
156.1170164704645
 20
152.5547853887321
 10
155.1096698860365
 20
152.5547853887321
 10
154.2962823053817
 20
152.4412694176073
 10
153.156643967048
 20
151.2945686288697
 10
152.0170056287143
 20
150.1476955852443
 10
151.076149431015
 20
148.7930831468137
 10
150.3337308641742
 20
147.2290087646991
 10
149.5957909244188
 20
145.6683794803425
 10
148.8530278478023
 20
143.6822806228776
 10
148.0964843801539
 20
141.2751908193897
 10
148.0964843801539
 20
141.2751908193897
 10
143.8552245303272
 20
127.8027915271048
 10
143.8552245303272
 20
127.8027915271048
 10
143.8552245303272
 20
127.8027915271048
 10
141.486030802177
 20
127.8027915271048
 10
141.486030802177
 20
127.8027915271048
 10
141.486030802177
 20
127.8027915271048
 10
146.3329388378533
 20
143.2092687007094
 10
146.3329388378533
 20
143.2092687007094
 10
146.8483254624444
 20
144.8408669988801
 10
147.2314203331297
 20
146.1837661049335
 10
147.4867020769946
 20
147.224185627838
 10
147.9169947869641
 20
149.0197705792876
 10
148.0306830129768
 20
150.2400242051577
 10
147.709255392159
 20
151.3157559800812
 10
147.3874832615654
 20
152.3916600098926
 10
146.8245542879144
 20
152.6683013598569
 10
145.8840425999909
 20
152.6683013598569
 10
145.0989048209514
 20
152.6683013598569
 10
144.3282364524954
 20
152.3275811915945
 10
143.4531816219731
 20
151.6538923250251
 10
142.34627171234
 20
150.8074318058939
 10
141.901854101563
 20
150.1097995099067
 10
141.3578731655808
 20
149.289521733736
 10
140.6299240093235
 20
148.192602607601
 10
140.2850697237515
 20
147.455696197173
 10
139.6652966370942
 20
145.8385673095858
 10
139.0506911970739
 20
144.2214384219986
 10
138.463991048893
 20
142.3252566160164
 10
138.0571250036777
 20
141.0154304484394
 10
138.0571250036777
 20
141.0154304484394
 10
133.9009590684727
 20
127.8027915271048
 10
133.9009590684727
 20
127.8027915271048
 10
133.9009590684727
 20
127.8027915271048
 10
131.4180771143097
 20
127.8027915271048
 10
131.4180771143097
 20
127.8027915271048
 10
131.4180771143097
 20
127.8027915271048
 10
139.8926730891197
 20
154.8294111834263
 10
139.8926730891197
 20
154.8294111834263
 97
        0
 75
     2
 76
     1
 98
        0
  0
SPLINE
  5
6AA
330
6A2
100
AcDbEntity
  8
LOGO
370
     0
100
AcDbSpline
210
0.0
220
0.0
230
1.0
 70
    11
 71
     3
 72
    29
 73
    25
 74
     0
 42
0.000000001
 43
0.0000000001
 40
0.0
 40
0.0
 40
0.0
 40
0.0
 40
1.0
 40
1.0
 40
1.0
 40
2.0
 40
2.0
 40
2.0
 40
3.0
 40
3.0
 40
3.0
 40
4.0
 40
4.0
 40
4.0
 40
5.0
 40
5.0
 40
5.0
 40
6.0
 40
6.0
 40
6.0
 40
7.0
 40
7.0
 40
7.0
 40
8.0
 40
8.0
 40
8.0
 40
8.0
 10
101.6420971922469
 20
132.8388354296931
 30
0.0
 10
101.630039350094
 20
134.7164137077823
 30
0.0
 10
102.2236296937908
 20
138.0598810818841
 30
0.0
 10
103.7487744712405
 20
142.5378191476827
 30
0.0
 10
105.819967243327
 20
148.5896501242061
 30
0.0
 10
107.0602024361932
 20
150.8074318058939
 30
0.0
 10
108.1522984254671
 20
151.8833358357054
 30
0.0
 10
109.741177511439
 20
153.4532668840085
 30
0.0
 10
111.8740375333931
 20
153.5290590346837
 30
0.0
 10
112.5075910110823
 20
153.4532668840085
 30
0.0
 10
113.4012493694975
 20
153.3490526768302
 30
0.0
 10
114.6683563248758
 20
152.7580461564518
 30
0.0
 10
114.7493161221879
 20
150.7838328862519
 30
0.0
 10
114.8106388622796
 20
149.0909118479895
 30
0.0
 10
114.3186789024427
 20
145.9191825971221
 30
0.0
 10
112.6164561002338
 20
140.9489400617108
 30
0.0
 10
110.6444821435766
 20
135.1746117095912
 30
0.0
 10
109.4669477299053
 20
132.8960240524753
 30
0.0
 10
108.5212683953448
 20
131.9072809959403
 30
0.0
 10
106.7346406980658
 20
130.0538184021569
 30
0.0
 10
104.8222669326213
 20
130.2336525051225
 30
0.0
 10
104.5408024457958
 20
130.2336525051225
 30
0.0
 10
104.1721769856939
 20
130.2336525051225
 30
0.0
 10
101.6465758193322
 20
130.6305277668397
 30
0.0
 10
101.6420971922469
 20
132.8388354296931
 30
0.0
  0
SPLINE
  5
6AB
330
6A2
100
AcDbEntity
  8
LOGO
370
     0
100
AcDbSpline
210
0.0
220
0.0
230
1.0
 70
    11
 71
     3
 72
    32
 73
    28
 74
     0
 42
0.000000001
 43
0.0000000001
 40
0.0
 40
0.0
 40
0.0
 40
0.0
 40
1.0
 40
1.0
 40
1.0
 40
2.0
 40
2.0
 40
2.0
 40
3.0
 40
3.0
 40
3.0
 40
4.0
 40
4.0
 40
4.0
 40
5.0
 40
5.0
 40
5.0
 40
6.0
 40
6.0
 40
6.0
 40
7.0
 40
7.0
 40
7.0
 40
8.0
 40
8.0
 40
8.0
 40
9.0
 40
9.0
 40
9.0
 40
9.0
 10
106.2595617172429
 20
153.4105476718098
 30
0.0
 10
104.8222669326213
 20
151.5474388043041
 30
0.0
 10
103.7177685914188
 20
149.8758773721411
 30
0.0
 10
101.9232171692965
 20
144.6141795664062
 30
0.0
 10
100.2754269116635
 20
139.7999999594306
 30
0.0
 10
99.22777268346732
 20
136.3052927937542
 30
0.0
 10
99.06964269637689
 20
132.039572749846
 30
0.0
 10
98.94665270641765
 20
128.8673267343149
 30
0.0
 10
100.8807305877373
 20
127.8027915271048
 30
0.0
 10
103.7129454545577
 20
127.8027915271048
 30
0.0
 10
104.9352661390825
 20
127.8027915271048
 30
0.0
 10
108.0151835347002
 20
127.8827177950895
 30
0.0
 10
110.2045431598849
 20
130.5926316915021
 30
0.0
 10
111.7417457794874
 20
132.4984597712065
 30
0.0
 10
113.155269389579
 20
134.475256864725
 30
0.0
 10
115.0562743324223
 20
140.9489400617108
 30
0.0
 10
116.6361961642235
 20
146.3680788349845
 30
0.0
 10
117.7282921534974
 20
149.8639917848761
 30
0.0
 10
117.6480213757369
 20
151.8595646611754
 30
0.0
 10
117.6480213757369
 20
151.8595646611754
 30
0.0
 10
117.6480213757369
 20
151.8595646611754
 30
0.0
 10
117.6480213757369
 20
151.8595646611754
 30
0.0
 10
117.13229024137
 20
155.18150017429
 30
0.0
 10
114.7162431837115
 20
155.886194920681
 30
0.0
 10
113.3351034925446
 20
155.886194920681
 30
0.0
 10
111.9829026225447
 20
155.886194920681
 30
0.0
 10
108.3414342923792
 20
156.1251124501957
 30
0.0
 10
106.2595617172429
 20
153.4105476718098
 30
0.0
  0
HATCH
  5
6AC
330
6A2
100
AcDbEntity
  8
LOGO
 62
   250
420
  2234388
100
AcDbHatch
 10
0.0
 20
0.0
 30
0.0
210
0.0
220
0.0
230
1.0
  2
SOLID
 70
     1
 71
     0
 91
        2
 92
        1
 93
        1
 72
     4
 94
        3
 73
     0
 74
     1
 95
       29
 96
       25
 40
0.0
 40
0.0
 40
0.0
 40
0.0
 40
1.0
 40
1.0
 40
1.0
 40
2.0
 40
2.0
 40
2.0
 40
3.0
 40
3.0
 40
3.0
 40
4.0
 40
4.0
 40
4.0
 40
5.0
 40
5.0
 40
5.0
 40
6.0
 40
6.0
 40
6.0
 40
7.0
 40
7.0
 40
7.0
 40
8.0
 40
8.0
 40
8.0
 40
8.0
 10
101.6420971922469
 20
132.8388354296931
 10
101.630039350094
 20
134.7164137077823
 10
102.2236296937908
 20
138.0598810818841
 10
103.7487744712405
 20
142.5378191476827
 10
105.819967243327
 20
148.5896501242061
 10
107.0602024361932
 20
150.8074318058939
 10
108.1522984254671
 20
151.8833358357054
 10
109.741177511439
 20
153.4532668840085
 10
111.8740375333931
 20
153.5290590346837
 10
112.5075910110823
 20
153.4532668840085
 10
113.4012493694975
 20
153.3490526768302
 10
114.6683563248758
 20
152.7580461564518
 10
114.7493161221879
 20
150.7838328862519
 10
114.8106388622796
 20
149.0909118479895
 10
114.3186789024427
 20
145.9191825971221
 10
112.6164561002338
 20
140.9489400617108
 10
110.6444821435766
 20
135.1746117095912
 10
109.4669477299053
 20
132.8960240524753
 10
108.5212683953448
 20
131.9072809959403
 10
106.7346406980658
 20
130.0538184021569
 10
104.8222669326213
 20
130.2336525051225
 10
104.5408024457958
 20
130.2336525051225
 10
104.1721769856939
 20
130.2336525051225
 10
101.6465758193322
 20
130.6305277668397
 10
101.6420971922469
 20
132.8388354296931
 97
        0
 92
        1
 93
        1
 72
     4
 94
        3
 73
     0
 74
     1
 95
       32
 96
       28
 40
0.0
 40
0.0
 40
0.0
 40
0.0
 40
1.0
 40
1.0
 40
1.0
 40
2.0
 40
2.0
 40
2.0
 40
3.0
 40
3.0
 40
3.0
 40
4.0
 40
4.0
 40
4.0
 40
5.0
 40
5.0
 40
5.0
 40
6.0
 40
6.0
 40
6.0
 40
7.0
 40
7.0
 40
7.0
 40
8.0
 40
8.0
 40
8.0
 40
9.0
 40
9.0
 40
9.0
 40
9.0
 10
106.2595617172429
 20
153.4105476718098
 10
104.8222669326213
 20
151.5474388043041
 10
103.7177685914188
 20
149.8758773721411
 10
101.9232171692965
 20
144.6141795664062
 10
100.2754269116635
 20
139.7999999594306
 10
99.22777268346732
 20
136.3052927937542
 10
99.06964269637689
 20
132.039572749846
 10
98.94665270641765
 20
128.8673267343149
 10
100.8807305877373
 20
127.8027915271048
 10
103.7129454545577
 20
127.8027915271048
 10
104.9352661390825
 20
127.8027915271048
 10
108.0151835347002
 20
127.8827177950895
 10
110.2045431598849
 20
130.5926316915021
 10
111.7417457794874
 20
132.4984597712065
 10
113.155269389579
 20
134.475256864725
 10
115.0562743324223
 20
140.9489400617108
 10
116.6361961642235
 20
146.3680788349845
 10
117.7282921534974
 20
149.8639917848761
 10
117.6480213757369
 20
151.8595646611754
 10
117.6480213757369
 20
151.8595646611754
 10
117.6480213757369
 20
151.8595646611754
 10
117.6480213757369
 20
151.8595646611754
 10
117.13229024137
 20
155.18150017429
 10
114.7162431837115
 20
155.886194920681
 10
113.3351034925446
 20
155.886194920681
 10
111.9829026225447
 20
155.886194920681
 10
108.3414342923792
 20
156.1251124501957
 10
106.2595617172429
 20
153.4105476718098
 97
        0
 75
     2
 76
     1
 98
        0
  0
ENDBLK
  5
6AD
330
6A2
100
AcDbEntity
  8
0
100
AcDbBlockEnd
  0
BLOCK
  5
DE3
330
DE2
100
AcDbEntity
  8
0
100
AcDbBlockBegin
  2
*D6
 70
     1
 10
0.0
 20
0.0
 30
0.0
  3
*D6
  1
*D6
  0
LINE
  5
DE5
330
DE2
100
AcDbEntity
  8
MODEL
 62
     0
370
    -2
100
AcDbLine
 10
161.1034074769353
 20
380.8776795820364
 30
0.0
 11
147.511394287666
 21
380.8776795820364
 31
0.0
  0
LINE
  5
DE6
330
DE2
100
AcDbEntity
  8
MODEL
 62
     0
370
    -2
100
AcDbLine
 10
161.1034074769353
 20
304.2036367169111
 30
0.0
 11
147.511394287666
 21
304.2036367169111
 31
0.0
  0
LINE
  5
DE7
330
DE2
100
AcDbEntity
  8
MODEL
 62
     0
370
    -2
100
AcDbLine
 10
147.511394287666
 20
378.8776795820364
 30
0.0
 11
147.511394287666
 21
306.2036367169111
 31
0.0
  0
INSERT
  5
DE8
330
DE2
100
AcDbEntity
  8
MODEL
 62
     0
370
    -2
100
AcDbBlockReference
  2
_DOT
 10
147.511394287666
 20
380.8776795820364
 30
0.0
 41
2.0
 42
2.0
 43
2.0
 50
90.0
  0
INSERT
  5
DE9
330
DE2
100
AcDbEntity
  8
MODEL
 62
     0
370
    -2
100
AcDbBlockReference
  2
_DOT
 10
147.511394287666
 20
304.2036367169111
 30
0.0
 41
2.0
 42
2.0
 43
2.0
 50
270.0
  0
MTEXT
  5
DEA
330
DE2
100
AcDbEntity
  8
MODEL
 62
     0
100
AcDbMText
 10
134.511394287666
 20
342.5406581494738
 30
0.0
 40
6.0
 41
0.0
 46
0.0
 71
     5
 72
     1
  1
\A1;77
  7
ＭＳ ゴシック
 11
0.0
 21
1.0
 31
0.0
 73
     1
 44
1.0
  0
POINT
  5
DEB
330
DE2
100
AcDbEntity
  8
Defpoints
 62
     0
100
AcDbPoint
 10
171.1034074769353
 20
380.8776795820364
 30
0.0
  0
POINT
  5
DEC
330
DE2
100
AcDbEntity
  8
Defpoints
 62
     0
100
AcDbPoint
 10
171.1034074769353
 20
304.2036367169111
 30
0.0
  0
POINT
  5
DED
330
DE2
100
AcDbEntity
  8
Defpoints
 62
     0
100
AcDbPoint
 10
147.511394287666
 20
304.2036367169111
 30
0.0
  0
ENDBLK
  5
DE4
330
DE2
100
AcDbEntity
  8
0
100
AcDbBlockEnd
  0
BLOCK
  5
DFC
330
DFB
100
AcDbEntity
  8
0
100
AcDbBlockBegin
  2
*D7
 70
     1
 10
0.0
 20
0.0
 30
0.0
  3
*D7
  1
*D7
  0
LINE
  5
DFE
330
DFB
100
AcDbEntity
  8
MODEL
 62
     0
370
    -2
100
AcDbLine
 10
171.1034074769353
 20
294.2036367169111
 30
0.0
 11
171.1034074769353
 21
281.0428872399151
 31
0.0
  0
LINE
  5
DFF
330
DFB
100
AcDbEntity
  8
MODEL
 62
     0
370
    -2
100
AcDbLine
 10
281.8112876816255
 20
294.2036367169111
 30
0.0
 11
281.8112876816255
 21
281.0428872399151
 31
0.0
  0
LINE
  5
E00
330
DFB
100
AcDbEntity
  8
MODEL
 62
     0
370
    -2
100
AcDbLine
 10
172.1034074769353
 20
281.0428872399151
 30
0.0
 11
280.8112876816255
 21
281.0428872399151
 31
0.0
  0
INSERT
  5
E01
330
DFB
100
AcDbEntity
  8
MODEL
 62
     0
370
    -2
100
AcDbBlockReference
  2
_DOT
 10
171.1034074769353
 20
281.0428872399151
 30
0.0
 50
180.0
  0
INSERT
  5
E02
330
DFB
100
AcDbEntity
  8
MODEL
 62
     0
370
    -2
100
AcDbBlockReference
  2
_DOT
 10
281.8112876816255
 20
281.0428872399151
 30
0.0
  0
MTEXT
  5
E03
330
DFB
100
AcDbEntity
  8
MODEL
 62
     0
100
AcDbMText
 10
226.4573475792804
 20
294.0428872399151
 30
0.0
 40
6.0
 41
0.0
 46
0.0
 71
     5
 72
     1
  1
\A1;111
  7
ＭＳ ゴシック
 73
     1
 44
1.0
  0
POINT
  5
E04
330
DFB
100
AcDbEntity
  8
Defpoints
 62
     0
100
AcDbPoint
 10
171.1034074769353
 20
304.2036367169111
 30
0.0
  0
POINT
  5
E05
330
DFB
100
AcDbEntity
  8
Defpoints
 62
     0
100
AcDbPoint
 10
281.8112876816255
 20
304.2036367169111
 30
0.0
  0
POINT
  5
E06
330
DFB
100
AcDbEntity
  8
Defpoints
 62
     0
100
AcDbPoint
 10
281.8112876816255
 20
281.0428872399151
 30
0.0
  0
ENDBLK
  5
DFD
330
DFB
100
AcDbEntity
  8
0
100
AcDbBlockEnd
  0
BLOCK
  5
E0B
330
E0A
100
AcDbEntity
  8
0
100
AcDbBlockBegin
  2
*D8
 70
     1
 10
0.0
 20
0.0
 30
0.0
  3
*D8
  1
*D8
  0
LINE
  5
E0D
330
E0A
100
AcDbEntity
  8
MODEL
 62
     0
370
    -2
100
AcDbLine
 10
171.1034074769353
 20
299.2036367169111
 30
0.0
 11
171.1034074769353
 21
267.8986082141417
 31
0.0
  0
LINE
  5
E0E
330
E0A
100
AcDbEntity
  8
MODEL
 62
     0
370
    -2
100
AcDbLine
 10
279.4792180651414
 20
299.2036367169111
 30
0.0
 11
279.4792180651414
 21
267.8986082141417
 31
0.0
  0
LINE
  5
E0F
330
E0A
100
AcDbEntity
  8
MODEL
 62
     0
370
    -2
100
AcDbLine
 10
173.1034074769353
 20
267.8986082141417
 30
0.0
 11
277.4792180651414
 21
267.8986082141417
 31
0.0
  0
INSERT
  5
E10
330
E0A
100
AcDbEntity
  8
MODEL
 62
     0
370
    -2
100
AcDbBlockReference
  2
_DOT
 10
171.1034074769353
 20
267.8986082141417
 30
0.0
 41
2.0
 42
2.0
 43
2.0
 50
180.0
  0
INSERT
  5
E11
330
E0A
100
AcDbEntity
  8
MODEL
 62
     0
370
    -2
100
AcDbBlockReference
  2
_DOT
 10
279.4792180651414
 20
267.8986082141417
 30
0.0
 41
2.0
 42
2.0
 43
2.0
  0
MTEXT
  5
E12
330
E0A
100
AcDbEntity
  8
MODEL
 62
     0
100
AcDbMText
 10
225.2913127710383
 20
275.8986082141417
 30
0.0
 40
6.0
 41
0.0
 46
0.0
 71
     5
 72
     1
  1
\A1;108
  7
ＭＳ ゴシック
 73
     1
 44
1.0
  0
POINT
  5
E13
330
E0A
100
AcDbEntity
  8
Defpoints
 62
     0
100
AcDbPoint
 10
171.1034074769353
 20
304.2036367169111
 30
0.0
  0
POINT
  5
E14
330
E0A
100
AcDbEntity
  8
Defpoints
 62
     0
100
AcDbPoint
 10
279.4792180651414
 20
304.2036367169111
 30
0.0
  0
POINT
  5
E15
330
E0A
100
AcDbEntity
  8
Defpoints
 62
     0
100
AcDbPoint
 10
279.4792180651414
 20
267.8986082141417
 30
0.0
  0
ENDBLK
  5
E0C
330
E0A
100
AcDbEntity
  8
0
100
AcDbBlockEnd
  0
BLOCK
  5
E30
330
E2F
100
AcDbEntity
  8
0
100
AcDbBlockBegin
  2
*D9
 70
     1
 10
0.0
 20
0.0
 30
0.0
  3
*D9
  1
*D9
  0
LINE
  5
E32
330
E2F
100
AcDbEntity
  8
MODEL
 62
     0
370
    -2
100
AcDbLine
 10
284.4792180651414
 20
380.8776795820364
 30
0.0
 11
311.9195846368371
 21
380.8776795820364
 31
0.0
  0
LINE
  5
E33
330
E2F
100
AcDbEntity
  8
MODEL
 62
     0
370
    -2
100
AcDbLine
 10
284.4792180651414
 20
304.2036367169111
 30
0.0
 11
311.9195846368371
 21
304.2036367169111
 31
0.0
  0
LINE
  5
E34
330
E2F
100
AcDbEntity
  8
MODEL
 62
     0
370
    -2
100
AcDbLine
 10
311.9195846368371
 20
378.8776795820364
 30
0.0
 11
311.9195846368371
 21
306.2036367169111
 31
0.0
  0
INSERT
  5
E35
330
E2F
100
AcDbEntity
  8
MODEL
 62
     0
370
    -2
100
AcDbBlockReference
  2
_DOT
 10
311.9195846368371
 20
380.8776795820364
 30
0.0
 41
2.0
 42
2.0
 43
2.0
 50
90.0
  0
INSERT
  5
E36
330
E2F
100
AcDbEntity
  8
MODEL
 62
     0
370
    -2
100
AcDbBlockReference
  2
_DOT
 10
311.9195846368371
 20
304.2036367169111
 30
0.0
 41
2.0
 42
2.0
 43
2.0
 50
270.0
  0
MTEXT
  5
E37
330
E2F
100
AcDbEntity
  8
MODEL
 62
     0
100
AcDbMText
 10
303.9195846368371
 20
342.5406581494738
 30
0.0
 40
6.0
 41
0.0
 46
0.0
 71
     5
 72
     1
  1
\A1;77
  7
ＭＳ ゴシック
 11
0.0
 21
1.0
 31
0.0
 73
     1
 44
1.0
  0
POINT
  5
E38
330
E2F
100
AcDbEntity
  8
Defpoints
 62
     0
100
AcDbPoint
 10
279.4792180651414
 20
380.8776795820364
 30
0.0
  0
POINT
  5
E39
330
E2F
100
AcDbEntity
  8
Defpoints
 62
     0
100
AcDbPoint
 10
279.4792180651414
 20
304.2036367169111
 30
0.0
  0
POINT
  5
E3A
330
E2F
100
AcDbEntity
  8
Defpoints
 62
     0
100
AcDbPoint
 10
311.9195846368371
 20
304.2036367169111
 30
0.0
  0
ENDBLK
  5
E31
330
E2F
100
AcDbEntity
  8
0
100
AcDbBlockEnd
  0
BLOCK
  5
E3D
330
E3C
100
AcDbEntity
  8
0
100
AcDbBlockBegin
  2
*D10
 70
     1
 10
0.0
 20
0.0
 30
0.0
  3
*D10
  1
*D10
  0
LINE
  5
E3F
330
E3C
100
AcDbEntity
  8
MODEL
 62
     0
370
    -2
100
AcDbLine
 10
166.1034074769353
 20
380.8776795820364
 30
0.0
 11
143.4443285691862
 21
380.8776795820364
 31
0.0
  0
LINE
  5
E40
330
E3C
100
AcDbEntity
  8
MODEL
 62
     0
370
    -2
100
AcDbLine
 10
166.1034074769353
 20
302.1222733879492
 30
0.0
 11
143.4443285691862
 21
302.1222733879492
 31
0.0
  0
LINE
  5
E41
330
E3C
100
AcDbEntity
  8
MODEL
 62
     0
370
    -2
100
AcDbLine
 10
143.4443285691862
 20
378.8776795820364
 30
0.0
 11
143.4443285691862
 21
304.1222733879492
 31
0.0
  0
INSERT
  5
E42
330
E3C
100
AcDbEntity
  8
MODEL
 62
     0
370
    -2
100
AcDbBlockReference
  2
_DOT
 10
143.4443285691862
 20
380.8776795820364
 30
0.0
 41
2.0
 42
2.0
 43
2.0
 50
90.0
  0
INSERT
  5
E43
330
E3C
100
AcDbEntity
  8
MODEL
 62
     0
370
    -2
100
AcDbBlockReference
  2
_DOT
 10
143.4443285691862
 20
302.1222733879492
 30
0.0
 41
2.0
 42
2.0
 43
2.0
 50
270.0
  0
MTEXT
  5
E44
330
E3C
100
AcDbEntity
  8
MODEL
 62
     0
100
AcDbMText
 10
135.4443285691862
 20
341.4999764849928
 30
0.0
 40
6.0
 41
0.0
 46
0.0
 71
     5
 72
     1
  1
\A1;79
  7
ＭＳ ゴシック
 11
0.0
 21
1.0
 31
0.0
 73
     1
 44
1.0
  0
POINT
  5
E45
330
E3C
100
AcDbEntity
  8
Defpoints
 62
     0
100
AcDbPoint
 10
171.1034074769353
 20
380.8776795820364
 30
0.0
  0
POINT
  5
E46
330
E3C
100
AcDbEntity
  8
Defpoints
 62
     0
100
AcDbPoint
 10
171.1034074769353
 20
302.1222733879492
 30
0.0
  0
POINT
  5
E47
330
E3C
100
AcDbEntity
  8
Defpoints
 62
     0
100
AcDbPoint
 10
143.4443285691862
 20
302.1222733879492
 30
0.0
  0
ENDBLK
  5
E3E
330
E3C
100
AcDbEntity
  8
0
100
AcDbBlockEnd
  0
BLOCK
  5
E4C
330
E4B
100
AcDbEntity
  8
0
100
AcDbBlockBegin
  2
*D11
 70
     1
 10
0.0
 20
0.0
 30
0.0
  3
*D11
  1
*D11
  0
LINE
  5
E4E
330
E4B
100
AcDbEntity
  8
MODEL
 62
     0
370
    -2
100
AcDbLine
 10
166.1034074769353
 20
380.8776795820364
 30
0.0
 11
104.1922887661108
 21
380.8776795820364
 31
0.0
  0
LINE
  5
E4F
330
E4B
100
AcDbEntity
  8
MODEL
 62
     0
370
    -2
100
AcDbLine
 10
138.4443285691862
 20
302.1222733879492
 30
0.0
 11
104.1922887661108
 21
302.1222733879492
 31
0.0
  0
LINE
  5
E50
330
E4B
100
AcDbEntity
  8
MODEL
 62
     0
370
    -2
100
AcDbLine
 10
104.1922887661108
 20
378.8776795820364
 30
0.0
 11
104.1922887661108
 21
304.1222733879492
 31
0.0
  0
INSERT
  5
E51
330
E4B
100
AcDbEntity
  8
MODEL
 62
     0
370
    -2
100
AcDbBlockReference
  2
_DOT
 10
104.1922887661108
 20
380.8776795820364
 30
0.0
 41
2.0
 42
2.0
 43
2.0
 50
90.0
  0
INSERT
  5
E52
330
E4B
100
AcDbEntity
  8
MODEL
 62
     0
370
    -2
100
AcDbBlockReference
  2
_DOT
 10
104.1922887661108
 20
302.1222733879492
 30
0.0
 41
2.0
 42
2.0
 43
2.0
 50
270.0
  0
MTEXT
  5
E53
330
E4B
100
AcDbEntity
  8
MODEL
 62
     0
100
AcDbMText
 10
96.19228876611083
 20
341.4999764849928
 30
0.0
 40
6.0
 41
0.0
 46
0.0
 71
     5
 72
     1
  1
\A1;79
  7
ＭＳ ゴシック
 11
0.0
 21
1.0
 31
0.0
 73
     1
 44
1.0
  0
POINT
  5
E54
330
E4B
100
AcDbEntity
  8
Defpoints
 62
     0
100
AcDbPoint
 10
171.1034074769353
 20
380.8776795820364
 30
0.0
  0
POINT
  5
E55
330
E4B
100
AcDbEntity
  8
Defpoints
 62
     0
100
AcDbPoint
 10
143.4443285691862
 20
302.1222733879492
 30
0.0
  0
POINT
  5
E56
330
E4B
100
AcDbEntity
  8
Defpoints
 62
     0
100
AcDbPoint
 10
104.1922887661108
 20
302.1222733879492
 30
0.0
  0
ENDBLK
  5
E4D
330
E4B
100
AcDbEntity
  8
0
100
AcDbBlockEnd
  0
BLOCK
  5
135A
330
1359
100
AcDbEntity
  8
0
100
AcDbBlockBegin
  2
*D12
 70
     1
 10
0.0
 20
0.0
 30
0.0
  3
*D12
  1
*D13
  0
LINE
  5
135C
330
1359
100
AcDbEntity
  8
MODEL
 62
     0
370
    -2
100
AcDbLine
 10
548.2284731044069
 20
441.9603092073116
 30
0.0
 11
548.2284731044069
 21
463.2612220844572
 31
0.0
  0
LINE
  5
135D
330
1359
100
AcDbEntity
  8
MODEL
 62
     0
370
    -2
100
AcDbLine
 10
559.7284731044069
 20
441.9603092073116
 30
0.0
 11
559.7284731044069
 21
463.2612220844572
 31
0.0
  0
LINE
  5
135E
330
1359
100
AcDbEntity
  8
MODEL
 62
     0
370
    -2
100
AcDbLine
 10
546.2284731044069
 20
463.2612220844572
 30
0.0
 11
544.2284731044069
 21
463.2612220844572
 31
0.0
  0
LINE
  5
135F
330
1359
100
AcDbEntity
  8
MODEL
 62
     0
370
    -2
100
AcDbLine
 10
561.7284731044069
 20
463.2612220844572
 30
0.0
 11
563.7284731044069
 21
463.2612220844572
 31
0.0
  0
INSERT
  5
1360
330
1359
100
AcDbEntity
  8
MODEL
 62
     0
370
    -2
100
AcDbBlockReference
  2
_DOT
 10
548.2284731044069
 20
463.2612220844572
 30
0.0
 41
2.0
 42
2.0
 43
2.0
  0
INSERT
  5
1361
330
1359
100
AcDbEntity
  8
MODEL
 62
     0
370
    -2
100
AcDbBlockReference
  2
_DOT
 10
559.7284731044069
 20
463.2612220844572
 30
0.0
 41
2.0
 42
2.0
 43
2.0
 50
180.0
  0
MTEXT
  5
1362
330
1359
100
AcDbEntity
  8
MODEL
 62
     0
100
AcDbMText
 10
553.9784731044069
 20
471.2612220844572
 30
0.0
 40
6.0
 41
0.0
 46
0.0
 71
     5
 72
     1
  1
\A1;12
  7
ＭＳ ゴシック
 73
     1
 44
1.0
  0
POINT
  5
1363
330
1359
100
AcDbEntity
  8
Defpoints
 62
     0
100
AcDbPoint
 10
548.2284731044069
 20
436.9603092073116
 30
0.0
  0
POINT
  5
1364
330
1359
100
AcDbEntity
  8
Defpoints
 62
     0
100
AcDbPoint
 10
559.7284731044069
 20
436.9603092073116
 30
0.0
  0
POINT
  5
1365
330
1359
100
AcDbEntity
  8
Defpoints
 62
     0
100
AcDbPoint
 10
559.7284731044069
 20
463.2612220844572
 30
0.0
  0
ENDBLK
  5
135B
330
1359
100
AcDbEntity
  8
0
100
AcDbBlockEnd
  0
BLOCK
  5
136A
330
1369
100
AcDbEntity
  8
0
100
AcDbBlockBegin
  2
*D13
 70
     1
 10
0.0
 20
0.0
 30
0.0
  3
*D13
  1
*D14
  0
LINE
  5
136C
330
1369
100
AcDbEntity
  8
MODEL
 62
     0
370
    -2
100
AcDbLine
 10
842.165124443079
 20
201.1534664927506
 30
0.0
 11
842.165124443079
 21
156.4998870133462
 31
0.0
  0
LINE
  5
136D
330
1369
100
AcDbEntity
  8
MODEL
 62
     0
370
    -2
100
AcDbLine
 10
777.1497361855033
 20
201.1534664927506
 30
0.0
 11
777.1497361855033
 21
156.4998870133462
 31
0.0
  0
LINE
  5
136E
330
1369
100
AcDbEntity
  8
MODEL
 62
     0
370
    -2
100
AcDbLine
 10
840.165124443079
 20
156.4998870133462
 30
0.0
 11
779.1497361855033
 21
156.4998870133462
 31
0.0
  0
INSERT
  5
136F
330
1369
100
AcDbEntity
  8
MODEL
 62
     0
370
    -2
100
AcDbBlockReference
  2
_DOT
 10
842.165124443079
 20
156.4998870133462
 30
0.0
 41
2.0
 42
2.0
 43
2.0
  0
INSERT
  5
1370
330
1369
100
AcDbEntity
  8
MODEL
 62
     0
370
    -2
100
AcDbBlockReference
  2
_DOT
 10
777.1497361855033
 20
156.4998870133462
 30
0.0
 41
2.0
 42
2.0
 43
2.0
 50
180.0
  0
MTEXT
  5
1371
330
1369
100
AcDbEntity
  8
MODEL
 62
     0
100
AcDbMText
 10
809.6574303142911
 20
164.4998870133462
 30
0.0
 40
6.0
 41
0.0
 46
0.0
 71
     5
 72
     1
  1
\A1;65.01538826
  7
ＭＳ ゴシック
 73
     1
 44
1.0
  0
POINT
  5
1372
330
1369
100
AcDbEntity
  8
Defpoints
 62
     0
100
AcDbPoint
 10
842.165124443079
 20
206.1534664927506
 30
0.0
  0
POINT
  5
1373
330
1369
100
AcDbEntity
  8
Defpoints
 62
     0
100
AcDbPoint
 10
777.1497361855033
 20
206.1534664927506
 30
0.0
  0
POINT
  5
1374
330
1369
100
AcDbEntity
  8
Defpoints
 62
     0
100
AcDbPoint
 10
777.1497361855033
 20
156.4998870133462
 30
0.0
  0
ENDBLK
  5
136B
330
1369
100
AcDbEntity
  8
0
100
AcDbBlockEnd
  0
BLOCK
  5
1379
330
1378
100
AcDbEntity
  8
0
100
AcDbBlockBegin
  2
*D14
 70
     1
 10
0.0
 20
0.0
 30
0.0
  3
*D14
  1
*D15
  0
LINE
  5
137B
330
1378
100
AcDbEntity
  8
MODEL
 62
     0
370
    -2
100
AcDbLine
 10
214.1781490651779
 20
276.5584932549572
 30
0.0
 11
214.1781490651779
 21
148.0816167402309
 31
0.0
  0
LINE
  5
137C
330
1378
100
AcDbEntity
  8
MODEL
 62
     0
370
    -2
100
AcDbLine
 10
279.1935373227535
 20
254.3032257360178
 30
0.0
 11
279.1935373227535
 21
148.0816167402309
 31
0.0
  0
LINE
  5
137D
330
1378
100
AcDbEntity
  8
MODEL
 62
     0
370
    -2
100
AcDbLine
 10
216.1781490651779
 20
148.0816167402309
 30
0.0
 11
277.1935373227535
 21
148.0816167402309
 31
0.0
  0
INSERT
  5
137E
330
1378
100
AcDbEntity
  8
MODEL
 62
     0
370
    -2
100
AcDbBlockReference
  2
_DOT
 10
214.1781490651779
 20
148.0816167402309
 30
0.0
 41
2.0
 42
2.0
 43
2.0
 50
180.0
  0
INSERT
  5
137F
330
1378
100
AcDbEntity
  8
MODEL
 62
     0
370
    -2
100
AcDbBlockReference
  2
_DOT
 10
279.1935373227535
 20
148.0816167402309
 30
0.0
 41
2.0
 42
2.0
 43
2.0
  0
MTEXT
  5
1380
330
1378
100
AcDbEntity
  8
MODEL
 62
     0
100
AcDbMText
 10
246.6858431939657
 20
156.0816167402309
 30
0.0
 40
6.0
 41
0.0
 46
0.0
 71
     5
 72
     1
  1
\A1;65
  7
ＭＳ ゴシック
 73
     1
 44
1.0
  0
POINT
  5
1381
330
1378
100
AcDbEntity
  8
Defpoints
 62
     0
100
AcDbPoint
 10
214.1781490651779
 20
281.5584932549572
 30
0.0
  0
POINT
  5
1382
330
1378
100
AcDbEntity
  8
Defpoints
 62
     0
100
AcDbPoint
 10
279.1935373227535
 20
259.3032257360178
 30
0.0
  0
POINT
  5
1383
330
1378
100
AcDbEntity
  8
Defpoints
 62
     0
100
AcDbPoint
 10
279.1935373227535
 20
148.0816167402309
 30
0.0
  0
ENDBLK
  5
137A
330
1378
100
AcDbEntity
  8
0
100
AcDbBlockEnd
  0
BLOCK
  5
193E
330
193D
100
AcDbEntity
  8
0
100
AcDbBlockBegin
  2
*D15
 70
     1
 10
0.0
 20
0.0
 30
0.0
  3
*D15
  1
*D16
  0
LINE
  5
1940
330
193D
100
AcDbEntity
  8
MODEL
 62
     0
370
    -2
100
AcDbLine
 10
1066.559439528824
 20
191.5327126030875
 30
0.0
 11
1185.016728732766
 21
191.5327126030875
 31
0.0
  0
LINE
  5
1941
330
193D
100
AcDbEntity
  8
MODEL
 62
     0
370
    -2
100
AcDbLine
 10
1066.559439528824
 20
141.5327126030876
 30
0.0
 11
1185.016728732766
 21
141.5327126030876
 31
0.0
  0
LINE
  5
1942
330
193D
100
AcDbEntity
  8
MODEL
 62
     0
370
    -2
100
AcDbLine
 10
1185.016728732766
 20
189.5327126030875
 30
0.0
 11
1185.016728732766
 21
143.5327126030876
 31
0.0
  0
INSERT
  5
1943
330
193D
100
AcDbEntity
  8
MODEL
 62
     0
370
    -2
100
AcDbBlockReference
  2
_DOT
 10
1185.016728732766
 20
191.5327126030875
 30
0.0
 41
2.0
 42
2.0
 43
2.0
 50
90.0
  0
INSERT
  5
1944
330
193D
100
AcDbEntity
  8
MODEL
 62
     0
370
    -2
100
AcDbBlockReference
  2
_DOT
 10
1185.016728732766
 20
141.5327126030876
 30
0.0
 41
2.0
 42
2.0
 43
2.0
 50
270.0
  0
MTEXT
  5
1945
330
193D
100
AcDbEntity
  8
MODEL
 62
     0
100
AcDbMText
 10
1177.016728732766
 20
166.5327126030876
 30
0.0
 40
6.0
 41
0.0
 46
0.0
 71
     5
 72
     1
  1
\A1;50
  7
ＭＳ ゴシック
 11
0.0
 21
1.0
 31
0.0
 73
     1
 44
1.0
  0
POINT
  5
1946
330
193D
100
AcDbEntity
  8
Defpoints
 62
     0
100
AcDbPoint
 10
1061.559439528824
 20
191.5327126030875
 30
0.0
  0
POINT
  5
1947
330
193D
100
AcDbEntity
  8
Defpoints
 62
     0
100
AcDbPoint
 10
1061.559439528824
 20
141.5327126030876
 30
0.0
  0
POINT
  5
1948
330
193D
100
AcDbEntity
  8
Defpoints
 62
     0
100
AcDbPoint
 10
1185.016728732766
 20
141.5327126030876
 30
0.0
  0
ENDBLK
  5
193F
330
193D
100
AcDbEntity
  8
0
100
AcDbBlockEnd
  0
BLOCK
  5
197E
330
197D
100
AcDbEntity
  8
0
100
AcDbBlockBegin
  2
SEANNOT_GROUP
 70
     0
 10
0.0
 20
0.0
 30
0.0
  3
SEANNOT_GROUP
  1
SEANNOT_GROUP
  0
LWPOLYLINE
  5
197F
330
197D
100
AcDbEntity
  8
Default
  6
Continuous
 62
     7
 48
25.4
100
AcDbPolyline
 90
        2
 70
     0
 43
0.0
 10
156.4067678458
 20
177.8814791591
 10
172.7581404707
 20
161.8989255155
  0
HATCH
  5
1980
330
197D
100
AcDbEntity
  8
Default
  6
Continuous
 62
   136
 48
25.4
100
AcDbHatch
 10
0.0
 20
0.0
 30
0.0
210
0.0
220
0.0
230
1.0
  2
SOLID
 70
     1
 71
     0
 91
        1
 92
        1
 93
        3
 72
     1
 10
167.768389264135
 20
165.3777735345999
 11
172.7581404706789
 21
161.8989255154954
 72
     1
 10
172.7581404706789
 20
161.8989255154954
 11
169.1663805787929
 21
166.8080253843382
 72
     1
 10
169.1663805787929
 20
166.8080253843382
 11
167.768389264135
 21
165.3777735345999
 97
        0
 75
     0
 76
     1
 98
        0
  0
LWPOLYLINE
  5
1981
330
197D
100
AcDbEntity
  8
Default
  6
Continuous
 62
   136
 48
25.4
370
    30
100
AcDbPolyline
 90
        4
 70
     1
 43
0.00035
 10
167.7683892641
 20
165.3777735346
 10
172.7581404707
 20
161.8989255155
 10
169.1663805788
 20
166.8080253843
 10
167.7683892641
 20
165.3777735346
  0
LINE
  5
1982
330
197D
100
AcDbEntity
  8
Default
  6
Continuous
 62
     7
 48
25.4
100
AcDbLine
 10
156.4067678458
 20
177.8814791591
 30
0.0
 11
123.2763330632
 21
177.8814791591
 31
0.0
  0
TEXT
  5
1983
330
197D
100
AcDbEntity
  8
Default
  6
Continuous
 62
     7
 48
25.4
100
AcDbText
 10
123.2763330632
 20
179.3814791591
 30
0.0
 40
6.0
  1
2000mm
  7
SEACAD_arial_ttf
 11
123.2763330632
 21
185.3814791591
 31
0.0
100
AcDbText
 73
     3
  0
ENDBLK
  5
1984
330
197D
100
AcDbEntity
  8
0
100
AcDbBlockEnd
  0
BLOCK
  5
1987
330
1986
100
AcDbEntity
  8
0
100
AcDbBlockBegin
  2
SE
 70
     0
 10
0.0
 20
0.0
 30
0.0
  3
SE
  1
SE
  0
LINE
  5
1988
330
1986
100
AcDbEntity
  8
DV1_デフォルト
  6
Continuous
 62
     7
 48
25.4
100
AcDbLine
 10
172.7581404707
 20
163.4220874539
 30
0.0
 11
172.7581404707
 21
160.4220874539
 31
0.0
  0
SPLINE
  5
1989
330
1986
100
AcDbEntity
  8
DV1_デフォルト
  6
Continuous
 62
     7
 48
25.4
100
AcDbSpline
210
0.0
220
0.0
230
1.0
 70
     8
 71
     3
 72
    18
 73
    14
 74
     0
 42
0.000000001
 43
0.0000000001
 40
0.0
 40
0.0
 40
0.0
 40
0.0
 40
0.0667950772613888
 40
0.0667950772613888
 40
0.2621221700450915
 40
0.2621221700450915
 40
0.4574492628287967
 40
0.4574492628287967
 40
0.6527763556124995
 40
0.6527763556124995
 40
0.8481034483962021
 40
0.8481034483962021
 40
1.0
 40
1.0
 40
1.0
 40
1.0
 10
22.76164058924729
 20
158.1248063887159
 30
0.0
 10
22.76138473458589
 20
158.2011230228009
 30
0.0
 10
22.83667943568241
 20
158.277439656886
 30
0.0
 10
23.43639957114996
 20
158.5769270226784
 30
0.0
 10
24.54275601154099
 20
158.8000977543857
 30
0.0
 10
27.56788211135785
 20
159.2464392178003
 30
0.0
 10
29.47475141311604
 20
159.4696099495076
 30
0.0
 10
33.20411044823635
 20
159.9159514129223
 30
0.0
 10
35.0119294852623
 20
160.1391221446295
 30
0.0
 10
37.6862011557122
 20
160.5854636080442
 30
0.0
 10
38.54213363614792
 20
160.8086343397515
 30
0.0
 10
38.85997795038887
 20
161.2053542912938
 30
0.0
 10
38.58868039311349
 20
161.3789035111287
 30
0.0
 10
37.96083813438456
 20
161.5524527309636
 30
0.0
  0
LINE
  5
198A
330
1986
100
AcDbEntity
  8
DV1_デフォルト
  6
Continuous
 62
     7
 48
25.4
100
AcDbLine
 10
22.7616404761
 20
158.1248417627
 30
0.0
 11
22.7616404761
 21
126.9232684861
 31
0.0
  0
LINE
  5
198B
330
1986
100
AcDbEntity
  8
DV1_デフォルト
  6
Continuous
 62
     7
 48
25.4
100
AcDbLine
 10
38.7565352566
 20
126.9232684861
 30
0.0
 11
38.7565352566
 21
161.121459744
 31
0.0
  0
SPLINE
  5
198C
330
1986
100
AcDbEntity
  8
DV1_デフォルト
  6
Continuous
 62
     7
 48
25.4
100
AcDbSpline
210
0.0
220
0.0
230
1.0
 70
     8
 71
     3
 72
    18
 73
    14
 74
     0
 42
0.000000001
 43
0.0000000001
 40
0.0
 40
0.0
 40
0.0
 40
0.0
 40
0.0419194089870521
 40
0.0419194089870521
 40
0.237091855774275
 40
0.237091855774275
 40
0.4322643025614928
 40
0.4322643025614928
 40
0.6274367493487105
 40
0.6274367493487105
 40
0.8226091961359334
 40
0.8226091961359334
 40
1.0
 40
1.0
 40
1.0
 40
1.0
 10
187.9613321885547
 20
166.8524330981887
 30
0.0
 10
188.1366774232997
 20
166.8045001787097
 30
0.0
 10
188.2848209877538
 20
166.7565672592306
 30
0.0
 10
188.9534748357899
 20
166.4854636080443
 30
0.0
 10
188.8509638496925
 20
166.2622928763369
 30
0.0
 10
187.3869880564993
 20
165.8159514129223
 30
0.0
 10
186.0312822938139
 20
165.592780681215
 30
0.0
 10
182.6930965476902
 20
165.1464392178004
 30
0.0
 10
180.7237484480244
 20
164.9232684860931
 30
0.0
 10
177.0861375559387
 20
164.4769270226784
 30
0.0
 10
175.4321845374731
 20
164.2537562909711
 30
0.0
 10
173.3123613353293
 20
163.8277473198085
 30
0.0
 10
172.7591943490727
 20
163.6249090803533
 30
0.0
 10
172.7581403831219
 20
163.422070840898
 30
0.0
  0
LINE
  5
198D
330
1986
100
AcDbEntity
  8
DV1_デフォルト
  6
Continuous
 62
     7
 48
25.4
100
AcDbLine
 10
188.7528316191
 20
102.9232684861
 30
0.0
 11
188.7528316191
 21
166.4240702678
 31
0.0
  0
LINE
  5
198E
330
1986
100
AcDbEntity
  8
DV1_デフォルト
  6
Continuous
 62
     7
 48
25.4
100
AcDbLine
 10
172.7581404707
 20
160.4220874539
 30
0.0
 11
172.7581404707
 21
102.9232684861
 31
0.0
  0
CIRCLE
  5
1991
330
1986
100
AcDbEntity
  8
DV1_デフォルト
  6
CENTER2
 62
     7
 48
25.4
100
AcDbCircle
 10
105.7576010798
 20
202.4232684861
 30
0.0
 40
75.0
  0
LINE
  5
1992
330
1986
100
AcDbEntity
  8
DV1_デフォルト
  6
CENTER2
 62
     7
 48
25.4
100
AcDbLine
 10
180.7576010798
 20
202.4232684861
 30
0.0
 11
180.7576010798
 21
164.9233124217
 31
0.0
  0
LINE
  5
1993
330
1986
100
AcDbEntity
  8
DV1_デフォルト
  6
CENTER2
 62
     7
 48
25.4
100
AcDbLine
 10
30.7576010798
 20
202.4232684861
 30
0.0
 11
30.7576010798
 21
159.6232503116
 31
0.0
  0
LINE
  5
1994
330
1986
100
AcDbEntity
  8
DV1_デフォルト
  6
Continuous
 62
     7
 48
25.4
100
AcDbLine
 10
169.7576010798
 20
102.9232684861
 30
0.0
 11
169.0156824177
 21
90.5579574505
 31
0.0
  0
LINE
  5
1995
330
1986
100
AcDbEntity
  8
DV1_デフォルト
  6
Continuous
 62
     7
 48
25.4
100
AcDbLine
 10
192.2576010798
 20
77.7232684861
 30
0.0
 11
192.2576010798
 21
81.0490053922
 31
0.0
  0
LINE
  5
1996
330
1986
100
AcDbEntity
  8
DV1_デフォルト
  6
Continuous
 62
     7
 48
25.4
100
AcDbLine
 10
169.3925020316
 20
89.7239110867
 30
0.0
 11
168.7576010798
 21
88.6242303804
 31
0.0
  0
LINE
  5
1997
330
1986
100
AcDbEntity
  8
DV1_デフォルト
  6
Continuous
 62
     7
 48
25.4
100
AcDbLine
 10
192.122700128
 20
81.6226258855
 30
0.0
 11
192.7576010798
 21
82.7223065918
 31
0.0
  0
LINE
  5
1998
330
1986
100
AcDbEntity
  8
DV1_デフォルト
  6
Continuous
 62
     7
 48
25.4
100
AcDbLine
 10
191.9576010798
 20
77.4232684861
 30
0.0
 11
169.5576010798
 21
77.4232684861
 31
0.0
  0
LINE
  5
1999
330
1986
100
AcDbEntity
  8
DV1_デフォルト
  6
Continuous
 62
     7
 48
25.4
100
AcDbLine
 10
192.2576010798
 20
77.7232684861
 30
0.0
 11
169.2576010798
 21
77.7232684861
 31
0.0
  0
LINE
  5
199A
330
1986
100
AcDbEntity
  8
DV1_デフォルト
  6
Continuous
 62
     7
 48
25.4
100
AcDbLine
 10
192.1703757148
 20
90.0860431211
 30
0.0
 11
192.4121903226
 21
90.3278577289
 31
0.0
  0
ARC
  5
199B
330
1986
100
AcDbEntity
  8
DV1_デフォルト
  6
Continuous
 62
     7
 48
25.4
100
AcDbCircle
 10
169.3151438713
 20
90.5399897633
 30
0.0
 40
0.3
100
AcDbArc
 50
176.5663696375
 51
225.0
  0
ARC
  5
199C
330
1986
100
AcDbEntity
  8
DV1_デフォルト
  6
Continuous
 62
     7
 48
25.4
100
AcDbCircle
 10
169.1326944105
 20
81.4726258855
 30
0.0
 40
0.300000000000007
100
AcDbArc
 50
315.0868474272
 51
30.0
  0
ARC
  5
199D
330
1986
100
AcDbEntity
  8
DV1_デフォルト
  6
Continuous
 62
     7
 48
25.4
100
AcDbCircle
 10
192.3825077491
 20
89.8739110867
 30
0.0
 40
0.2999999999999916
100
AcDbArc
 50
135.0
 51
210.0
  0
LINE
  5
199E
330
1986
100
AcDbEntity
  8
DV1_デフォルト
  6
Continuous
 62
     7
 48
25.4
100
AcDbLine
 10
192.2576010798
 20
81.0490053922
 30
0.0
 11
169.2576010798
 21
81.0490053922
 31
0.0
  0
LINE
  5
199F
330
1986
100
AcDbEntity
  8
DV1_デフォルト
  6
Continuous
 62
     7
 48
25.4
100
AcDbLine
 10
192.1700544145
 20
81.2608156388
 30
0.0
 11
169.3451477451
 21
81.2608156388
 31
0.0
  0
ARC
  5
19A0
330
1986
100
AcDbEntity
  8
DV1_デフォルト
  6
Continuous
 62
     7
 48
25.4
100
AcDbCircle
 10
169.5576010798
 20
81.0490053922
 30
0.0
 40
0.2999999999999928
100
AcDbArc
 50
135.0868474272
 51
180.0
  0
LINE
  5
19A1
330
1986
100
AcDbEntity
  8
DV1_デフォルト
  6
Continuous
 62
     7
 48
25.4
100
AcDbLine
 10
192.1703757148
 20
90.0860431211
 30
0.0
 11
169.3448264448
 21
90.0860431211
 31
0.0
  0
LINE
  5
19A2
330
1986
100
AcDbEntity
  8
DV1_デフォルト
  6
Continuous
 62
     7
 48
25.4
100
AcDbLine
 10
192.122700128
 20
89.7239110867
 30
0.0
 11
169.3925020316
 21
89.7239110867
 31
0.0
  0
ARC
  5
19A3
330
1986
100
AcDbEntity
  8
DV1_デフォルト
  6
Continuous
 62
     7
 48
25.4
100
AcDbCircle
 10
169.5576010798
 20
77.7232684861
 30
0.0
 40
0.2999999999999999
100
AcDbArc
 50
180.0
 51
270.0
  0
LINE
  5
19A4
330
1986
100
AcDbEntity
  8
DV1_デフォルト
  6
Continuous
 62
     7
 48
25.4
100
AcDbLine
 10
192.4995197419
 20
90.5579574505
 30
0.0
 11
191.7576010798
 21
102.9232684861
 31
0.0
  0
LINE
  5
19A5
330
1986
100
AcDbEntity
  8
DV1_デフォルト
  6
Continuous
 62
     7
 48
25.4
100
AcDbLine
 10
192.4121903226
 20
90.3278577289
 30
0.0
 11
169.1030118369
 21
90.3278577289
 31
0.0
  0
LINE
  5
19A6
330
1986
100
AcDbEntity
  8
DV1_デフォルト
  6
Continuous
 62
     7
 48
25.4
100
AcDbLine
 10
192.4995197419
 20
90.5579574505
 30
0.0
 11
169.0156824177
 21
90.5579574505
 31
0.0
  0
LINE
  5
19A7
330
1986
100
AcDbEntity
  8
DV1_デフォルト
  6
Continuous
 62
     7
 48
25.4
100
AcDbLine
 10
192.122700128
 20
81.6226258855
 30
0.0
 11
169.3925020316
 21
81.6226258855
 31
0.0
  0
LINE
  5
19A8
330
1986
100
AcDbEntity
  8
DV1_デフォルト
  6
Continuous
 62
     7
 48
25.4
100
AcDbLine
 10
169.2576010798
 20
81.0490053922
 30
0.0
 11
169.2576010798
 21
77.7232684861
 31
0.0
  0
LINE
  5
19A9
330
1986
100
AcDbEntity
  8
DV1_デフォルト
  6
Continuous
 62
     7
 48
25.4
100
AcDbLine
 10
191.7576010798
 20
102.9232684861
 30
0.0
 11
169.7576010798
 21
102.9232684861
 31
0.0
  0
LINE
  5
19AA
330
1986
100
AcDbEntity
  8
DV1_デフォルト
  6
Continuous
 62
     7
 48
25.4
100
AcDbLine
 10
192.7576010798
 20
88.6242303804
 30
0.0
 11
192.122700128
 21
89.7239110867
 31
0.0
  0
LINE
  5
19AB
330
1986
100
AcDbEntity
  8
DV1_デフォルト
  6
Continuous
 62
     7
 48
25.4
100
AcDbLine
 10
168.7576010798
 20
82.7223065918
 30
0.0
 11
169.3925020316
 21
81.6226258855
 31
0.0
  0
LINE
  5
19AC
330
1986
100
AcDbEntity
  8
DV1_デフォルト
  6
Continuous
 62
     7
 48
25.4
100
AcDbLine
 10
169.1030118369
 20
90.3278577289
 30
0.0
 11
169.3448264448
 21
90.0860431211
 31
0.0
  0
ARC
  5
19AD
330
1986
100
AcDbEntity
  8
DV1_デフォルト
  6
Continuous
 62
     7
 48
25.4
100
AcDbCircle
 10
192.2000582883
 20
90.5399897633
 30
0.0
 40
0.3000000000000017
100
AcDbArc
 50
315.0
 51
3.4336303625
  0
ARC
  5
19AE
330
1986
100
AcDbEntity
  8
DV1_デフォルト
  6
Continuous
 62
     7
 48
25.4
100
AcDbCircle
 10
169.1326944105
 20
89.8739110867
 30
0.0
 40
0.3000000000000017
100
AcDbArc
 50
330.0
 51
45.0
  0
ARC
  5
19AF
330
1986
100
AcDbEntity
  8
DV1_デフォルト
  6
Continuous
 62
     7
 48
25.4
100
AcDbCircle
 10
191.9576010798
 20
81.0490053922
 30
0.0
 40
0.2999999999999999
100
AcDbArc
 50
0.0
 51
44.9131525728
  0
ARC
  5
19B0
330
1986
100
AcDbEntity
  8
DV1_デフォルト
  6
Continuous
 62
     7
 48
25.4
100
AcDbCircle
 10
191.9576010798
 20
77.7232684861
 30
0.0
 40
0.2999999999999947
100
AcDbArc
 50
270.0
 51
360.0
  0
ARC
  5
19B1
330
1986
100
AcDbEntity
  8
DV1_デフォルト
  6
Continuous
 62
     7
 48
25.4
100
AcDbCircle
 10
192.3825077491
 20
81.4726258855
 30
0.0
 40
0.2999999999999928
100
AcDbArc
 50
150.0
 51
224.9131525728
  0
HATCH
  5
19B2
330
1986
100
AcDbEntity
  8
0
  6
Continuous
 62
     7
 48
25.4
100
AcDbHatch
 10
0.0
 20
0.0
 30
0.0
210
0.0
220
0.0
230
1.0
  2
LINE
 70
     0
 71
     0
 91
        1
 92
        1
 93
        4
 72
     1
 10
168.7576010797892
 20
88.62423038041639
 11
168.7576010797892
 21
82.72230659176968
 72
     1
 10
168.7576010797893
 20
82.72230659176968
 11
192.7576010797892
 21
82.72230659176968
 72
     1
 10
192.7576010797892
 20
82.72230659176968
 11
192.7576010797892
 21
88.62423038041639
 72
     1
 10
192.7576010797891
 20
88.62423038041639
 11
168.7576010797892
 21
88.62423038041634
 97
        0
 75
     0
 76
     2
 52
90.0
 41
0.3937007874
 77
     0
 78
     1
 53
90.0
 43
0.0
 44
0.0
 45
-1.25
 46
0.0000000000000001
 79
     0
 98
        0
  0
LWPOLYLINE
  5
19B3
330
1986
100
AcDbEntity
  8
0
  6
Continuous
 62
     7
 48
25.4
100
AcDbPolyline
 90
        5
 70
     1
 43
0.0
 10
168.7576010798
 20
88.6242303804
 10
168.7576010798
 20
82.7223065918
 10
192.7576010798
 20
82.7223065918
 10
192.7576010798
 20
88.6242303804
 10
168.7576010798
 20
88.6242303804
  0
LINE
  5
19B4
330
1986
100
AcDbEntity
  8
DV1_デフォルト
  6
Continuous
 62
     7
 48
25.4
100
AcDbLine
 10
168.7576010798
 20
88.6242303804
 30
0.0
 11
168.7576010798
 21
82.7223065918
 31
0.0
  0
LINE
  5
19B5
330
1986
100
AcDbEntity
  8
DV1_デフォルト
  6
Continuous
 62
     7
 48
25.4
100
AcDbLine
 10
192.7576010798
 20
82.7223065918
 30
0.0
 11
168.7576010798
 21
82.7223065918
 31
0.0
  0
LINE
  5
19B6
330
1986
100
AcDbEntity
  8
DV1_デフォルト
  6
Continuous
 62
     7
 48
25.4
100
AcDbLine
 10
192.7576010798
 20
82.7223065918
 30
0.0
 11
192.7576010798
 21
88.6242303804
 31
0.0
  0
LINE
  5
19B7
330
1986
100
AcDbEntity
  8
DV1_デフォルト
  6
Continuous
 62
     7
 48
25.4
100
AcDbLine
 10
192.7576010798
 20
88.6242303804
 30
0.0
 11
168.7576010798
 21
88.6242303804
 31
0.0
  0
LINE
  5
19B9
330
1986
100
AcDbEntity
  8
DV1_デフォルト
  6
Continuous
 62
     7
 48
25.4
100
AcDbLine
 10
23.5116404761
 20
127.1732684861
 30
0.0
 11
38.0065352566
 21
129.7291095184
 31
0.0
  0
LINE
  5
19BA
330
1986
100
AcDbEntity
  8
DV1_デフォルト
  6
Continuous
 62
     7
 48
25.4
100
AcDbLine
 10
23.5116404761
 20
127.1732684861
 30
0.0
 11
23.5116404761
 21
129.9232684861
 31
0.0
  0
LINE
  5
19BB
330
1986
100
AcDbEntity
  8
DV1_デフォルト
  6
Continuous
 62
     7
 48
25.4
100
AcDbLine
 10
23.5116404761
 20
129.9232684861
 30
0.0
 11
38.0065352566
 21
132.4791095184
 31
0.0
  0
LINE
  5
19BC
330
1986
100
AcDbEntity
  8
DV1_デフォルト
  6
Continuous
 62
     7
 48
25.4
100
AcDbLine
 10
38.0065352566
 20
129.7291095184
 30
0.0
 11
38.0065352566
 21
132.4791095184
 31
0.0
  0
LINE
  5
19BD
330
1986
100
AcDbEntity
  8
DV1_デフォルト
  6
Continuous
 62
     7
 48
25.4
100
AcDbLine
 10
23.5116404761
 20
132.6732684861
 30
0.0
 11
38.0065352566
 21
135.2291095184
 31
0.0
  0
LINE
  5
19BE
330
1986
100
AcDbEntity
  8
DV1_デフォルト
  6
Continuous
 62
     7
 48
25.4
100
AcDbLine
 10
23.5116404761
 20
132.6732684861
 30
0.0
 11
23.5116404761
 21
135.4232684861
 31
0.0
  0
LINE
  5
19BF
330
1986
100
AcDbEntity
  8
DV1_デフォルト
  6
Continuous
 62
     7
 48
25.4
100
AcDbLine
 10
23.5116404761
 20
135.4232684861
 30
0.0
 11
38.0065352566
 21
137.9791095184
 31
0.0
  0
LINE
  5
19C0
330
1986
100
AcDbEntity
  8
DV1_デフォルト
  6
Continuous
 62
     7
 48
25.4
100
AcDbLine
 10
38.0065352566
 20
135.2291095184
 30
0.0
 11
38.0065352566
 21
137.9791095184
 31
0.0
  0
LINE
  5
19C1
330
1986
100
AcDbEntity
  8
DV1_デフォルト
  6
Continuous
 62
     7
 48
25.4
100
AcDbLine
 10
23.5116404761
 20
138.1732684861
 30
0.0
 11
38.0065352566
 21
140.7291095184
 31
0.0
  0
LINE
  5
19C2
330
1986
100
AcDbEntity
  8
DV1_デフォルト
  6
Continuous
 62
     7
 48
25.4
100
AcDbLine
 10
23.5116404761
 20
138.1732684861
 30
0.0
 11
23.5116404761
 21
140.9232684861
 31
0.0
  0
LINE
  5
19C3
330
1986
100
AcDbEntity
  8
DV1_デフォルト
  6
Continuous
 62
     7
 48
25.4
100
AcDbLine
 10
23.5116404761
 20
140.9232684861
 30
0.0
 11
38.0065352566
 21
143.4791095184
 31
0.0
  0
LINE
  5
19C4
330
1986
100
AcDbEntity
  8
DV1_デフォルト
  6
Continuous
 62
     7
 48
25.4
100
AcDbLine
 10
38.0065352566
 20
140.7291095184
 30
0.0
 11
38.0065352566
 21
143.4791095184
 31
0.0
  0
LINE
  5
19C5
330
1986
100
AcDbEntity
  8
DV1_デフォルト
  6
Continuous
 62
     7
 48
25.4
100
AcDbLine
 10
23.5116404761
 20
143.6732684861
 30
0.0
 11
38.0065352566
 21
146.2291095184
 31
0.0
  0
LINE
  5
19C6
330
1986
100
AcDbEntity
  8
DV1_デフォルト
  6
Continuous
 62
     7
 48
25.4
100
AcDbLine
 10
23.5116404761
 20
143.6732684861
 30
0.0
 11
23.5116404761
 21
146.4232684861
 31
0.0
  0
LINE
  5
19C7
330
1986
100
AcDbEntity
  8
DV1_デフォルト
  6
Continuous
 62
     7
 48
25.4
100
AcDbLine
 10
23.5116404761
 20
146.4232684861
 30
0.0
 11
38.0065352566
 21
148.9791095184
 31
0.0
  0
LINE
  5
19C8
330
1986
100
AcDbEntity
  8
DV1_デフォルト
  6
Continuous
 62
     7
 48
25.4
100
AcDbLine
 10
38.0065352566
 20
146.2291095184
 30
0.0
 11
38.0065352566
 21
148.9791095184
 31
0.0
  0
LINE
  5
19C9
330
1986
100
AcDbEntity
  8
DV1_デフォルト
  6
Continuous
 62
     7
 48
25.4
100
AcDbLine
 10
23.5116404761
 20
149.1732684861
 30
0.0
 11
38.0065352566
 21
151.7291095184
 31
0.0
  0
LINE
  5
19CA
330
1986
100
AcDbEntity
  8
DV1_デフォルト
  6
Continuous
 62
     7
 48
25.4
100
AcDbLine
 10
23.5116404761
 20
149.1732684861
 30
0.0
 11
23.5116404761
 21
151.9232684861
 31
0.0
  0
LINE
  5
19CB
330
1986
100
AcDbEntity
  8
DV1_デフォルト
  6
Continuous
 62
     7
 48
25.4
100
AcDbLine
 10
23.5116404761
 20
151.9232684861
 30
0.0
 11
38.0065352566
 21
154.4791095184
 31
0.0
  0
LINE
  5
19CC
330
1986
100
AcDbEntity
  8
DV1_デフォルト
  6
Continuous
 62
     7
 48
25.4
100
AcDbLine
 10
38.0065352566
 20
151.7291095184
 30
0.0
 11
38.0065352566
 21
154.4791095184
 31
0.0
  0
LINE
  5
19CD
330
1986
100
AcDbEntity
  8
DV1_デフォルト
  6
Continuous
 62
     7
 48
25.4
100
AcDbLine
 10
23.5116404761
 20
154.6732684861
 30
0.0
 11
38.0065352566
 21
157.2291095184
 31
0.0
  0
LINE
  5
19CE
330
1986
100
AcDbEntity
  8
DV1_デフォルト
  6
Continuous
 62
     7
 48
25.4
100
AcDbLine
 10
23.5116404761
 20
154.6732684861
 30
0.0
 11
23.5116404761
 21
157.4232684861
 31
0.0
  0
LINE
  5
19CF
330
1986
100
AcDbEntity
  8
DV1_デフォルト
  6
Continuous
 62
     7
 48
25.4
100
AcDbLine
 10
23.5116404761
 20
157.4232684861
 30
0.0
 11
38.0065352566
 21
159.9791095184
 31
0.0
  0
LINE
  5
19D0
330
1986
100
AcDbEntity
  8
DV1_デフォルト
  6
Continuous
 62
     7
 48
25.4
100
AcDbLine
 10
38.0065352566
 20
157.2291095184
 30
0.0
 11
38.0065352566
 21
159.9791095184
 31
0.0
  0
LINE
  5
19D1
330
1986
100
AcDbEntity
  8
DV1_デフォルト
  6
Continuous
 62
     7
 48
25.4
100
AcDbLine
 10
173.5116404761
 20
103.1732684861
 30
0.0
 11
188.0065352566
 21
105.7291095184
 31
0.0
  0
LINE
  5
19D2
330
1986
100
AcDbEntity
  8
DV1_デフォルト
  6
Continuous
 62
     7
 48
25.4
100
AcDbLine
 10
173.5116404761
 20
103.1732684861
 30
0.0
 11
173.5116404761
 21
105.9232684861
 31
0.0
  0
LINE
  5
19D3
330
1986
100
AcDbEntity
  8
DV1_デフォルト
  6
Continuous
 62
     7
 48
25.4
100
AcDbLine
 10
173.5116404761
 20
105.9232684861
 30
0.0
 11
188.0065352566
 21
108.4791095184
 31
0.0
  0
LINE
  5
19D4
330
1986
100
AcDbEntity
  8
DV1_デフォルト
  6
Continuous
 62
     7
 48
25.4
100
AcDbLine
 10
188.0065352566
 20
105.7291095184
 30
0.0
 11
188.0065352566
 21
108.4791095184
 31
0.0
  0
LINE
  5
19D5
330
1986
100
AcDbEntity
  8
DV1_デフォルト
  6
Continuous
 62
     7
 48
25.4
100
AcDbLine
 10
173.5116404761
 20
108.6732684861
 30
0.0
 11
188.0065352566
 21
111.2291095184
 31
0.0
  0
LINE
  5
19D6
330
1986
100
AcDbEntity
  8
DV1_デフォルト
  6
Continuous
 62
     7
 48
25.4
100
AcDbLine
 10
173.5116404761
 20
108.6732684861
 30
0.0
 11
173.5116404761
 21
111.4232684861
 31
0.0
  0
LINE
  5
19D7
330
1986
100
AcDbEntity
  8
DV1_デフォルト
  6
Continuous
 62
     7
 48
25.4
100
AcDbLine
 10
173.5116404761
 20
111.4232684861
 30
0.0
 11
188.0065352566
 21
113.9791095184
 31
0.0
  0
LINE
  5
19D8
330
1986
100
AcDbEntity
  8
DV1_デフォルト
  6
Continuous
 62
     7
 48
25.4
100
AcDbLine
 10
188.0065352566
 20
111.2291095184
 30
0.0
 11
188.0065352566
 21
113.9791095184
 31
0.0
  0
LINE
  5
19D9
330
1986
100
AcDbEntity
  8
DV1_デフォルト
  6
Continuous
 62
     7
 48
25.4
100
AcDbLine
 10
173.5116404761
 20
114.1732684861
 30
0.0
 11
188.0065352566
 21
116.7291095184
 31
0.0
  0
LINE
  5
19DA
330
1986
100
AcDbEntity
  8
DV1_デフォルト
  6
Continuous
 62
     7
 48
25.4
100
AcDbLine
 10
173.5116404761
 20
114.1732684861
 30
0.0
 11
173.5116404761
 21
116.9232684861
 31
0.0
  0
LINE
  5
19DB
330
1986
100
AcDbEntity
  8
DV1_デフォルト
  6
Continuous
 62
     7
 48
25.4
100
AcDbLine
 10
173.5116404761
 20
116.9232684861
 30
0.0
 11
188.0065352566
 21
119.4791095184
 31
0.0
  0
LINE
  5
19DC
330
1986
100
AcDbEntity
  8
DV1_デフォルト
  6
Continuous
 62
     7
 48
25.4
100
AcDbLine
 10
188.0065352566
 20
116.7291095184
 30
0.0
 11
188.0065352566
 21
119.4791095184
 31
0.0
  0
LINE
  5
19DD
330
1986
100
AcDbEntity
  8
DV1_デフォルト
  6
Continuous
 62
     7
 48
25.4
100
AcDbLine
 10
173.5116404761
 20
119.6732684861
 30
0.0
 11
188.0065352566
 21
122.2291095184
 31
0.0
  0
LINE
  5
19DE
330
1986
100
AcDbEntity
  8
DV1_デフォルト
  6
Continuous
 62
     7
 48
25.4
100
AcDbLine
 10
173.5116404761
 20
119.6732684861
 30
0.0
 11
173.5116404761
 21
122.4232684861
 31
0.0
  0
LINE
  5
19DF
330
1986
100
AcDbEntity
  8
DV1_デフォルト
  6
Continuous
 62
     7
 48
25.4
100
AcDbLine
 10
173.5116404761
 20
122.4232684861
 30
0.0
 11
188.0065352566
 21
124.9791095184
 31
0.0
  0
LINE
  5
19E0
330
1986
100
AcDbEntity
  8
DV1_デフォルト
  6
Continuous
 62
     7
 48
25.4
100
AcDbLine
 10
188.0065352566
 20
122.2291095184
 30
0.0
 11
188.0065352566
 21
124.9791095184
 31
0.0
  0
LINE
  5
19E1
330
1986
100
AcDbEntity
  8
DV1_デフォルト
  6
Continuous
 62
     7
 48
25.4
100
AcDbLine
 10
173.5116404761
 20
125.1732684861
 30
0.0
 11
188.0065352566
 21
127.7291095184
 31
0.0
  0
LINE
  5
19E2
330
1986
100
AcDbEntity
  8
DV1_デフォルト
  6
Continuous
 62
     7
 48
25.4
100
AcDbLine
 10
173.5116404761
 20
125.1732684861
 30
0.0
 11
173.5116404761
 21
127.9232684861
 31
0.0
  0
LINE
  5
19E3
330
1986
100
AcDbEntity
  8
DV1_デフォルト
  6
Continuous
 62
     7
 48
25.4
100
AcDbLine
 10
173.5116404761
 20
127.9232684861
 30
0.0
 11
188.0065352566
 21
130.4791095184
 31
0.0
  0
LINE
  5
19E4
330
1986
100
AcDbEntity
  8
DV1_デフォルト
  6
Continuous
 62
     7
 48
25.4
100
AcDbLine
 10
188.0065352566
 20
127.7291095184
 30
0.0
 11
188.0065352566
 21
130.4791095184
 31
0.0
  0
LINE
  5
19E5
330
1986
100
AcDbEntity
  8
DV1_デフォルト
  6
Continuous
 62
     7
 48
25.4
100
AcDbLine
 10
173.5116404761
 20
130.6732684861
 30
0.0
 11
188.0065352566
 21
133.2291095184
 31
0.0
  0
LINE
  5
19E6
330
1986
100
AcDbEntity
  8
DV1_デフォルト
  6
Continuous
 62
     7
 48
25.4
100
AcDbLine
 10
173.5116404761
 20
130.6732684861
 30
0.0
 11
173.5116404761
 21
133.4232684861
 31
0.0
  0
LINE
  5
19E7
330
1986
100
AcDbEntity
  8
DV1_デフォルト
  6
Continuous
 62
     7
 48
25.4
100
AcDbLine
 10
173.5116404761
 20
133.4232684861
 30
0.0
 11
188.0065352566
 21
135.9791095184
 31
0.0
  0
LINE
  5
19E8
330
1986
100
AcDbEntity
  8
DV1_デフォルト
  6
Continuous
 62
     7
 48
25.4
100
AcDbLine
 10
188.0065352566
 20
133.2291095184
 30
0.0
 11
188.0065352566
 21
135.9791095184
 31
0.0
  0
LINE
  5
19E9
330
1986
100
AcDbEntity
  8
DV1_デフォルト
  6
Continuous
 62
     7
 48
25.4
100
AcDbLine
 10
173.5116404761
 20
136.1732684861
 30
0.0
 11
188.0065352566
 21
138.7291095184
 31
0.0
  0
LINE
  5
19EA
330
1986
100
AcDbEntity
  8
DV1_デフォルト
  6
Continuous
 62
     7
 48
25.4
100
AcDbLine
 10
173.5116404761
 20
136.1732684861
 30
0.0
 11
173.5116404761
 21
138.9232684861
 31
0.0
  0
LINE
  5
19EB
330
1986
100
AcDbEntity
  8
DV1_デフォルト
  6
Continuous
 62
     7
 48
25.4
100
AcDbLine
 10
173.5116404761
 20
138.9232684861
 30
0.0
 11
188.0065352566
 21
141.4791095184
 31
0.0
  0
LINE
  5
19EC
330
1986
100
AcDbEntity
  8
DV1_デフォルト
  6
Continuous
 62
     7
 48
25.4
100
AcDbLine
 10
188.0065352566
 20
138.7291095184
 30
0.0
 11
188.0065352566
 21
141.4791095184
 31
0.0
  0
LINE
  5
19ED
330
1986
100
AcDbEntity
  8
DV1_デフォルト
  6
Continuous
 62
     7
 48
25.4
100
AcDbLine
 10
173.5116404761
 20
141.6732684861
 30
0.0
 11
188.0065352566
 21
144.2291095184
 31
0.0
  0
LINE
  5
19EE
330
1986
100
AcDbEntity
  8
DV1_デフォルト
  6
Continuous
 62
     7
 48
25.4
100
AcDbLine
 10
173.5116404761
 20
141.6732684861
 30
0.0
 11
173.5116404761
 21
144.4232684861
 31
0.0
  0
LINE
  5
19EF
330
1986
100
AcDbEntity
  8
DV1_デフォルト
  6
Continuous
 62
     7
 48
25.4
100
AcDbLine
 10
173.5116404761
 20
144.4232684861
 30
0.0
 11
188.0065352566
 21
146.9791095184
 31
0.0
  0
LINE
  5
19F0
330
1986
100
AcDbEntity
  8
DV1_デフォルト
  6
Continuous
 62
     7
 48
25.4
100
AcDbLine
 10
188.0065352566
 20
144.2291095184
 30
0.0
 11
188.0065352566
 21
146.9791095184
 31
0.0
  0
LINE
  5
19F1
330
1986
100
AcDbEntity
  8
DV1_デフォルト
  6
Continuous
 62
     7
 48
25.4
100
AcDbLine
 10
173.5116404761
 20
147.1732684861
 30
0.0
 11
188.0065352566
 21
149.7291095184
 31
0.0
  0
LINE
  5
19F2
330
1986
100
AcDbEntity
  8
DV1_デフォルト
  6
Continuous
 62
     7
 48
25.4
100
AcDbLine
 10
173.5116404761
 20
147.1732684861
 30
0.0
 11
173.5116404761
 21
149.9232684861
 31
0.0
  0
LINE
  5
19F3
330
1986
100
AcDbEntity
  8
DV1_デフォルト
  6
Continuous
 62
     7
 48
25.4
100
AcDbLine
 10
173.5116404761
 20
149.9232684861
 30
0.0
 11
188.0065352566
 21
152.4791095184
 31
0.0
  0
LINE
  5
19F4
330
1986
100
AcDbEntity
  8
DV1_デフォルト
  6
Continuous
 62
     7
 48
25.4
100
AcDbLine
 10
188.0065352566
 20
149.7291095184
 30
0.0
 11
188.0065352566
 21
152.4791095184
 31
0.0
  0
LINE
  5
19F5
330
1986
100
AcDbEntity
  8
DV1_デフォルト
  6
Continuous
 62
     7
 48
25.4
100
AcDbLine
 10
173.5116404761
 20
152.6732684861
 30
0.0
 11
188.0065352566
 21
155.2291095184
 31
0.0
  0
LINE
  5
19F6
330
1986
100
AcDbEntity
  8
DV1_デフォルト
  6
Continuous
 62
     7
 48
25.4
100
AcDbLine
 10
173.5116404761
 20
152.6732684861
 30
0.0
 11
173.5116404761
 21
155.4232684861
 31
0.0
  0
LINE
  5
19F7
330
1986
100
AcDbEntity
  8
DV1_デフォルト
  6
Continuous
 62
     7
 48
25.4
100
AcDbLine
 10
173.5116404761
 20
155.4232684861
 30
0.0
 11
188.0065352566
 21
157.9791095184
 31
0.0
  0
LINE
  5
19F8
330
1986
100
AcDbEntity
  8
DV1_デフォルト
  6
Continuous
 62
     7
 48
25.4
100
AcDbLine
 10
188.0065352566
 20
155.2291095184
 30
0.0
 11
188.0065352566
 21
157.9791095184
 31
0.0
  0
LINE
  5
19F9
330
1986
100
AcDbEntity
  8
DV1_デフォルト
  6
Continuous
 62
     7
 48
25.4
100
AcDbLine
 10
173.5116404761
 20
158.1732684861
 30
0.0
 11
188.0065352566
 21
160.7291095184
 31
0.0
  0
LINE
  5
19FA
330
1986
100
AcDbEntity
  8
DV1_デフォルト
  6
Continuous
 62
     7
 48
25.4
100
AcDbLine
 10
173.5116404761
 20
158.1732684861
 30
0.0
 11
173.5116404761
 21
160.9232684861
 31
0.0
  0
LINE
  5
19FB
330
1986
100
AcDbEntity
  8
DV1_デフォルト
  6
Continuous
 62
     7
 48
25.4
100
AcDbLine
 10
173.5116404761
 20
160.9232684861
 30
0.0
 11
188.0065352566
 21
163.4791095184
 31
0.0
  0
LINE
  5
19FC
330
1986
100
AcDbEntity
  8
DV1_デフォルト
  6
Continuous
 62
     7
 48
25.4
100
AcDbLine
 10
188.0065352566
 20
160.7291095184
 30
0.0
 11
188.0065352566
 21
163.4791095184
 31
0.0
  0
LINE
  5
19FD
330
1986
100
AcDbEntity
  8
DV1_デフォルト
  6
Continuous
 62
     7
 48
25.4
100
AcDbLine
 10
18.0076010798
 20
87.9232684861
 30
0.0
 11
43.5076010798
 21
87.9232684861
 31
0.0
  0
LINE
  5
19FE
330
1986
100
AcDbEntity
  8
DV1_デフォルト
  6
Continuous
 62
     7
 48
25.4
100
AcDbLine
 10
18.0076010798
 20
75.4232684861
 30
0.0
 11
43.5076010798
 21
75.4232684861
 31
0.0
  0
LINE
  5
19FF
330
1986
100
AcDbEntity
  8
DV1_デフォルト
  6
Continuous
 62
     7
 48
25.4
100
AcDbLine
 10
18.0076010798
 20
87.9232684861
 30
0.0
 11
18.0076010798
 21
75.4232684861
 31
0.0
  0
LINE
  5
1A00
330
1986
100
AcDbEntity
  8
DV1_デフォルト
  6
Continuous
 62
     7
 48
25.4
100
AcDbLine
 10
43.5076010798
 20
75.4232684861
 30
0.0
 11
43.5076010798
 21
87.9232684861
 31
0.0
  0
LINE
  5
1A01
330
1986
100
AcDbEntity
  8
DV1_デフォルト
  6
Continuous
 62
     7
 48
25.4
100
AcDbLine
 10
18.2741462569
 20
88.238969273
 30
0.0
 11
43.2410559026
 21
88.238969273
 31
0.0
  0
LINE
  5
1A02
330
1986
100
AcDbEntity
  8
DV1_デフォルト
  6
Continuous
 62
     7
 48
25.4
100
AcDbLine
 10
20.8015044718
 20
126.9232684861
 30
0.0
 11
40.7136976878
 21
126.9232684861
 31
0.0
  0
LINE
  5
1A03
330
1986
100
AcDbEntity
  8
DV1_デフォルト
  6
Continuous
 62
     7
 48
25.4
100
AcDbLine
 10
20.2753364937
 20
126.4239537187
 30
0.0
 11
41.2398656659
 21
126.4239537187
 31
0.0
  0
LINE
  5
1A04
330
1986
100
AcDbEntity
  8
DV1_デフォルト
  6
Continuous
 62
     7
 48
25.4
100
AcDbLine
 10
43.2410559026
 20
88.238969273
 30
0.0
 11
41.2398656659
 21
126.4239537187
 31
0.0
  0
LINE
  5
1A05
330
1986
100
AcDbEntity
  8
DV1_デフォルト
  6
Continuous
 62
     7
 48
25.4
100
AcDbLine
 10
20.2753364937
 20
126.4239537187
 30
0.0
 11
18.2741462569
 21
88.238969273
 31
0.0
  0
ARC
  5
1A06
330
1986
100
AcDbEntity
  8
DV1_デフォルト
  6
Continuous
 62
     7
 48
25.4
100
AcDbCircle
 10
18.5737351174
 20
88.2232684861
 30
0.0
 40
0.3000000000000001
100
AcDbArc
 50
177.0
 51
270.0
  0
ARC
  5
1A07
330
1986
100
AcDbEntity
  8
DV1_デフォルト
  6
Continuous
 62
     7
 48
25.4
100
AcDbCircle
 10
42.9414670422
 20
88.2232684861
 30
0.0
 40
0.3000000000000017
100
AcDbArc
 50
270.0
 51
3.0
  0
LINE
  5
1A08
330
1986
100
AcDbEntity
  8
DV1_デフォルト
  6
Continuous
 62
     7
 48
25.4
100
AcDbLine
 10
41.2398656659
 20
126.4239537187
 30
0.0
 11
40.7136976878
 21
126.9232684861
 31
0.0
  0
LINE
  5
1A09
330
1986
100
AcDbEntity
  8
DV1_デフォルト
  6
Continuous
 62
     7
 48
25.4
100
AcDbLine
 10
20.8015044718
 20
126.9232684861
 30
0.0
 11
20.2753364937
 21
126.4239537187
 31
0.0
  0
ENDBLK
  5
1A0D
330
1986
100
AcDbEntity
  8
0
100
AcDbBlockEnd
  0
BLOCK
  5
1A10
330
1A0F
100
AcDbEntity
  8
0
100
AcDbBlockBegin
  2
GDimGGroup
 70
     0
 10
0.0
 20
0.0
 30
0.0
  3
GDimGGroup
  1
GDimGGroup
  0
HATCH
  5
1A11
330
1A0F
100
AcDbEntity
  8
Default
  6
Continuous
 62
   136
 48
25.4
100
AcDbHatch
 10
0.0
 20
0.0
 30
0.0
210
0.0
220
0.0
230
1.0
  2
SOLID
 70
     1
 71
     0
 91
        1
 92
        1
 93
        3
 72
     1
 10
164.2801010279182
 20
60.31487147041218
 11
170.2801010800722
 21
61.31487147910453
 72
     1
 10
170.2801010800722
 20
61.31487147910453
 11
164.2801010279182
 21
62.31487148779687
 72
     1
 10
164.2801010279182
 20
62.31487148779687
 11
164.2801010279182
 21
60.31487147041218
 97
        0
 75
     0
 76
     1
 98
        0
  0
LWPOLYLINE
  5
1A12
330
1A0F
100
AcDbEntity
  8
Default
  6
Continuous
 62
   136
 48
25.4
370
    30
100
AcDbPolyline
 90
        4
 70
     1
 43
0.00035
 10
164.2801010279
 20
60.3148714704
 10
170.2801010801
 20
61.3148714791
 10
164.2801010279
 20
62.3148714878
 10
164.2801010279
 20
60.3148714704
  0
HATCH
  5
1A13
330
1A0F
100
AcDbEntity
  8
Default
  6
Continuous
 62
   136
 48
25.4
100
AcDbHatch
 10
0.0
 20
0.0
 30
0.0
210
0.0
220
0.0
230
1.0
  2
SOLID
 70
     1
 71
     0
 91
        1
 92
        1
 93
        3
 72
     1
 10
197.235101126825
 20
60.31487147041218
 11
197.235101126825
 21
62.31487148779687
 72
     1
 10
197.235101126825
 20
62.31487148779687
 11
191.2351010746709
 21
61.31487147910453
 72
     1
 10
191.2351010746709
 20
61.31487147910453
 11
197.235101126825
 21
60.31487147041218
 97
        0
 75
     0
 76
     1
 98
        0
  0
LWPOLYLINE
  5
1A14
330
1A0F
100
AcDbEntity
  8
Default
  6
Continuous
 62
   136
 48
25.4
370
    30
100
AcDbPolyline
 90
        4
 70
     1
 43
0.00035
 10
197.2351011268
 20
60.3148714704
 10
191.2351010747
 20
61.3148714791
 10
197.2351011268
 20
62.3148714878
 10
197.2351011268
 20
60.3148714704
  0
LINE
  5
1A15
330
1A0F
100
AcDbEntity
  8
Default
  6
Continuous
 62
     7
 48
25.4
100
AcDbLine
 10
170.2801010801
 20
77.4232688735
 30
0.0
 11
170.2801010801
 21
58.314871453
 31
0.0
  0
LINE
  5
1A16
330
1A0F
100
AcDbEntity
  8
Default
  6
Continuous
 62
     7
 48
25.4
100
AcDbLine
 10
191.2351010747
 20
77.4232684861
 30
0.0
 11
191.2351010747
 21
58.314871453
 31
0.0
  0
LINE
  5
1A17
330
1A0F
100
AcDbEntity
  8
Default
  6
Continuous
 62
     7
 48
25.4
100
AcDbLine
 10
158.2801009758
 20
61.3148714791
 30
0.0
 11
170.2801010801
 21
61.3148714791
 31
0.0
  0
LINE
  5
1A18
330
1A0F
100
AcDbEntity
  8
Default
  6
Continuous
 62
     7
 48
25.4
100
AcDbLine
 10
191.2351010747
 20
61.3148714791
 30
0.0
 11
203.235101179
 21
61.3148714791
 31
0.0
  0
TEXT
  5
1A19
330
1A0F
100
AcDbEntity
  8
Default
  6
Continuous
 62
     7
 48
25.4
100
AcDbText
 10
170.2935502532
 20
58.31487147910001
 30
0.0
 40
6.0
  1
G 1/2
  7
SEACAD_arial_ttf
 11
170.2935502532
 21
64.3148714791
 31
0.0
100
AcDbText
 73
     3
  0
ENDBLK
  5
1A1A
330
1A0F
100
AcDbEntity
  8
0
100
AcDbBlockEnd
  0
BLOCK
  5
1A1D
330
1A1C
100
AcDbEntity
  8
0
100
AcDbBlockBegin
  2
GDimGGroup1
 70
     0
 10
0.0
 20
0.0
 30
0.0
  3
GDimGGroup1
  1
GDimGGroup1
  0
HATCH
  5
1A1E
330
1A1C
100
AcDbEntity
  8
Default
  6
Continuous
 62
   136
 48
25.4
100
AcDbHatch
 10
0.0
 20
0.0
 30
0.0
210
0.0
220
0.0
230
1.0
  2
SOLID
 70
     1
 71
     0
 91
        1
 92
        1
 93
        3
 72
     1
 10
16.7616404239111
 20
178.599445007105
 11
16.7616404239111
 21
176.5994449897203
 72
     1
 10
16.7616404239111
 20
176.5994449897203
 11
22.76164047606516
 21
177.5994449984127
 72
     1
 10
22.76164047606516
 20
177.5994449984127
 11
16.7616404239111
 21
178.599445007105
 97
        0
 75
     0
 76
     1
 98
        0
  0
LWPOLYLINE
  5
1A1F
330
1A1C
100
AcDbEntity
  8
Default
  6
Continuous
 62
   136
 48
25.4
370
    30
100
AcDbPolyline
 90
        4
 70
     1
 43
0.00035
 10
16.7616404239
 20
178.5994450071
 10
22.7616404761
 20
177.5994449984
 10
16.7616404239
 20
176.5994449897
 10
16.7616404239
 20
178.5994450071
  0
HATCH
  5
1A20
330
1A1C
100
AcDbEntity
  8
Default
  6
Continuous
 62
   136
 48
25.4
100
AcDbHatch
 10
0.0
 20
0.0
 30
0.0
210
0.0
220
0.0
230
1.0
  2
SOLID
 70
     1
 71
     0
 91
        1
 92
        1
 93
        3
 72
     1
 10
44.75653530874649
 20
178.599445007105
 11
38.75653525659242
 21
177.5994449984127
 72
     1
 10
38.75653525659242
 20
177.5994449984127
 11
44.75653530874649
 21
176.5994449897203
 72
     1
 10
44.75653530874649
 20
176.5994449897203
 11
44.75653530874649
 21
178.599445007105
 97
        0
 75
     0
 76
     1
 98
        0
  0
LWPOLYLINE
  5
1A21
330
1A1C
100
AcDbEntity
  8
Default
  6
Continuous
 62
   136
 48
25.4
370
    30
100
AcDbPolyline
 90
        4
 70
     1
 43
0.00035
 10
44.7565353087
 20
178.5994450071
 10
38.7565352566
 20
177.5994449984
 10
44.7565353087
 20
176.5994449897
 10
44.7565353087
 20
178.5994450071
  0
LINE
  5
1A22
330
1A1C
100
AcDbEntity
  8
Default
  6
Continuous
 62
     7
 48
25.4
100
AcDbLine
 10
22.7616404761
 20
158.1248417627
 30
0.0
 11
22.7616404761
 21
180.5994450245
 31
0.0
  0
LINE
  5
1A23
330
1A1C
100
AcDbEntity
  8
Default
  6
Continuous
 62
     7
 48
25.4
100
AcDbLine
 10
38.7565352566
 20
161.121459744
 30
0.0
 11
38.7565352566
 21
180.5994450245
 31
0.0
  0
LINE
  5
1A24
330
1A1C
100
AcDbEntity
  8
Default
  6
Continuous
 62
     7
 48
25.4
100
AcDbLine
 10
10.7616403718
 20
177.5994449984
 30
0.0
 11
22.7616404761
 21
177.5994449984
 31
0.0
  0
LINE
  5
1A25
330
1A1C
100
AcDbEntity
  8
Default
  6
Continuous
 62
     7
 48
25.4
100
AcDbLine
 10
38.7565352566
 20
177.5994449984
 30
0.0
 11
69.3836164273
 21
177.5994449984
 31
0.0
  0
TEXT
  5
1A26
330
1A1C
100
AcDbEntity
  8
Default
  6
Continuous
 62
     7
 48
25.4
100
AcDbText
 10
57.89231270410005
 20
179.0994449984
 30
0.0
 40
6.0
  1
16
  7
SEACAD_arial_ttf
 11
57.89231270410005
 21
185.0994449984
 31
0.0
100
AcDbText
 73
     3
  0
TEXT
  5
1A27
330
1A1C
100
AcDbEntity
  8
Default
  6
Continuous
 62
     7
 48
25.4
100
AcDbText
 10
46.85020744090002
 20
179.0994449984
 30
0.0
 40
6.0
  1
φ
  7
SEACAD_semeca1_ttf
 11
46.85020744090002
 21
185.0994449984
 31
0.0
100
AcDbText
 73
     3
  0
ENDBLK
  5
1A28
330
1A1C
100
AcDbEntity
  8
0
100
AcDbBlockEnd
  0
BLOCK
  5
1A2B
330
1A2A
100
AcDbEntity
  8
0
100
AcDbBlockBegin
  2
GDimGGroup2
 70
     0
 10
0.0
 20
0.0
 30
0.0
  3
GDimGGroup2
  1
GDimGGroup2
  0
HATCH
  5
1A2C
330
1A2A
100
AcDbEntity
  8
Default
  6
Continuous
 62
   136
 48
25.4
100
AcDbHatch
 10
0.0
 20
0.0
 30
0.0
210
0.0
220
0.0
230
1.0
  2
SOLID
 70
     1
 71
     0
 91
        1
 92
        1
 93
        3
 72
     1
 10
14.28010102763513
 20
59.36417639531749
 11
20.2801010797892
 21
60.36417640400983
 72
     1
 10
20.2801010797892
 20
60.36417640400983
 11
14.28010102763513
 21
61.36417641270218
 72
     1
 10
14.28010102763513
 20
61.36417641270218
 11
14.28010102763513
 21
59.36417639531749
 97
        0
 75
     0
 76
     1
 98
        0
  0
LWPOLYLINE
  5
1A2D
330
1A2A
100
AcDbEntity
  8
Default
  6
Continuous
 62
   136
 48
25.4
370
    30
100
AcDbPolyline
 90
        4
 70
     1
 43
0.00035
 10
14.2801010276
 20
59.3641763953
 10
20.2801010798
 20
60.364176404
 10
14.2801010276
 20
61.3641764127
 10
14.2801010276
 20
59.3641763953
  0
HATCH
  5
1A2E
330
1A2A
100
AcDbEntity
  8
Default
  6
Continuous
 62
   136
 48
25.4
100
AcDbHatch
 10
0.0
 20
0.0
 30
0.0
210
0.0
220
0.0
230
1.0
  2
SOLID
 70
     1
 71
     0
 91
        1
 92
        1
 93
        3
 72
     1
 10
47.23510113194326
 20
59.36417639531749
 11
47.23510113194326
 21
61.36417641270218
 72
     1
 10
47.23510113194326
 20
61.36417641270218
 11
41.2351010797892
 21
60.36417640400983
 72
     1
 10
41.2351010797892
 20
60.36417640400983
 11
47.23510113194326
 21
59.36417639531749
 97
        0
 75
     0
 76
     1
 98
        0
  0
LWPOLYLINE
  5
1A2F
330
1A2A
100
AcDbEntity
  8
Default
  6
Continuous
 62
   136
 48
25.4
370
    30
100
AcDbPolyline
 90
        4
 70
     1
 43
0.00035
 10
47.2351011319
 20
59.3641763953
 10
41.2351010798
 20
60.364176404
 10
47.2351011319
 20
61.3641764127
 10
47.2351011319
 20
59.3641763953
  0
LINE
  5
1A30
330
1A2A
100
AcDbEntity
  8
Default
  6
Continuous
 62
     7
 48
25.4
100
AcDbLine
 10
20.2801010798
 20
75.4232684861
 30
0.0
 11
20.2801010798
 21
57.3641763779
 31
0.0
  0
LINE
  5
1A31
330
1A2A
100
AcDbEntity
  8
Default
  6
Continuous
 62
     7
 48
25.4
100
AcDbLine
 10
41.2351010798
 20
75.4232684861
 30
0.0
 11
41.2351010798
 21
57.3641763779
 31
0.0
  0
LINE
  5
1A32
330
1A2A
100
AcDbEntity
  8
Default
  6
Continuous
 62
     7
 48
25.4
100
AcDbLine
 10
8.2801009755
 20
60.364176404
 30
0.0
 11
20.2801010798
 21
60.364176404
 31
0.0
  0
LINE
  5
1A33
330
1A2A
100
AcDbEntity
  8
Default
  6
Continuous
 62
     7
 48
25.4
100
AcDbLine
 10
41.2351010798
 20
60.364176404
 30
0.0
 11
53.2351011841
 21
60.364176404
 31
0.0
  0
TEXT
  5
1A34
330
1A2A
100
AcDbEntity
  8
Default
  6
Continuous
 62
     7
 48
25.4
100
AcDbText
 10
20.3958467245
 20
57.364176404
 30
0.0
 40
6.0
  1
G 1/2
  7
SEACAD_arial_ttf
 11
20.3958467245
 21
63.364176404
 31
0.0
100
AcDbText
 73
     3
  0
ENDBLK
  5
1A35
330
1A2A
100
AcDbEntity
  8
0
100
AcDbBlockEnd
  0
BLOCK
  5
1A42
330
1A41
100
AcDbEntity
  8
0
100
AcDbBlockBegin
  2
*D21
 70
     1
 10
0.0
 20
0.0
 30
0.0
  3
*D21
  1
*D22
  0
LINE
  5
1A44
330
1A41
100
AcDbEntity
  8
MODEL
 62
     0
370
    -2
100
AcDbLine
 10
567.023442457332
 20
320.6209615281056
 30
0.0
 11
567.023442457332
 21
336.0686948385954
 31
0.0
  0
LINE
  5
1A45
330
1A41
100
AcDbEntity
  8
MODEL
 62
     0
370
    -2
100
AcDbLine
 10
551.0285476768319
 20
320.6209615281056
 30
0.0
 11
551.0285476768319
 21
336.0686948385954
 31
0.0
  0
LINE
  5
1A46
330
1A41
100
AcDbEntity
  8
MODEL
 62
     0
370
    -2
100
AcDbLine
 10
569.023442457332
 20
336.0686948385954
 30
0.0
 11
571.023442457332
 21
336.0686948385954
 31
0.0
  0
LINE
  5
1A47
330
1A41
100
AcDbEntity
  8
MODEL
 62
     0
370
    -2
100
AcDbLine
 10
549.0285476768319
 20
336.0686948385954
 30
0.0
 11
547.0285476768319
 21
336.0686948385954
 31
0.0
  0
INSERT
  5
1A48
330
1A41
100
AcDbEntity
  8
MODEL
 62
     0
370
    -2
100
AcDbBlockReference
  2
_DOT
 10
567.023442457332
 20
336.0686948385954
 30
0.0
 41
2.0
 42
2.0
 43
2.0
 50
180.0
  0
INSERT
  5
1A49
330
1A41
100
AcDbEntity
  8
MODEL
 62
     0
370
    -2
100
AcDbBlockReference
  2
_DOT
 10
551.0285476768319
 20
336.0686948385954
 30
0.0
 41
2.0
 42
2.0
 43
2.0
  0
MTEXT
  5
1A4A
330
1A41
100
AcDbEntity
  8
MODEL
 62
     0
100
AcDbMText
 10
559.0259950670819
 20
344.0686948385954
 30
0.0
 40
6.0
 41
0.0
 46
0.0
 71
     5
 72
     1
  1
\A1;16
  7
ＭＳ ゴシック
 73
     1
 44
1.0
  0
POINT
  5
1A4B
330
1A41
100
AcDbEntity
  8
Defpoints
 62
     0
100
AcDbPoint
 10
567.023442457332
 20
315.6209615281056
 30
0.0
  0
POINT
  5
1A4C
330
1A41
100
AcDbEntity
  8
Defpoints
 62
     0
100
AcDbPoint
 10
551.0285476768319
 20
315.6209615281056
 30
0.0
  0
POINT
  5
1A4D
330
1A41
100
AcDbEntity
  8
Defpoints
 62
     0
100
AcDbPoint
 10
551.0285476768319
 20
336.0686948385954
 30
0.0
  0
ENDBLK
  5
1A43
330
1A41
100
AcDbEntity
  8
0
100
AcDbBlockEnd
  0
ENDSEC
  0
SECTION
  2
ENTITIES
  0
MTEXT
  5
177
330
A
100
AcDbEntity
  8
TEMPLATE
390
1D
100
AcDbMText
 10
15.84042890954615
 20
68.74635032628566
 30
0.0
 40
3.257682291666666
 41
0.0
 46
0.0
 71
     1
 72
     1
  1
品名
  7
ＭＳ ゴシック
 73
     1
 44
0.7828267384257843
  0
MTEXT
  5
178
330
A
100
AcDbEntity
  8
TEMPLATE
390
1D
100
AcDbMText
 10
15.84042890954615
 20
51.74635032628562
 30
0.0
 40
3.257682291666666
 41
0.0
 46
0.0
 71
     1
 72
     1
  1
仕様
  7
ＭＳ ゴシック
 73
     1
 44
0.7828267384257843
  0
LINE
  5
179
330
A
100
AcDbEntity
  8
TEMPLATE
390
1D
100
AcDbLine
 10
404.4404289094498
 20
53.4293347012857
 30
0.0
 11
14.44042890944975
 21
53.4293347012857
 31
0.0
  0
LWPOLYLINE
  5
17A
330
A
100
AcDbEntity
  8
TEMPLATE
390
1D
100
AcDbPolyline
 90
        5
 70
   128
 43
0.0
 10
404.4404289094498
 20
579.4293347012853
 10
14.44042890944975
 20
579.4293347012853
 10
14.44042890944975
 20
19.42933470128565
 10
404.4404289094498
 20
19.42933470128565
 10
404.4404289094498
 20
579.4293347012853
  0
LINE
  5
17B
330
A
100
AcDbEntity
  8
TEMPLATE
390
1D
100
AcDbLine
 10
404.4404289094498
 20
70.42933470128563
 30
0.0
 11
14.44042890944975
 21
70.42933470128563
 31
0.0
  0
LINE
  5
17C
330
A
100
AcDbEntity
  8
TEMPLATE
390
1D
100
AcDbLine
 10
404.4404289095462
 20
36.42933470128564
 30
0.0
 11
253.840428909546
 21
36.42933470128564
 31
0.0
  0
MTEXT
  5
17D
330
A
100
AcDbEntity
  8
TEMPLATE
390
1D
100
AcDbMText
 10
14.4404289095869
 20
17.05857028991423
 30
0.0
 40
4.343576388888888
 41
0.0
 46
4.343576388888888
 71
     1
 72
     1
  1
{150714SO}
  7
ＭＳ ゴシック
 73
     1
 44
0.7828267384257843
1001
ACAD
1000
ACAD_MTEXT_DEFINED_HEIGHT_BEGIN
1070
    46
1040
4.343576388888888
1000
ACAD_MTEXT_DEFINED_HEIGHT_END
  0
MTEXT
  5
17E
330
A
100
AcDbEntity
  8
TEMPLATE
390
1D
100
AcDbMText
 10
259.8147101599982
 20
30.44725580662402
 30
0.0
 40
4.8865234375
 41
0.0
 46
0.0
 71
     1
 72
     1
  1
大洋金物株式会社 ティーフォルム事業部
  7
ＭＳ ゴシック
 73
     1
 44
0.7828267384257843
  0
MTEXT
  5
180
330
A
100
AcDbEntity
  8
TEMPLATE
390
1D
100
AcDbMText
 10
366.240428909598
 20
46.02985813878562
 30
0.0
 40
4.8865234375
 41
0.0
 46
4.8865234375
 71
     1
 72
     1
  1
{1:2}
  7
ＭＳ ゴシック
 73
     1
 44
0.7828267384257843
1001
ACAD
1000
ACAD_MTEXT_DEFINED_HEIGHT_BEGIN
1070
    46
1040
4.8865234375
1000
ACAD_MTEXT_DEFINED_HEIGHT_END
  0
MTEXT
  5
181
330
A
100
AcDbEntity
  8
TEMPLATE
390
1D
100
AcDbMText
 10
355.640428909598
 20
51.74635032628562
 30
0.0
 40
3.257682291666666
 41
0.0
 46
0.0
 71
     1
 72
     1
  1
縮尺
  7
ＭＳ ゴシック
 73
     1
 44
0.7828267384257843
  0
LINE
  5
182
330
A
100
AcDbEntity
  8
TEMPLATE
390
1D
100
AcDbLine
 10
354.240428909598
 20
36.42933470128564
 30
0.0
 11
354.240428909598
 21
53.4293347012857
 31
0.0
  0
MTEXT
  5
183
330
A
100
AcDbEntity
  8
TEMPLATE
390
1D
100
AcDbMText
 10
305.440428909598
 20
51.74635032628562
 30
0.0
 40
3.257682291666666
 41
0.0
 46
0.0
 71
     1
 72
     1
  1
容量
  7
ＭＳ ゴシック
 73
     1
 44
0.7828267384257843
  0
LINE
  5
184
330
A
100
AcDbEntity
  8
TEMPLATE
390
1D
100
AcDbLine
 10
304.040428909598
 20
36.42933470128564
 30
0.0
 11
304.040428909598
 21
53.4293347012857
 31
0.0
  0
MTEXT
  5
185
330
A
100
AcDbEntity
  8
TEMPLATE
390
1D
100
AcDbMText
 10
255.240428909598
 20
68.74635032628566
 30
0.0
 40
3.257682291666666
 41
0.0
 46
0.0
 71
     1
 72
     1
  1
品番
  7
ＭＳ ゴシック
 73
     1
 44
0.7828267384257843
  0
MTEXT
  5
186
330
A
100
AcDbEntity
  8
TEMPLATE
390
1D
100
AcDbMText
 10
255.240428909598
 20
51.74635032628562
 30
0.0
 40
3.257682291666666
 41
0.0
 46
0.0
 71
     1
 72
     1
  1
重量
  7
ＭＳ ゴシック
 73
     1
 44
0.7828267384257843
  0
MTEXT
  5
187
330
A
100
AcDbEntity
  8
TEMPLATE
390
1D
100
AcDbMText
 10
265.840428909598
 20
63.02985813878564
 30
0.0
 40
4.8865234375
 41
0.0
 46
4.8865234375
 71
     1
 72
     1
  1
{FHT73-3321}
  7
ＭＳ ゴシック
 73
     1
 44
0.7828267384257843
1001
ACAD
1000
ACAD_MTEXT_DEFINED_HEIGHT_BEGIN
1070
    46
1040
4.8865234375
1000
ACAD_MTEXT_DEFINED_HEIGHT_END
  0
LINE
  5
188
330
A
100
AcDbEntity
  8
TEMPLATE
390
1D
100
AcDbLine
 10
253.840428909598
 20
19.42933470128565
 30
0.0
 11
253.840428909598
 21
70.42933470128563
 31
0.0
  0
MTEXT
  5
189
330
A
100
AcDbEntity
  8
TEMPLATE
390
1D
100
AcDbMText
 10
26.44042890954614
 20
63.02985813878564
 30
0.0
 40
4.8865234375
 41
0.0
 46
4.8865234375
 71
     1
 72
     1
  1
{シャワーホース　-GROHE-}
  7
ＭＳ ゴシック
 73
     1
 44
0.7828267384257843
1001
ACAD
1000
ACAD_MTEXT_DEFINED_HEIGHT_BEGIN
1070
    46
1040
4.8865234375
1000
ACAD_MTEXT_DEFINED_HEIGHT_END
  0
INSERT
  5
6B5
330
A
100
AcDbEntity
  8
TEMPLATE
100
AcDbBlockReference
  2
名称未設定-1
 10
374.15014961769
 20
5.189353151330762
 30
0.0
 41
0.1524
 42
0.1524
 43
0.1524
  0
INSERT
  5
68C
330
A
100
AcDbEntity
  8
TEMPLATE
100
AcDbBlockReference
  2
block 2
 10
1838.548603540515
 20
16.74615302867274
 30
0.0
 41
0.7619999999999998
 42
0.7619999999999998
 43
0.7619999999999998
  0
INSERT
  5
1A39
330
A
100
AcDbEntity
  8
DIM
100
AcDbBlockReference
  2
SEANNOT_GROUP
 10
103.6828278296498
 20
168.1790387324667
 30
0.0
  0
INSERT
  5
1A3A
330
A
100
AcDbEntity
  8
MODEL
100
AcDbBlockReference
  2
SE
 10
103.6828278296498
 20
168.1790387324667
 30
0.0
  0
INSERT
  5
1A3B
330
A
100
AcDbEntity
  8
DIM
100
AcDbBlockReference
  2
GDimGGroup
 10
103.6828278296498
 20
168.1790387324667
 30
0.0
  0
INSERT
  5
1A3C
330
A
100
AcDbEntity
  8
DIM
100
AcDbBlockReference
  2
GDimGGroup1
 10
103.6828278296498
 20
168.1790387324667
 30
0.0
  0
INSERT
  5
1A3D
330
A
100
AcDbEntity
  8
DIM
100
AcDbBlockReference
  2
GDimGGroup2
 10
103.6828278296498
 20
168.1790387324667
 30
0.0
  0
MTEXT
  5
1BE8
330
A
100
AcDbEntity
  8
TEMPLATE
390
1D
100
AcDbMText
 10
43.80436513872201
 20
131.8320977184007
 30
0.0
 40
4.8865234375
 41
0.0
 46
4.8865234375
 71
     1
 72
     1
  1
{GROHEのシャワーホースは、他社製のシャワーホースに比べ径が太いため、}
  7
ＭＳ ゴシック
 73
     1
 44
0.7828267384257843
1001
ACAD
1000
ACAD_MTEXT_DEFINED_HEIGHT_BEGIN
1070
    46
1040
4.8865234375
1000
ACAD_MTEXT_DEFINED_HEIGHT_END
  0
MTEXT
  5
1BE9
330
A
100
AcDbEntity
  8
TEMPLATE
390
1D
100
AcDbMText
 10
43.80436513872201
 20
124.2634850033369
 30
0.0
 40
4.8865234375
 41
0.0
 46
4.8865234375
 71
     1
 72
     1
  1
{他社製シャワーフックと組み合わせると、ホースをフックに掛ける際に若干の引っかかりがあるケースもありますが、}
  7
ＭＳ ゴシック
 73
     1
 44
0.7828267384257843
1001
ACAD
1000
ACAD_MTEXT_DEFINED_HEIGHT_BEGIN
1070
    46
1040
4.8865234375
1000
ACAD_MTEXT_DEFINED_HEIGHT_END
  0
MTEXT
  5
1BEA
330
A
100
AcDbEntity
  8
TEMPLATE
390
1D
100
AcDbMText
 10
43.80436513872201
 20
116.3658021702268
 30
0.0
 40
4.8865234375
 41
0.0
 46
4.8865234375
 71
     1
 72
     1
  1
{当社では使用上問題のない範囲と考え販売いたしておりますのでご了承ください。}
  7
ＭＳ ゴシック
 73
     1
 44
0.7828267384257843
1001
ACAD
1000
ACAD_MTEXT_DEFINED_HEIGHT_BEGIN
1070
    46
1040
4.8865234375
1000
ACAD_MTEXT_DEFINED_HEIGHT_END
  0
LWPOLYLINE
  5
1BEB
330
A
100
AcDbEntity
  8
0
  6
Continuous
370
     0
100
AcDbPolyline
 90
        4
 70
     1
 43
0.0
 10
34.40529989202571
 20
139.2613374003295
 10
34.40529989202571
 20
102.7551211795731
 10
384.4755579268739
 20
102.7551211795731
 10
384.4755579268739
 20
139.2613374003295
  0
VIEWPORT
  5
349
330
B
100
AcDbEntity
 67
     1
  8
0
100
AcDbViewport
 10
202.5
 20
128.5
 30
0.0
 40
486.0
 41
308.4
 68
     1
 69
     1
 12
202.5
 22
128.5
 13
0.0
 23
0.0
 14
0.5
 24
0.5
 15
0.0
 25
0.0
 16
0.0
 26
0.0
 36
1.0
 17
0.0
 27
0.0
 37
0.0
 42
50.0
 43
0.0
 44
0.0
 45
308.4
 50
0.0
 51
0.0
 72
   100
 90
   557152
  1

281
     0
 71
     1
 74
     0
110
0.0
120
0.0
130
0.0
111
1.0
121
0.0
131
0.0
112
0.0
122
1.0
132
0.0
 79
     0
146
0.0
170
     0
 61
     5
348
26C
292
     1
282
     1
141
0.0
142
0.0
 63
   256
  0
VIEWPORT
  5
34A
330
B
100
AcDbEntity
 67
     1
  8
0
100
AcDbViewport
 10
202.5
 20
128.5
 30
0.0
 40
324.0
 41
205.6
 68
     2
 69
     2
 12
986.6781359294573
 22
1427.077061889956
 13
0.0
 23
0.0
 14
0.5
 24
0.5
 15
0.0
 25
0.0
 16
0.0
 26
0.0
 36
1.0
 17
0.0
 27
0.0
 37
0.0
 42
50.0
 43
0.0
 44
0.0
 45
2890.021615685494
 50
0.0
 51
0.0
 72
   100
 90
   557152
  1

281
     0
 71
     1
 74
     0
110
0.0
120
0.0
130
0.0
111
1.0
121
0.0
131
0.0
112
0.0
122
1.0
132
0.0
 79
     0
146
0.0
170
     0
 61
     5
348
26C
292
     1
282
     1
141
0.0
142
0.0
 63
   256
  0
ENDSEC
  0
SECTION
  2
OBJECTS
  0
DICTIONARY
  5
19
330
0
100
AcDbDictionary
281
     1
  3
ACAD_COLOR
350
674
  3
ACAD_DETAILVIEWSTYLE
350
BBF
  3
ACAD_GROUP
350
1A
  3
ACAD_IMAGE_VARS
350
27B
  3
ACAD_LAYOUT
350
1E
  3
ACAD_MATERIAL
350
263
  3
ACAD_MLEADERSTYLE
350
336
  3
ACAD_MLINESTYLE
350
1B
  3
ACAD_PLOTSETTINGS
350
22
  3
ACAD_PLOTSTYLENAME
350
1F
  3
ACAD_SCALELIST
350
241
  3
ACAD_SECTIONVIEWSTYLE
350
BC0
  3
ACAD_TABLESTYLE
350
278
  3
ACAD_VISUALSTYLE
350
267
  3
ACDB_RECOMPOSE_DATA
350
1BF8
  3
AcDbVariableDictionary
350
330
  3
APPDATA
350
27A
  0
SUN
  5
904
330
15
100
AcDbSun
 90
        1
290
     0
 63
     7
421
 16777215
 40
1.0
291
     1
 91
  2455826
 92
 54000000
292
     0
 70
     2
 71
   256
280
     1
  0
DICTIONARY
  5
2E1
330
2
100
AcDbDictionary
280
     1
281
     1
  3
ACAD_LAYERSTATES
360
2E2
  3
ACLYDICTIONARY
360
D05
  0
DICTIONARY
  5
674
102
{ACAD_REACTORS
330
19
102
}
330
19
100
AcDbDictionary
281
     1
  0
DICTIONARY
  5
BBF
102
{ACAD_REACTORS
330
19
102
}
330
19
100
AcDbDictionary
281
     1
  0
DICTIONARY
  5
1A
102
{ACAD_REACTORS
330
19
102
}
330
19
100
AcDbDictionary
281
     1
  0
RASTERVARIABLES
  5
27B
102
{ACAD_REACTORS
330
19
102
}
330
19
100
AcDbRasterVariables
 90
        0
 70
     1
 71
     1
 72
     1
  0
DICTIONARY
  5
1E
102
{ACAD_REACTORS
330
19
102
}
330
19
100
AcDbDictionary
281
     1
  3
Layout1
350
21
  3
Model
350
20
  0
DICTIONARY
  5
263
102
{ACAD_REACTORS
330
19
102
}
330
19
100
AcDbDictionary
281
     1
  3
ByBlock
350
265
  3
ByLayer
350
264
  3
Global
350
266
  0
DICTIONARY
  5
336
102
{ACAD_REACTORS
330
19
102
}
330
19
100
AcDbDictionary
281
     1
  0
DICTIONARY
  5
1B
102
{ACAD_REACTORS
330
19
102
}
330
19
100
AcDbDictionary
281
     1
  3
Standard
350
1C
  0
DICTIONARY
  5
22
102
{ACAD_REACTORS
330
19
102
}
330
19
100
AcDbDictionary
281
     1
  0
ACDBDICTIONARYWDFLT
  5
1F
102
{ACAD_REACTORS
330
19
102
}
330
19
100
AcDbDictionary
281
     1
  3
Normal
350
1D
100
AcDbDictionaryWithDefault
340
1D
  0
DICTIONARY
  5
241
102
{ACAD_REACTORS
330
19
102
}
330
19
100
AcDbDictionary
281
     1
  3
A0
350
242
  3
A1
350
243
  3
A2
350
244
  3
A3
350
245
  3
A4
350
246
  3
A5
350
247
  3
A6
350
248
  3
A7
350
249
  3
A8
350
24A
  3
A9
350
24B
  3
B0
350
24C
  3
B1
350
24D
  3
B2
350
24E
  3
B3
350
24F
  3
B4
350
250
  3
B5
350
251
  3
B6
350
252
  3
B7
350
253
  3
B8
350
254
  3
B9
350
255
  3
C0
350
256
  3
C1
350
257
  3
C2
350
258
  3
C3
350
259
  3
C4
350
25A
  3
C5
350
25B
  3
C6
350
25C
  3
C7
350
25D
  3
C8
350
25E
  3
C9
350
25F
  3
D0
350
260
  3
D1
350
261
  3
D2
350
262
  0
DICTIONARY
  5
BC0
102
{ACAD_REACTORS
330
19
102
}
330
19
100
AcDbDictionary
281
     1
  0
DICTIONARY
  5
278
102
{ACAD_REACTORS
330
19
102
}
330
19
100
AcDbDictionary
281
     1
  3
Standard
350
279
  0
DICTIONARY
  5
267
102
{ACAD_REACTORS
330
19
102
}
330
19
100
AcDbDictionary
281
     1
  3
2dWireframe
350
26C
  3
3D Hidden
350
26E
  3
3dWireframe
350
26D
  3
Basic
350
26F
  3
Brighten
350
273
  3
ColorChange
350
277
  3
Conceptual
350
271
  3
Dim
350
272
  3
EdgeColorOff
350
8FE
  3
Facepattern
350
276
  3
Flat
350
268
  3
FlatWithEdges
350
269
  3
Gouraud
350
26A
  3
GouraudWithEdges
350
26B
  3
Hidden
350
8FB
  3
JitterOff
350
8FC
  3
Linepattern
350
275
  3
OverhangOff
350
8FD
  3
Realistic
350
270
  3
Shaded
350
903
  3
Shaded with edges
350
902
  3
Shades of Gray
350
8FF
  3
Sketchy
350
900
  3
Thicken
350
274
  3
Wireframe
350
8FA
  3
X-Ray
350
901
  0
XRECORD
  5
1BF8
102
{ACAD_REACTORS
330
19
102
}
330
19
100
AcDbXrecord
280
     1
 90
        1
330
279
  0
DICTIONARY
  5
330
102
{ACAD_REACTORS
330
19
102
}
330
19
100
AcDbDictionary
281
     1
  3
CANNOSCALE
350
331
  3
CTABLESTYLE
350
335
  3
HPTRANSPARENCY
350
D6B
  3
XCLIPFRAME
350
896
  0
DICTIONARY
  5
27A
102
{ACAD_REACTORS
330
19
102
}
330
19
100
AcDbDictionary
281
     1
  0
DICTIONARY
  5
2E2
102
{ACAD_REACTORS
330
2E1
102
}
330
2E1
100
AcDbDictionary
281
     1
  3
ARGON_LAYERP_8
350
C9F
  3
ARGON_LAYERP_9
350
7AA
  0
DICTIONARY
  5
D05
102
{ACAD_REACTORS
330
2E1
102
}
330
2E1
100
AcDbDictionary
281
     1
1001
ACAD
1000
<All
  0
LAYOUT
  5
21
102
{ACAD_REACTORS
330
1E
102
}
330
1E
100
AcDbPlotSettings
  1

  2
none_device
  4
ISO_A3_(420.00_x_297.00_MM)
  6

 40
7.5
 41
20.0
 42
7.5
 43
20.0
 44
420.0
 45
297.0
 46
0.0
 47
0.0
 48
0.0
 49
0.0
140
0.0
141
0.0
142
1.0
143
1.0
 70
     0
 72
     1
 73
     0
 74
     0
  7

 75
     0
 76
     0
 77
     2
 78
   300
147
1.0
148
0.0
149
0.0
100
AcDbLayout
  1
Layout1
 70
     0
 71
     0
 10
-7.5
 20
-20.0
 11
412.5
 21
277.0
 12
0.0
 22
0.0
 32
0.0
 14
0.0
 24
0.0
 34
0.0
 15
0.0
 25
0.0
 35
0.0
146
0.0
 13
0.0
 23
0.0
 33
0.0
 16
0.0
 26
0.0
 36
0.0
 17
0.0
 27
0.0
 37
0.0
 76
     0
330
B
331
349
  0
LAYOUT
  5
20
102
{ACAD_REACTORS
330
1E
102
}
330
1E
100
AcDbPlotSettings
  1

  2
none_device
  4
ISO_A3_(420.00_x_297.00_MM)
  6

 40
7.5
 41
20.0
 42
7.5
 43
20.0
 44
420.0
 45
297.0
 46
0.0
 47
0.0
 48
0.0
 49
0.0
140
0.0
141
0.0
142
1.0
143
1.0
 70
  1024
 72
     1
 73
     0
 74
     0
  7

 75
     0
 76
     0
 77
     2
 78
   300
147
1.0
148
0.0
149
0.0
100
AcDbLayout
  1
Model
 70
     0
 71
     1
 10
0.0
 20
0.0
 11
420.0000000000001
 21
594.0000000000001
 12
0.0
 22
0.0
 32
0.0
 14
14.44042890944974
 24
12.75842966491423
 34
0.0
 15
404.4404289095462
 25
579.4293347012853
 35
0.0
146
0.0
 13
0.0
 23
0.0
 33
0.0
 16
0.0
 26
0.0
 36
0.0
 17
0.0
 27
0.0
 37
0.0
 76
     0
330
A
331
15
  0
MATERIAL
  5
265
102
{ACAD_REACTORS
330
263
102
}
330
263
100
AcDbMaterial
  1
ByBlock
 72
     1
 94
      127
  0
MATERIAL
  5
264
102
{ACAD_REACTORS
330
263
102
}
330
263
100
AcDbMaterial
  1
ByLayer
 72
     1
 94
      127
  0
MATERIAL
  5
266
102
{ACAD_REACTORS
330
263
102
}
330
263
100
AcDbMaterial
  1
Global
 72
     1
 94
      127
  0
MLINESTYLE
  5
1C
102
{ACAD_REACTORS
330
1B
102
}
330
1B
100
AcDbMlineStyle
  2
Standard
 70
     0
  3

 62
     0
 51
90.0
 52
90.0
 71
     2
 49
0.5
 62
   256
  6
BYLAYER
 49
-0.5
 62
   256
  6
BYLAYER
  0
ACDBPLACEHOLDER
  5
1D
102
{ACAD_REACTORS
330
1F
102
}
330
1F
  0
SCALE
  5
242
102
{ACAD_REACTORS
330
241
102
}
330
241
100
AcDbScale
 70
     0
300
1:1
140
1.0
141
1.0
290
     1
  0
SCALE
  5
243
102
{ACAD_REACTORS
330
241
102
}
330
241
100
AcDbScale
 70
     0
300
1:2
140
1.0
141
2.0
290
     0
  0
SCALE
  5
244
102
{ACAD_REACTORS
330
241
102
}
330
241
100
AcDbScale
 70
     0
300
1:4
140
1.0
141
4.0
290
     0
  0
SCALE
  5
245
102
{ACAD_REACTORS
330
241
102
}
330
241
100
AcDbScale
 70
     0
300
1:5
140
1.0
141
5.0
290
     0
  0
SCALE
  5
246
102
{ACAD_REACTORS
330
241
102
}
330
241
100
AcDbScale
 70
     0
300
1:8
140
1.0
141
8.0
290
     0
  0
SCALE
  5
247
102
{ACAD_REACTORS
330
241
102
}
330
241
100
AcDbScale
 70
     0
300
1:10
140
1.0
141
10.0
290
     0
  0
SCALE
  5
248
102
{ACAD_REACTORS
330
241
102
}
330
241
100
AcDbScale
 70
     0
300
1:16
140
1.0
141
16.0
290
     0
  0
SCALE
  5
249
102
{ACAD_REACTORS
330
241
102
}
330
241
100
AcDbScale
 70
     0
300
1:20
140
1.0
141
20.0
290
     0
  0
SCALE
  5
24A
102
{ACAD_REACTORS
330
241
102
}
330
241
100
AcDbScale
 70
     0
300
1:30
140
1.0
141
30.0
290
     0
  0
SCALE
  5
24B
102
{ACAD_REACTORS
330
241
102
}
330
241
100
AcDbScale
 70
     0
300
1:40
140
1.0
141
40.0
290
     0
  0
SCALE
  5
24C
102
{ACAD_REACTORS
330
241
102
}
330
241
100
AcDbScale
 70
     0
300
1:50
140
1.0
141
50.0
290
     0
  0
SCALE
  5
24D
102
{ACAD_REACTORS
330
241
102
}
330
241
100
AcDbScale
 70
     0
300
1:100
140
1.0
141
100.0
290
     0
  0
SCALE
  5
24E
102
{ACAD_REACTORS
330
241
102
}
330
241
100
AcDbScale
 70
     0
300
2:1
140
2.0
141
1.0
290
     0
  0
SCALE
  5
24F
102
{ACAD_REACTORS
330
241
102
}
330
241
100
AcDbScale
 70
     0
300
4:1
140
4.0
141
1.0
290
     0
  0
SCALE
  5
250
102
{ACAD_REACTORS
330
241
102
}
330
241
100
AcDbScale
 70
     0
300
8:1
140
8.0
141
1.0
290
     0
  0
SCALE
  5
251
102
{ACAD_REACTORS
330
241
102
}
330
241
100
AcDbScale
 70
     0
300
10:1
140
10.0
141
1.0
290
     0
  0
SCALE
  5
252
102
{ACAD_REACTORS
330
241
102
}
330
241
100
AcDbScale
 70
     0
300
100:1
140
100.0
141
1.0
290
     0
  0
SCALE
  5
253
102
{ACAD_REACTORS
330
241
102
}
330
241
100
AcDbScale
 70
     0
300
1/128" = 1'-0"
140
0.0078125
141
12.0
290
     0
  0
SCALE
  5
254
102
{ACAD_REACTORS
330
241
102
}
330
241
100
AcDbScale
 70
     0
300
1/64" = 1'-0"
140
0.015625
141
12.0
290
     0
  0
SCALE
  5
255
102
{ACAD_REACTORS
330
241
102
}
330
241
100
AcDbScale
 70
     0
300
1/32" = 1'-0"
140
0.03125
141
12.0
290
     0
  0
SCALE
  5
256
102
{ACAD_REACTORS
330
241
102
}
330
241
100
AcDbScale
 70
     0
300
1/16" = 1'-0"
140
0.0625
141
12.0
290
     0
  0
SCALE
  5
257
102
{ACAD_REACTORS
330
241
102
}
330
241
100
AcDbScale
 70
     0
300
3/32" = 1'-0"
140
0.09375
141
12.0
290
     0
  0
SCALE
  5
258
102
{ACAD_REACTORS
330
241
102
}
330
241
100
AcDbScale
 70
     0
300
1/8" = 1'-0"
140
0.125
141
12.0
290
     0
  0
SCALE
  5
259
102
{ACAD_REACTORS
330
241
102
}
330
241
100
AcDbScale
 70
     0
300
3/16" = 1'-0"
140
0.1875
141
12.0
290
     0
  0
SCALE
  5
25A
102
{ACAD_REACTORS
330
241
102
}
330
241
100
AcDbScale
 70
     0
300
1/4" = 1'-0"
140
0.25
141
12.0
290
     0
  0
SCALE
  5
25B
102
{ACAD_REACTORS
330
241
102
}
330
241
100
AcDbScale
 70
     0
300
3/8" = 1'-0"
140
0.375
141
12.0
290
     0
  0
SCALE
  5
25C
102
{ACAD_REACTORS
330
241
102
}
330
241
100
AcDbScale
 70
     0
300
1/2" = 1'-0"
140
0.5
141
12.0
290
     0
  0
SCALE
  5
25D
102
{ACAD_REACTORS
330
241
102
}
330
241
100
AcDbScale
 70
     0
300
3/4" = 1'-0"
140
0.75
141
12.0
290
     0
  0
SCALE
  5
25E
102
{ACAD_REACTORS
330
241
102
}
330
241
100
AcDbScale
 70
     0
300
1" = 1'-0"
140
1.0
141
12.0
290
     0
  0
SCALE
  5
25F
102
{ACAD_REACTORS
330
241
102
}
330
241
100
AcDbScale
 70
     0
300
1-1/2" = 1'-0"
140
1.5
141
12.0
290
     0
  0
SCALE
  5
260
102
{ACAD_REACTORS
330
241
102
}
330
241
100
AcDbScale
 70
     0
300
3" = 1'-0"
140
3.0
141
12.0
290
     0
  0
SCALE
  5
261
102
{ACAD_REACTORS
330
241
102
}
330
241
100
AcDbScale
 70
     0
300
6" = 1'-0"
140
6.0
141
12.0
290
     0
  0
SCALE
  5
262
102
{ACAD_REACTORS
330
241
102
}
330
241
100
AcDbScale
 70
     0
300
1'-0" = 1'-0"
140
12.0
141
12.0
290
     0
  0
TABLESTYLE
  5
279
102
{ACAD_REACTORS
330
278
102
}
102
{ACAD_XDICTIONARY
360
1BF6
102
}
330
278
100
AcDbTableStyle
  3
Standard
 70
     0
 71
     0
 40
0.06
 41
0.06
280
     0
281
     0
  7
Standard
140
4.5
170
     2
 62
     0
 63
   257
283
     0
 90
        4
 91
        0
  1

274
    -2
284
     1
 64
     0
275
    -2
285
     1
 65
     0
276
    -2
286
     1
 66
     0
277
    -2
287
     1
 67
     0
278
    -2
288
     1
 68
     0
279
    -2
289
     1
 69
     0
  7
Standard
140
6.0
170
     5
 62
     0
 63
   257
283
     0
 90
        4
 91
        0
  1

274
    -2
284
     1
 64
     0
275
    -2
285
     1
 65
     0
276
    -2
286
     1
 66
     0
277
    -2
287
     1
 67
     0
278
    -2
288
     1
 68
     0
279
    -2
289
     1
 69
     0
  7
Standard
140
4.5
170
     5
 62
     0
 63
   257
283
     0
 90
        4
 91
        0
  1

274
    -2
284
     1
 64
     0
275
    -2
285
     1
 65
     0
276
    -2
286
     1
 66
     0
277
    -2
287
     1
 67
     0
278
    -2
288
     1
 68
     0
279
    -2
289
     1
 69
     0
  0
VISUALSTYLE
  5
26C
102
{ACAD_REACTORS
330
267
102
}
330
267
100
AcDbVisualStyle
  2
2dWireframe
 70
     4
 71
     0
 72
     2
 73
     0
 90
        0
 40
-0.6
 41
-30.0
 62
     5
 63
     7
421
 16777215
 74
     1
 91
        4
 64
     7
 65
   257
 75
     1
175
     1
 42
1.0
 92
        0
 66
   257
 43
1.0
 76
     1
 77
     6
 78
     2
 67
     7
 79
     5
170
     0
171
     0
290
     0
174
     0
 93
        1
 44
0.0
173
     0
291
     0
 45
0.0
  0
VISUALSTYLE
  5
26E
102
{ACAD_REACTORS
330
267
102
}
330
267
100
AcDbVisualStyle
  2
3D Hidden
 70
     6
 71
     1
 72
     2
 73
     2
 90
        0
 40
-0.6
 41
-30.0
 62
     5
 63
     7
421
 16777215
 74
     2
 91
        2
 64
     7
 65
   257
 75
     2
175
     1
 42
40.0
 92
        0
 66
   257
 43
1.0
 76
     1
 77
     6
 78
     2
 67
     7
 79
     3
170
     0
171
     0
290
     0
174
     0
 93
        1
 44
0.0
173
     0
291
     0
 45
0.0
  0
VISUALSTYLE
  5
26D
102
{ACAD_REACTORS
330
267
102
}
330
267
100
AcDbVisualStyle
  2
3dWireframe
 70
     5
 71
     0
 72
     2
 73
     0
 90
        0
 40
-0.6
 41
-30.0
 62
     5
 63
     7
421
 16777215
 74
     1
 91
        4
 64
     7
 65
   257
 75
     1
175
     1
 42
1.0
 92
        0
 66
   257
 43
1.0
 76
     1
 77
     6
 78
     2
 67
     7
 79
     5
170
     0
171
     0
290
     0
174
     0
 93
        1
 44
0.0
173
     0
291
     0
 45
0.0
  0
VISUALSTYLE
  5
26F
102
{ACAD_REACTORS
330
267
102
}
330
267
100
AcDbVisualStyle
  2
Basic
 70
     7
 71
     1
 72
     0
 73
     1
 90
        0
 40
-0.6
 41
-30.0
 62
     5
 63
     7
421
 16777215
 74
     0
 91
        4
 64
     7
 65
   257
 75
     1
175
     1
 42
1.0
 92
        8
 66
     7
 43
1.0
 76
     1
 77
     6
 78
     2
 67
     7
 79
     5
170
     0
171
     0
290
     0
174
     0
 93
        1
 44
0.0
173
     0
291
     1
 45
0.0
  0
VISUALSTYLE
  5
273
102
{ACAD_REACTORS
330
267
102
}
330
267
100
AcDbVisualStyle
  2
Brighten
 70
    12
 71
     2
 72
     2
 73
     0
 90
        0
 40
-0.6
 41
-30.0
 62
     5
 63
     7
421
 16777215
 74
     1
 91
        4
 64
     7
 65
   257
 75
     1
175
     1
 42
1.0
 92
        8
 66
     7
 43
1.0
 76
     1
 77
     6
 78
     2
 67
     7
 79
     5
170
     0
171
     0
290
     0
174
     0
 93
        1
 44
50.0
173
     0
291
     1
 45
0.0
  0
VISUALSTYLE
  5
277
102
{ACAD_REACTORS
330
267
102
}
330
267
100
AcDbVisualStyle
  2
ColorChange
 70
    16
 71
     2
 72
     2
 73
     3
 90
        0
 40
-0.6
 41
-30.0
 62
     5
 63
     8
421
  8421504
 74
     1
 91
        4
 64
     7
 65
   257
 75
     1
175
     1
 42
1.0
 92
        8
 66
     8
424
  8421504
 43
1.0
 76
     1
 77
     6
 78
     2
 67
     7
 79
     5
170
     0
171
     0
290
     0
174
     0
 93
        1
 44
0.0
173
     0
291
     1
 45
0.0
  0
VISUALSTYLE
  5
271
102
{ACAD_REACTORS
330
267
102
}
330
267
100
AcDbVisualStyle
  2
Conceptual
 70
     9
 71
     3
 72
     2
 73
     0
 90
        0
 40
-0.6
 41
-30.0
 62
     5
 63
     7
421
 16777215
 74
     2
 91
        2
 64
     7
 65
   257
 75
     1
175
     1
 42
40.0
 92
        8
 66
     7
 43
1.0
 76
     1
 77
     6
 78
     2
 67
     7
 79
     3
170
     0
171
     0
290
     0
174
     0
 93
        1
 44
0.0
173
     0
291
     0
 45
0.0
  0
VISUALSTYLE
  5
272
102
{ACAD_REACTORS
330
267
102
}
330
267
100
AcDbVisualStyle
  2
Dim
 70
    11
 71
     2
 72
     2
 73
     0
 90
        0
 40
-0.6
 41
-30.0
 62
     5
 63
     7
421
 16777215
 74
     1
 91
        4
 64
     7
 65
   257
 75
     1
175
     1
 42
1.0
 92
        8
 66
     7
 43
1.0
 76
     1
 77
     6
 78
     2
 67
     7
 79
     5
170
     0
171
     0
290
     0
174
     0
 93
        1
 44
-50.0
173
     0
291
     1
 45
0.0
  0
VISUALSTYLE
  5
8FE
102
{ACAD_REACTORS
330
267
102
}
330
267
100
AcDbVisualStyle
  2
EdgeColorOff
 70
    22
 71
     2
 72
     2
 73
     0
 90
        0
 40
0.6
 41
30.0
 62
     5
 63
     7
421
 16777215
 74
     1
 91
        4
 64
     7
 65
   257
 75
     1
175
     1
 42
1.0
 92
        8
 66
     7
 43
1.0
 76
     1
 77
     6
 78
     2
 67
     7
 79
     5
170
     0
171
     0
290
     0
174
     0
 93
        1
 44
0.0
173
     0
291
     1
 45
0.0
  0
VISUALSTYLE
  5
276
102
{ACAD_REACTORS
330
267
102
}
330
267
100
AcDbVisualStyle
  2
Facepattern
 70
    15
 71
     2
 72
     2
 73
     0
 90
        0
 40
-0.6
 41
-30.0
 62
     5
 63
     7
421
 16777215
 74
     1
 91
        4
 64
     7
 65
   257
 75
     1
175
     1
 42
1.0
 92
        8
 66
     7
 43
1.0
 76
     1
 77
     6
 78
     2
 67
     7
 79
     5
170
     0
171
     0
290
     0
174
     0
 93
        1
 44
0.0
173
     0
291
     1
 45
0.0
  0
VISUALSTYLE
  5
268
102
{ACAD_REACTORS
330
267
102
}
330
267
100
AcDbVisualStyle
  2
Flat
 70
     0
 71
     2
 72
     1
 73
     1
 90
        2
 40
-0.6
 41
30.0
 62
     5
 63
     7
421
 16777215
 74
     0
 91
        4
 64
     7
 65
   257
 75
     1
175
     1
 42
1.0
 92
        8
 66
     7
 43
1.0
 76
     1
 77
     6
 78
     2
 67
     7
 79
     5
170
     0
171
     0
290
     0
174
     0
 93
       13
 44
0.0
173
     0
291
     1
 45
0.0
  0
VISUALSTYLE
  5
269
102
{ACAD_REACTORS
330
267
102
}
330
267
100
AcDbVisualStyle
  2
FlatWithEdges
 70
     1
 71
     2
 72
     1
 73
     1
 90
        2
 40
-0.6
 41
30.0
 62
     5
 63
     7
421
 16777215
 74
     1
 91
        4
 64
     7
 65
   257
 75
     1
175
     1
 42
1.0
 92
        0
 66
   257
 43
1.0
 76
     1
 77
     6
 78
     2
 67
     7
 79
     5
170
     0
171
     0
290
     0
174
     0
 93
       13
 44
0.0
173
     0
291
     1
 45
0.0
  0
VISUALSTYLE
  5
26A
102
{ACAD_REACTORS
330
267
102
}
330
267
100
AcDbVisualStyle
  2
Gouraud
 70
     2
 71
     2
 72
     2
 73
     1
 90
        2
 40
-0.6
 41
30.0
 62
     5
 63
     7
421
 16777215
 74
     0
 91
        4
 64
     7
 65
   257
 75
     1
175
     1
 42
1.0
 92
        0
 66
     7
 43
1.0
 76
     1
 77
     6
 78
     2
 67
     7
 79
     5
170
     0
171
     0
290
     0
174
     0
 93
       13
 44
0.0
173
     0
291
     1
 45
0.0
  0
VISUALSTYLE
  5
26B
102
{ACAD_REACTORS
330
267
102
}
330
267
100
AcDbVisualStyle
  2
GouraudWithEdges
 70
     3
 71
     2
 72
     2
 73
     1
 90
        2
 40
-0.6
 41
30.0
 62
     5
 63
     7
421
 16777215
 74
     1
 91
        4
 64
     7
 65
   257
 75
     1
175
     1
 42
1.0
 92
        0
 66
   257
 43
1.0
 76
     1
 77
     6
 78
     2
 67
     7
 79
     5
170
     0
171
     0
290
     0
174
     0
 93
       13
 44
0.0
173
     0
291
     1
 45
0.0
  0
VISUALSTYLE
  5
8FB
102
{ACAD_REACTORS
330
267
102
}
330
267
100
AcDbVisualStyle
  2
Hidden
 70
     6
 71
     1
 72
     2
 73
     2
 90
        0
 40
0.6
 41
30.0
 62
     5
 63
     7
421
 16777215
 74
     2
 91
        2
 64
     7
 65
   257
 75
     2
175
     1
 42
40.0
 92
        0
 66
   257
 43
1.0
 76
     1
 77
     6
 78
     2
 67
     7
 79
     3
170
     0
171
     0
290
     0
174
     0
 93
        1
 44
0.0
173
     0
291
     0
 45
0.0
  0
VISUALSTYLE
  5
8FC
102
{ACAD_REACTORS
330
267
102
}
330
267
100
AcDbVisualStyle
  2
JitterOff
 70
    20
 71
     2
 72
     2
 73
     0
 90
        0
 40
0.6
 41
30.0
 62
     5
 63
     7
421
 16777215
 74
     1
 91
        4
 64
     7
 65
   257
 75
     1
175
     1
 42
1.0
 92
       10
 66
     7
 43
1.0
 76
     1
 77
     6
 78
     2
 67
     7
 79
     5
170
     0
171
     0
290
     0
174
     0
 93
        1
 44
0.0
173
     0
291
     1
 45
0.0
  0
VISUALSTYLE
  5
275
102
{ACAD_REACTORS
330
267
102
}
330
267
100
AcDbVisualStyle
  2
Linepattern
 70
    14
 71
     2
 72
     2
 73
     0
 90
        0
 40
-0.6
 41
-30.0
 62
     5
 63
     7
421
 16777215
 74
     1
 91
        4
 64
     7
 65
   257
 75
     7
175
     7
 42
1.0
 92
        8
 66
     7
 43
1.0
 76
     1
 77
     6
 78
     2
 67
     7
 79
     5
170
     0
171
     0
290
     0
174
     0
 93
        1
 44
0.0
173
     0
291
     1
 45
0.0
  0
VISUALSTYLE
  5
8FD
102
{ACAD_REACTORS
330
267
102
}
330
267
100
AcDbVisualStyle
  2
OverhangOff
 70
    21
 71
     2
 72
     2
 73
     0
 90
        0
 40
0.6
 41
30.0
 62
     5
 63
     7
421
 16777215
 74
     1
 91
        4
 64
     7
 65
   257
 75
     1
175
     1
 42
1.0
 92
        9
 66
     7
 43
1.0
 76
     1
 77
     6
 78
     2
 67
     7
 79
     5
170
     0
171
     0
290
     0
174
     0
 93
        1
 44
0.0
173
     0
291
     1
 45
0.0
  0
VISUALSTYLE
  5
270
102
{ACAD_REACTORS
330
267
102
}
330
267
100
AcDbVisualStyle
  2
Realistic
 70
     8
 71
     2
 72
     2
 73
     0
 90
        0
 40
-0.6
 41
-30.0
 62
     5
 63
     7
421
 16777215
 74
     1
 91
        0
 64
     7
 65
   257
 75
     1
175
     1
 42
1.0
 92
        8
 66
     8
424
  7895160
 43
1.0
 76
     1
 77
     6
 78
     2
 67
     7
 79
     5
170
     0
171
     0
290
     0
174
     0
 93
       13
 44
0.0
173
     0
291
     0
 45
0.0
  0
VISUALSTYLE
  5
903
102
{ACAD_REACTORS
330
267
102
}
330
267
100
AcDbVisualStyle
  2
Shaded
 70
    27
 71
     2
 72
     2
 73
     1
 90
        2
 40
0.6
 41
30.0
 62
     5
 63
     7
421
 16777215
 74
     0
 91
        4
 64
     7
 65
   257
 75
     1
175
     1
 42
1.0
 92
        8
 66
   257
 43
1.0
 76
     1
 77
     6
 78
     2
 67
     8
425
  7895160
 79
     3
170
     0
171
     0
290
     0
174
     0
 93
        5
 44
0.0
173
     0
291
     0
 45
0.0
  0
VISUALSTYLE
  5
902
102
{ACAD_REACTORS
330
267
102
}
330
267
100
AcDbVisualStyle
  2
Shaded with edges
 70
    26
 71
     2
 72
     2
 73
     1
 90
        2
 40
0.6
 41
30.0
 62
     5
 63
     7
421
 16777215
 74
     1
 91
       10
 64
     7
 65
   257
 75
     2
175
     1
 42
1.0
 92
        8
 66
   257
 43
1.0
 76
     1
 77
     6
 78
     2
 67
     7
 79
     3
170
     0
171
     0
290
     0
174
     0
 93
        5
 44
0.0
173
     0
291
     0
 45
0.0
  0
VISUALSTYLE
  5
8FF
102
{ACAD_REACTORS
330
267
102
}
330
267
100
AcDbVisualStyle
  2
Shades of Gray
 70
    23
 71
     2
 72
     2
 73
     3
 90
        0
 40
0.6
 41
30.0
 62
     5
 63
     7
421
 16777215
 74
     2
 91
        2
 64
     7
 65
     7
 75
     1
175
     1
 42
40.0
 92
        8
 66
     7
 43
1.0
 76
     1
 77
     6
 78
     2
 67
     7
 79
     3
170
     0
171
     0
290
     0
174
     0
 93
        1
 44
0.0
173
     0
291
     0
 45
0.0
  0
VISUALSTYLE
  5
900
102
{ACAD_REACTORS
330
267
102
}
330
267
100
AcDbVisualStyle
  2
Sketchy
 70
    24
 71
     1
 72
     2
 73
     2
 90
        0
 40
0.6
 41
30.0
 62
     5
 63
     7
421
 16777215
 74
     2
 91
        2
 64
     7
 65
     7
 75
     1
175
     1
 42
40.0
 92
       11
 66
     7
 43
1.0
 76
     1
 77
     6
 78
     2
 67
     7
 79
     6
170
     0
171
     0
290
     0
174
     0
 93
        1
 44
0.0
173
     0
291
     0
 45
0.0
  0
VISUALSTYLE
  5
274
102
{ACAD_REACTORS
330
267
102
}
330
267
100
AcDbVisualStyle
  2
Thicken
 70
    13
 71
     2
 72
     2
 73
     0
 90
        0
 40
-0.6
 41
-30.0
 62
     5
 63
     7
421
 16777215
 74
     1
 91
        4
 64
     7
 65
   257
 75
     1
175
     1
 42
1.0
 92
       12
 66
     7
 43
1.0
 76
     1
 77
     6
 78
     2
 67
     7
 79
     5
170
     0
171
     0
290
     0
174
     0
 93
        1
 44
0.0
173
     0
291
     1
 45
0.0
  0
VISUALSTYLE
  5
8FA
102
{ACAD_REACTORS
330
267
102
}
330
267
100
AcDbVisualStyle
  2
Wireframe
 70
     5
 71
     0
 72
     2
 73
     0
 90
        0
 40
0.6
 41
30.0
 62
     5
 63
     7
421
 16777215
 74
     1
 91
        4
 64
     7
 65
   257
 75
     1
175
     1
 42
1.0
 92
        0
 66
   257
 43
1.0
 76
     1
 77
     6
 78
     2
 67
     7
 79
     3
170
     0
171
     0
290
     0
174
     0
 93
        1
 44
0.0
173
     0
291
     0
 45
0.0
  0
VISUALSTYLE
  5
901
102
{ACAD_REACTORS
330
267
102
}
330
267
100
AcDbVisualStyle
  2
X-Ray
 70
    25
 71
     2
 72
     2
 73
     1
 90
        1
 40
0.5
 41
30.0
 62
     5
 63
     7
421
 16777215
 74
     1
 91
        0
 64
     7
 65
   257
 75
     1
175
     1
 42
1.0
 92
        8
 66
     7
 43
1.0
 76
     1
 77
     6
 78
     2
 67
     7
 79
     3
170
     0
171
     0
290
     0
174
     0
 93
       13
 44
0.0
173
     0
291
     0
 45
0.0
  0
DICTIONARYVAR
  5
331
102
{ACAD_REACTORS
330
330
102
}
330
330
100
DictionaryVariables
280
     0
  1
1:1
  0
DICTIONARYVAR
  5
335
102
{ACAD_REACTORS
330
330
102
}
330
330
100
DictionaryVariables
280
     0
  1
Standard
  0
DICTIONARYVAR
  5
D6B
102
{ACAD_REACTORS
330
330
102
}
330
330
100
DictionaryVariables
280
     0
  1
ByLayer
  0
DICTIONARYVAR
  5
896
102
{ACAD_REACTORS
330
330
102
}
330
330
100
DictionaryVariables
280
     0
  1
0
  0
XRECORD
  5
C9F
102
{ACAD_REACTORS
330
2E2
102
}
330
2E2
100
AcDbXrecord
280
     1
 91
     1023
301

290
     0
302
MODEL
330
14
 90
        8
 62
     7
370
    -3
331
13
  1
Color_7
330
0
 90
        0
 62
     7
370
    -3
331
13
  1
Color_7
330
4B
 90
        8
 62
     7
370
     0
331
13
  1
Color_7
330
4C
 90
        8
 62
     7
370
     9
331
13
  1
Color_7
330
4D
 90
        8
 62
     7
370
    -3
331
13
  1
Color_7
330
667
 90
        8
 62
     7
370
    -3
331
13
  1
Color_7
330
88C
 90
        8
 62
     7
370
     9
331
45
  1
Color_7
330
0
 90
        8
 62
     7
370
    -3
331
13
  1
Color_7
  0
XRECORD
  5
7AA
102
{ACAD_REACTORS
330
2E2
102
}
330
2E2
100
AcDbXrecord
280
     1
 91
     1023
301

290
     0
302
MODEL
330
14
 90
        8
 62
     7
370
    -3
331
13
  1
Color_7
330
0
 90
        0
 62
     7
370
    -3
331
13
  1
Color_7
330
4B
 90
        8
 62
     7
370
     0
331
13
  1
Color_7
330
4C
 90
        8
 62
     7
370
     9
331
13
  1
Color_7
330
4D
 90
        8
 62
     7
370
    -3
331
13
  1
Color_7
330
667
 90
        8
 62
     7
370
    -3
331
13
  1
Color_7
330
88C
 90
        8
 62
     7
370
     9
331
45
  1
Color_7
330
0
 90
        8
 62
     7
370
    -3
331
13
  1
Color_7
  0
DICTIONARY
  5
1BF6
330
279
100
AcDbDictionary
280
     1
281
     1
  3
ACAD_ROUNDTRIP_2008_TABLESTYLE_CELLSTYLEMAP
360
1BF7
  0
CELLSTYLEMAP
  5
1BF7
102
{ACAD_REACTORS
330
1BF6
102
}
330
1BF6
100
AcDbCellStyleMap
 90
        3
300
CELLSTYLE
  1
TABLEFORMAT_BEGIN
 90
        5
170
     1
 91
        0
 92
    32768
 62
   257
 93
        1
300
CONTENTFORMAT
  1
CONTENTFORMAT_BEGIN
 90
        0
 91
        0
 92
        4
 93
        0
300

 40
0.0
140
1.0
 94
        5
 62
     0
340
17
144
6.0
309
CONTENTFORMAT_END
171
     1
301
MARGIN
  1
CELLMARGIN_BEGIN
 40
0.06
 40
0.06
 40
0.06
 40
0.06
 40
0.18
 40
0.18
309
CELLMARGIN_END
 94
        6
 95
        1
302
GRIDFORMAT
  1
GRIDFORMAT_BEGIN
 90
        0
 91
        1
 62
     0
 92
       -2
340
0
 93
        0
 40
0.045
309
GRIDFORMAT_END
 95
        2
302
GRIDFORMAT
  1
GRIDFORMAT_BEGIN
 90
        0
 91
        1
 62
     0
 92
       -2
340
0
 93
        0
 40
0.045
309
GRIDFORMAT_END
 95
        4
302
GRIDFORMAT
  1
GRIDFORMAT_BEGIN
 90
        0
 91
        1
 62
     0
 92
       -2
340
0
 93
        0
 40
0.045
309
GRIDFORMAT_END
 95
        8
302
GRIDFORMAT
  1
GRIDFORMAT_BEGIN
 90
        0
 91
        1
 62
     0
 92
       -2
340
0
 93
        0
 40
0.045
309
GRIDFORMAT_END
 95
       16
302
GRIDFORMAT
  1
GRIDFORMAT_BEGIN
 90
        0
 91
        1
 62
     0
 92
       -2
340
0
 93
        0
 40
0.045
309
GRIDFORMAT_END
 95
       32
302
GRIDFORMAT
  1
GRIDFORMAT_BEGIN
 90
        0
 91
        1
 62
     0
 92
       -2
340
0
 93
        0
 40
0.045
309
GRIDFORMAT_END
309
TABLEFORMAT_END
  1
CELLSTYLE_BEGIN
 90
        1
 91
        1
300
_TITLE
309
CELLSTYLE_END
300
CELLSTYLE
  1
TABLEFORMAT_BEGIN
 90
        5
170
     1
 91
        0
 92
        0
 62
   257
 93
        1
300
CONTENTFORMAT
  1
CONTENTFORMAT_BEGIN
 90
        0
 91
        0
 92
        4
 93
        0
300

 40
0.0
140
1.0
 94
        5
 62
     0
340
17
144
4.5
309
CONTENTFORMAT_END
171
     1
301
MARGIN
  1
CELLMARGIN_BEGIN
 40
0.06
 40
0.06
 40
0.06
 40
0.06
 40
0.18
 40
0.18
309
CELLMARGIN_END
 94
        6
 95
        1
302
GRIDFORMAT
  1
GRIDFORMAT_BEGIN
 90
        0
 91
        1
 62
     0
 92
       -2
340
0
 93
        0
 40
0.045
309
GRIDFORMAT_END
 95
        2
302
GRIDFORMAT
  1
GRIDFORMAT_BEGIN
 90
        0
 91
        1
 62
     0
 92
       -2
340
0
 93
        0
 40
0.045
309
GRIDFORMAT_END
 95
        4
302
GRIDFORMAT
  1
GRIDFORMAT_BEGIN
 90
        0
 91
        1
 62
     0
 92
       -2
340
0
 93
        0
 40
0.045
309
GRIDFORMAT_END
 95
        8
302
GRIDFORMAT
  1
GRIDFORMAT_BEGIN
 90
        0
 91
        1
 62
     0
 92
       -2
340
0
 93
        0
 40
0.045
309
GRIDFORMAT_END
 95
       16
302
GRIDFORMAT
  1
GRIDFORMAT_BEGIN
 90
        0
 91
        1
 62
     0
 92
       -2
340
0
 93
        0
 40
0.045
309
GRIDFORMAT_END
 95
       32
302
GRIDFORMAT
  1
GRIDFORMAT_BEGIN
 90
        0
 91
        1
 62
     0
 92
       -2
340
0
 93
        0
 40
0.045
309
GRIDFORMAT_END
309
TABLEFORMAT_END
  1
CELLSTYLE_BEGIN
 90
        2
 91
        1
300
_HEADER
309
CELLSTYLE_END
300
CELLSTYLE
  1
TABLEFORMAT_BEGIN
 90
        5
170
     1
 91
        0
 92
        0
 62
   257
 93
        1
300
CONTENTFORMAT
  1
CONTENTFORMAT_BEGIN
 90
        0
 91
        0
 92
        4
 93
        0
300

 40
0.0
140
1.0
 94
        2
 62
     0
340
17
144
4.5
309
CONTENTFORMAT_END
171
     1
301
MARGIN
  1
CELLMARGIN_BEGIN
 40
0.06
 40
0.06
 40
0.06
 40
0.06
 40
0.18
 40
0.18
309
CELLMARGIN_END
 94
        6
 95
        1
302
GRIDFORMAT
  1
GRIDFORMAT_BEGIN
 90
        0
 91
        1
 62
     0
 92
       -2
340
0
 93
        0
 40
0.045
309
GRIDFORMAT_END
 95
        2
302
GRIDFORMAT
  1
GRIDFORMAT_BEGIN
 90
        0
 91
        1
 62
     0
 92
       -2
340
0
 93
        0
 40
0.045
309
GRIDFORMAT_END
 95
        4
302
GRIDFORMAT
  1
GRIDFORMAT_BEGIN
 90
        0
 91
        1
 62
     0
 92
       -2
340
0
 93
        0
 40
0.045
309
GRIDFORMAT_END
 95
        8
302
GRIDFORMAT
  1
GRIDFORMAT_BEGIN
 90
        0
 91
        1
 62
     0
 92
       -2
340
0
 93
        0
 40
0.045
309
GRIDFORMAT_END
 95
       16
302
GRIDFORMAT
  1
GRIDFORMAT_BEGIN
 90
        0
 91
        1
 62
     0
 92
       -2
340
0
 93
        0
 40
0.045
309
GRIDFORMAT_END
 95
       32
302
GRIDFORMAT
  1
GRIDFORMAT_BEGIN
 90
        0
 91
        1
 62
     0
 92
       -2
340
0
 93
        0
 40
0.045
309
GRIDFORMAT_END
309
TABLEFORMAT_END
  1
CELLSTYLE_BEGIN
 90
        3
 91
        2
300
_DATA
309
CELLSTYLE_END
  0
ENDSEC
  0
EOF
