  0
SECTION
  2
HEADER
  9
$ACADVER
  1
AC1009
  9
$INSBASE
 10
0
 20
0
 30
0
  9
$EXTMIN
 10
0
 20
0
  9
$EXTMAX
 10
1682
 20
1188
  9
$LIMMIN
 10
0
 20
0
  9
$LIMMAX
 10
1682
 20
1188
  9
$LTSCALE
 40
2
  0
ENDSEC
  0
SECTION
  2
TABLES
  0
TABLE
  2
LTYPE
 70
     9
  0
LTYPE
  2
CONTINUOUS
 70
    64
  3
実線
 72
    65
 73
     0
 40
0.0
  0
LTYPE
  2
DASHED1
 70
    64
  3
--  --  --  --  --  --  --  --  
 72
    65
 73
     2
 40
2.5
 49
1.25
 49
-1.25
  0
LTYPE
  2
DASHED2
 70
    64
  3
----    ----    ----    ----    
 72
    65
 73
     2
 40
5.0
 49
2.5
 49
-2.5
  0
LTYPE
  2
DASHED3
 70
    64
  3
------  ------  ------  ------  
 72
    65
 73
     2
 40
5.0
 49
3.75
 49
-1.25
  0
LTYPE
  2
CENTER1
 70
    64
  3
----- - ----- - ----- - ----- - 
 72
    65
 73
     4
 40
10.0
 49
6.25
 49
-1.25
 49
1.25
 49
-1.25
  0
LTYPE
  2
CENTER2
 70
    64
  3
----------  --  ----------  --  
 72
    65
 73
     4
 40
20.0
 49
12.5
 49
-2.5
 49
2.5
 49
-2.5
  0
LTYPE
  2
PHANTOM1
 70
    64
  3
--- - - --- - - --- - - --- - - 
 72
    65
 73
     6
 40
10.0
 49
3.25
 49
-1.25
 49
1.25
 49
-1.25
 49
1.25
 49
-1.25
  0
LTYPE
  2
PHANTOM2
 70
    64
  3
--------  -  -  --------  -  -  
 72
    65
 73
     6
 40
20.0
 49
10.0
 49
-2.5
 49
1.25
 49
-2.5
 49
1.25
 49
-2.5
  0
LTYPE
  2
DOT
 70
    64
  3
-   -   -   -   -   -   -   -   
 72
    65
 73
     2
 40
2.5
 49
0.625
 49
-1.875
  0
LTYPE
  2
DUMMY
 70
    64
  3
ダミー
 72
    65
 73
     0
 40
0.0
  0
LTYPE
  2
RAND1
 70
    64
  3
ランダム線1
 72
    65
 73
     4
 40
10.0
 49
1.0
 49
-2.0
 49
3.0
 49
-4.0
  0
LTYPE
  2
RAND2
 70
    64
  3
ランダム線2
 72
    65
 73
     4
 40
14.0
 49
2.0
 49
-3.0
 49
4.0
 49
-5.0
  0
LTYPE
  2
RAND3
 70
    64
  3
ランダム線3
 72
    65
 73
     4
 40
18.0
 49
3.0
 49
-4.0
 49
5.0
 49
-6.0
  0
LTYPE
  2
RAND4
 70
    64
  3
ランダム線4
 72
    65
 73
     4
 40
22.0
 49
4.0
 49
-5.0
 49
6.0
 49
-7.0
  0
LTYPE
  2
RAND5
 70
    64
  3
ランダム線5
 72
    65
 73
     4
 40
26.0
 49
5.0
 49
-6.0
 49
7.0
 49
-8.0
  0
LTYPE
  2
LONG1
 70
    64
  3
----------  --  ----------  --  
 72
    65
 73
     4
 40
40.0
 49
32.5
 49
-2.5
 49
2.5
 49
-2.5
  0
LTYPE
  2
LONG2
 70
    64
  3
--------  -  -  --------  -  -  
 72
    65
 73
     6
 40
40.0
 49
30.0
 49
-2.5
 49
1.25
 49
-2.5
 49
1.25
 49
-2.5
  0
LTYPE
  2
LONG3
 70
    64
  3
+++++++++++++++..+++++++++++++++
 72
    65
 73
     2
 40
40.0
 49
37.5
 49
-2.5
  0
LTYPE
  2
LONG4
 70
    64
  3
+++++++++++++++..+++++++++++++++
 72
    65
 73
     2
 40
80.0
 49
75.0
 49
-5.0
  0
LTYPE
  2
LONG5
 70
    64
  3
----------  --  ----------  --  
 72
    65
 73
     4
 40
60.0
 49
37.5
 49
-7.5
 49
7.5
 49
-7.5
  0
LTYPE
  2
dashed
 70
   64
  3
-------   -------------   ------
 72
   65
 73
    2
 40
7.5
 49
6
 49
-1.5
  0
LTYPE
  2
dashed_spaced
 70
   64
  3
----        --------        ----
 72
   65
 73
    2
 40
12
 49
6
 49
-6
  0
LTYPE
  2
long_dashed_dotted
 70
   64
  3
------------- --- --------------
 72
   65
 73
    4
 40
15.25
 49
12
 49
-1.5
 49
0.25
 49
-1.5
  0
LTYPE
  2
long_dashed_double-dotted
 70
   64
  3
----------- --- --- ------------
 72
   65
 73
    6
 40
17
 49
12
 49
-1.5
 49
0.25
 49
-1.5
 49
0.25
 49
-1.5
  0
LTYPE
  2
long_dashed_triplicate-dotted
 70
   64
  3
--------- --- --- --- ----------
 72
   65
 73
    8
 40
18.75
 49
12
 49
-1.5
 49
0.25
 49
-1.5
 49
0.25
 49
-1.5
 49
0.25
 49
-1.5
  0
LTYPE
  2
dotted
 70
   64
  3
   -       -       -       -    
 72
   65
 73
    2
 40
1.75
 49
0.25
 49
-1.5
  0
LTYPE
  2
chain
 70
   64
  3
-------------- -- --------------
 72
   65
 73
    4
 40
18.5
 49
12
 49
-1.5
 49
3.5
 49
-1.5
  0
LTYPE
  2
chain_double_dash
 70
   64
  3
------------ -- -- -------------
 72
   65
 73
    6
 40
23.5
 49
12
 49
-1.5
 49
3.5
 49
-1.5
 49
3.5
 49
-1.5
  0
LTYPE
  2
dashed_dotted
 70
   64
  3
-----------     -     ----------
 72
   65
 73
    4
 40
9.25
 49
6
 49
-1.5
 49
0.25
 49
-1.5
  0
LTYPE
  2
double-dashed_dotted
 70
   64
  3
------   -----------   -   -----
 72
   65
 73
    6
 40
16.75
 49
6
 49
-1.5
 49
6
 49
-1.5
 49
0.25
 49
-1.5
  0
LTYPE
  2
dashed_double-dotted
 70
   64
  3
---------    -    -    ---------
 72
   65
 73
    6
 40
11
 49
6
 49
-1.5
 49
0.25
 49
-1.5
 49
0.25
 49
-1.5
  0
LTYPE
  2
double-dashed_double-dotted
 70
   64
  3
-----   ---------   -   -   ----
 72
   65
 73
    8
 40
18.5
 49
6
 49
-1.5
 49
6
 49
-1.5
 49
0.25
 49
-1.5
 49
0.25
 49
-1.5
  0
LTYPE
  2
dashed_triplicate-dotted
 70
   64
  3
-------    -    -    -    ------
 72
   65
 73
    8
 40
12.75
 49
6
 49
-1.5
 49
0.25
 49
-1.5
 49
0.25
 49
-1.5
 49
0.25
 49
-1.5
  0
LTYPE
  2
double-dashed_triplicate-dotted
 70
   64
  3
-----  ---------  -  -  -  -----
 72
   65
 73
   10
 40
20.25
 49
6
 49
-1.5
 49
6
 49
-1.5
 49
0.25
 49
-1.5
 49
0.25
 49
-1.5
 49
0.25
 49
-1.5
  0
LTYPE
  2
undefined
 70
   64
  3
--------------------------------
 72
   65
 73
    0
 40
0
  0
ENDTAB
  0
TABLE
  2
STYLE
  5
3
100
AcDbSymbolTable
 70
     1
  0
STYLE
  5
10
100
AcDbSymbolTableRecord
100
AcDbTextStyleTableRecord
  2
STANDARD
 70
     0
 40
0.0
 41
1.0
 50
0.0
 71
     0
 42
0.2
  3
txt
  4
bigfont.shx
  0
STYLE
  5
26
100
AcDbSymbolTableRecord
100
AcDbTextStyleTableRecord
  2
TATEGAKI
 70
    68
 40
0.0
 41
1.0
 50
0.0
 71
     0
 42
1.0
  3
txt
  4
bigfont.shx
  0
ENDTAB
  0
TABLE
  2
LAYER
 70
    4
  0
LAYER
  2
_0-0_FRF74-0422
 70
   64
 62
    7
  6
CONTINUOUS
  0
LAYER
  2
_0-1_
 70
   64
 62
    7
  6
CONTINUOUS
  0
LAYER
  2
_0-2_
 70
   64
 62
    7
  6
CONTINUOUS
  0
LAYER
  2
ADD_LINE
 70
   64
 62
    7
  6
CONTINUOUS
  0
ENDTAB
  0
ENDSEC
  0
SECTION
  2
BLOCKS
  0
ENDSEC
  0
SECTION
  2
ENTITIES
  0
LINE
  8
_0-0_FRF74-0422
  6
CONTINUOUS
 62
    7
 10
969.55232203947367
 20
840.14767066783759
 11
969.55232203947367
 21
780.14767066783759
  0
LINE
  8
_0-2_
  6
CONTINUOUS
 62
    7
 10
1079.8988725370491
 20
503.2673488237719
 11
689.8988725370491
 21
503.2673488237719
  0
LINE
  8
_0-2_
  6
CONTINUOUS
 62
    7
 10
1079.8988725371457
 20
1029.267348823772
 11
689.89887253714551
 21
1029.267348823772
  0
LINE
  8
_0-2_
  6
CONTINUOUS
 62
    7
 10
689.89887253714551
 20
1029.267348823772
 11
689.89887253714551
 21
469.2673488237719
  0
LINE
  8
_0-2_
  6
CONTINUOUS
 62
    7
 10
689.89887253714551
 20
469.2673488237719
 11
1079.8988725371457
 21
469.2673488237719
  0
LINE
  8
_0-2_
  6
CONTINUOUS
 62
    7
 10
1079.8988725371457
 20
469.2673488237719
 11
1079.8988725371457
 21
1029.267348823772
  0
LINE
  8
_0-2_
  6
CONTINUOUS
 62
    7
 10
1079.8988725370491
 20
520.26734882377195
 11
689.8988725370491
 21
520.26734882377195
  0
LINE
  8
_0-2_
  6
CONTINUOUS
 62
    7
 10
1079.8988725371457
 20
486.2673488237719
 11
929.29887253714571
 21
486.2673488237719
  0
LINE
  8
_0-2_
  6
CONTINUOUS
 62
    7
 10
1029.6988725371975
 20
486.2673488237719
 11
1029.6988725371975
 21
503.2673488237719
  0
LINE
  8
_0-2_
  6
CONTINUOUS
 62
    7
 10
979.49887253719749
 20
486.2673488237719
 11
979.49887253719749
 21
503.2673488237719
  0
LINE
  8
_0-2_
  6
CONTINUOUS
 62
    7
 10
929.29887253719744
 20
469.2673488237719
 11
929.29887253719744
 21
520.26734882377195
  0
TEXT
  8
_0-2_
 62
    7
 10
936.36516934588531
 20
473.92519932464324
 40
6
 41
1
 50
0
  1
大洋金物株式会社 ティーフォルム事業部
  0
TEXT
  8
_0-2_
 62
    7
 10
692.03092613020874
 20
496.95829989926438
 40
4.4000000000000004
 41
1
 50
0
  1
仕様
  0
TEXT
  8
_0-2_
 62
    7
 10
692.11008412622641
 20
513.7277384202182
 40
4.4000000000000004
 41
1
 50
0
  1
品名
  0
TEXT
  8
_0-2_
 62
    7
 10
931.58014201817321
 20
514.02354576782386
 40
4.4000000000000004
 41
1
 50
0
  1
品番
  0
TEXT
  8
_0-2_
 62
    7
 10
931.40046929208268
 20
496.85593532261146
 40
4.4000000000000004
 41
1
 50
0
  1
重量
  0
TEXT
  8
_0-2_
 62
    7
 10
981.63419090952073
 20
497.28379304790997
 40
4.4000000000000004
 41
1
 50
0
  1
容量
  0
TEXT
  8
_0-2_
 62
    7
 10
1031.8476186341097
 20
497.19837872271296
 40
4.4000000000000004
 41
1
 50
0
  1
縮尺
  0
TEXT
  8
_0-2_
 62
    4
 10
690.59866426069993
 20
460.90948008418826
 40
5
 41
1
 50
0
  1
120907S
  0
LINE
  8
_0-1_
  6
CONTINUOUS
 62
    4
 10
725.41121927268864
 20
711.1476706678377
 11
725.41121927268864
 21
840.1476706678377
  0
POINT
  8
_0-1_
 62
    7
 10
725.41121927268864
 20
711.1476706678377
  0
POINT
  8
_0-1_
 62
    7
 10
725.41121927268864
 20
840.1476706678377
  0
LINE
  8
_0-1_
  6
CONTINUOUS
 62
    4
 10
725.41121927268864
 20
711.1476706678377
 11
759.91121559912585
 21
711.1476706678377
  0
LINE
  8
_0-1_
  6
CONTINUOUS
 62
    4
 10
725.41121927268864
 20
840.1476706678377
 11
817.41121927268864
 21
840.1476706678377
  0
TEXT
  8
_0-1_
 62
    4
 10
724.41121927268864
 20
771.8976706678377
 40
5
 41
1
 50
90
  1
129
  0
LINE
  8
_0-1_
  6
CONTINUOUS
 62
    4
 10
755.41121927268864
 20
680.75540978688457
 11
891.41121927268864
 21
680.75540978688457
  0
POINT
  8
_0-1_
 62
    7
 10
891.41121927268864
 20
680.75540978688457
  0
LINE
  8
_0-1_
  6
CONTINUOUS
 62
    4
 10
755.41121927268864
 20
680.75540978688457
 11
755.41121927268864
 21
736.14767066783759
  0
LINE
  8
_0-1_
  6
CONTINUOUS
 62
    4
 10
891.41121927268864
 20
680.75540978688457
 11
891.41121927268864
 21
736.14767066783759
  0
TEXT
  8
_0-1_
 62
    4
 10
819.66121927268864
 20
681.75540978688457
 40
5
 41
1
 50
0
  1
136
  0
LINE
  8
_0-1_
  6
CONTINUOUS
 62
    4
 10
939.55232203947367
 20
840.14767066783759
 11
939.55232203947367
 21
780.14767066783759
  0
POINT
  8
_0-1_
 62
    7
 10
939.55232203947367
 20
840.14767066783759
  0
POINT
  8
_0-1_
 62
    7
 10
939.55232203947367
 20
780.14767066783759
  0
LINE
  8
_0-1_
  6
CONTINUOUS
 62
    4
 10
939.55232203947367
 20
840.14767066783759
 11
963.55232203947367
 21
840.14767066783759
  0
LINE
  8
_0-1_
  6
CONTINUOUS
 62
    4
 10
939.55232203947367
 20
780.14767066783759
 11
963.55232203947367
 21
780.14767066783759
  0
TEXT
  8
_0-1_
 62
    4
 10
938.55232203947367
 20
807.64767066783759
 40
5
 41
1
 50
90
  1
60
  0
TEXT
  8
_0-1_
 62
    4
 10
938.21485290485521
 20
802.12698125014958
 40
5
 41
1
 50
90
  1
φ
  0
LINE
  8
_0-1_
  6
CONTINUOUS
 62
    4
 10
969.55232203947367
 20
696.20983263139181
 11
1025.5523220394739
 21
696.20983263139181
  0
POINT
  8
_0-1_
 62
    7
 10
969.55232203947367
 20
696.20983263139181
  0
POINT
  8
_0-1_
 62
    7
 10
1025.5523220394739
 20
696.20983263139181
  0
LINE
  8
_0-1_
  6
CONTINUOUS
 62
    4
 10
969.55232203947367
 20
696.20983263139181
 11
969.55232203947367
 21
774.14767066783759
  0
LINE
  8
_0-1_
  6
CONTINUOUS
 62
    4
 10
1025.5523220394739
 20
696.20983263139181
 11
1025.5523220394739
 21
802.1476706678377
  0
TEXT
  8
_0-1_
 62
    4
 10
995.05232203947378
 20
697.20983263139181
 40
5
 41
1
 50
0
  1
56
  0
LINE
  8
_0-1_
  6
CONTINUOUS
 62
    4
 10
1020.5523235083394
 20
713.97636877683237
 11
1012.5523235083394
 21
713.97636877683237
  0
TEXT
  8
_0-1_
 62
    4
 10
1002.5523235083394
 20
714.97636877683237
 40
5
 41
1
 50
0
  1
φ8
  0
LINE
  8
_0-1_
  6
CONTINUOUS
 62
    4
 10
1012.5523235083394
 20
713.97636877683237
 11
1002.5523235083394
 21
713.97636877683237
  0
POINT
  8
_0-1_
 62
    7
 10
1020.5523235083394
 20
713.97636877683237
  0
POINT
  8
_0-1_
 62
    7
 10
1012.5523235083394
 20
713.97636877683237
  0
LINE
  8
_0-1_
  6
CONTINUOUS
 62
    4
 10
1020.5523235083394
 20
724.14767066783759
 11
1020.5523235083394
 21
713.97636877683237
  0
LINE
  8
_0-1_
  6
CONTINUOUS
 62
    4
 10
1012.5523235083394
 20
724.14767066783759
 11
1012.5523235083394
 21
713.97636877683237
  0
LINE
  8
_0-0_FRF74-0422
  6
CONTINUOUS
 62
    7
 10
808.91121974164867
 20
816.14767088898714
 11
807.91121957773589
 21
816.14767088898714
  0
LINE
  8
_0-0_FRF74-0422
  6
CONTINUOUS
 62
    7
 10
838.91121907109641
 20
816.14767088898714
 11
837.91121937284493
 21
816.14767088898714
  0
LINE
  8
_0-0_FRF74-0422
  6
CONTINUOUS
 62
    7
 10
891.41121929461383
 20
742.14766807266767
 11
891.41121929461383
 21
752.1476697117954
  0
ARC
  8
_0-0_FRF74-0422
  6
CONTINUOUS
 62
    7
 10
771.41121927268864
 20
742.14767066783759
 40
16.000000000000028
 50
180
 51
228.98550033427045
  0
ARC
  8
_0-0_FRF74-0422
  6
CONTINUOUS
 62
    7
 10
771.41121927268864
 20
798.14767066783759
 40
15.999999999999988
 50
131.01449966573054
 51
180
  0
LINE
  8
_0-0_FRF74-0422
  6
CONTINUOUS
 62
    7
 10
755.41121935421847
 20
798.14767073252494
 11
755.41121935421847
 21
742.14766807266767
  0
ARC
  8
_0-0_FRF74-0422
  6
CONTINUOUS
 62
    7
 10
875.41121927268864
 20
742.14767066783759
 40
16.000000000000057
 50
311.01449966573114
 51
0.0000000000000254
  0
LINE
  8
_0-0_FRF74-0422
  6
CONTINUOUS
 62
    7
 10
837.91121937284493
 20
819.14767044940288
 11
808.91121974164867
 21
819.14767044940288
  0
LINE
  8
_0-0_FRF74-0422
  6
CONTINUOUS
 62
    7
 10
807.91121957773589
 20
816.34767054924066
 11
807.91121957773589
 21
814.96904957452114
  0
LINE
  8
_0-0_FRF74-0422
  6
CONTINUOUS
 62
    7
 10
838.91121907109641
 20
814.96904957452114
 11
838.91121907109641
 21
816.34767054924066
  0
LINE
  8
_0-0_FRF74-0422
  6
CONTINUOUS
 62
    7
 10
891.41121929461383
 20
752.1476697117954
 11
885.91121932441615
 21
752.1476697117954
  0
ARC
  8
_0-0_FRF74-0422
  6
CONTINUOUS
 62
    7
 10
823.41121927268864
 20
810.14767066783759
 40
30.000000000000004
 50
11.927081555732551
 51
168.07291844426743
  0
LINE
  8
_0-0_FRF74-0422
  6
CONTINUOUS
 62
    7
 10
760.91121559912585
 20
716.1476706678377
 11
760.91121559912585
 21
814.38780021266336
  0
ARC
  8
_0-0_FRF74-0422
  6
CONTINUOUS
 62
    7
 10
765.91121559912585
 20
716.1476706678377
 40
5
 50
180
 51
270
  0
LINE
  8
_0-0_FRF74-0422
  6
CONTINUOUS
 62
    7
 10
880.91121932441615
 20
711.1476706678377
 11
765.91121559912585
 21
711.1476706678377
  0
LINE
  8
_0-0_FRF74-0422
  6
CONTINUOUS
 62
    7
 10
885.91121932441615
 20
716.1476706678377
 11
885.91121932441615
 21
814.38780021266336
  0
ARC
  8
_0-0_FRF74-0422
  6
CONTINUOUS
 62
    7
 10
880.91121932441615
 20
716.1476706678377
 40
5
 50
270
 51
0
  0
LINE
  8
_0-0_FRF74-0422
  6
CONTINUOUS
 62
    7
 10
1012.5523220394738
 20
810.14767066783759
 11
1012.5523220394738
 21
798.14767066783759
  0
LINE
  8
_0-0_FRF74-0422
  6
CONTINUOUS
 62
    7
 10
1020.5523220394737
 20
798.14767066783759
 11
1020.5523220394737
 21
810.14767066783759
  0
LINE
  8
_0-0_FRF74-0422
  6
CONTINUOUS
 62
    7
 10
1012.5523220394738
 20
742.14767066783759
 11
1012.5523220394738
 21
730.14767066783759
  0
LINE
  8
_0-0_FRF74-0422
  6
CONTINUOUS
 62
    7
 10
1020.5523220394737
 20
730.14767066783759
 11
1020.5523220394737
 21
742.14767066783759
  0
LINE
  8
_0-0_FRF74-0422
  6
CONTINUOUS
 62
    7
 10
1020.5523220394737
 20
742.14767066783759
 11
1020.5523220394737
 21
798.14767066783759
  0
LINE
  8
_0-0_FRF74-0422
  6
CONTINUOUS
 62
    7
 10
1012.5523220394738
 20
798.14767066783759
 11
1012.5523220394738
 21
742.14767066783759
  0
LINE
  8
_0-0_FRF74-0422
  6
CONTINUOUS
 62
    7
 10
970.78057469960913
 20
780.1721947574348
 11
971.05232203947367
 21
779.90044741757015
  0
LINE
  8
_0-0_FRF74-0422
  6
CONTINUOUS
 62
    7
 10
975.05232203947367
 20
779.90044741757015
 11
975.32399574283363
 21
780.17212112093011
  0
LINE
  8
_0-0_FRF74-0422
  6
CONTINUOUS
 62
    7
 10
1014.5523220394737
 20
819.14767066783759
 11
979.55232203947367
 21
819.14767066783759
  0
LINE
  8
_0-0_FRF74-0422
  6
CONTINUOUS
 62
    7
 10
979.55232203947367
 20
801.14767066783759
 11
1012.552322039474
 21
801.14767066783759
  0
LINE
  8
_0-0_FRF74-0422
  6
CONTINUOUS
 62
    7
 10
979.05232203947367
 20
840.14767066783759
 11
969.55232203947367
 21
840.14767066783759
  0
ARC
  8
_0-0_FRF74-0422
  6
CONTINUOUS
 62
    7
 10
979.05232203947367
 20
839.64767066783759
 40
0.5
 50
0
 51
90
  0
ARC
  8
_0-0_FRF74-0422
  6
CONTINUOUS
 62
    7
 10
979.05232203947367
 20
780.64767066783759
 40
0.5
 50
270
 51
0
  0
ARC
  8
_0-0_FRF74-0422
  6
CONTINUOUS
 62
    7
 10
1016.5523220394737
 20
810.14767066783759
 40
4.359999999999995
 50
336.55338274495335
 51
203.44661725504832
  0
ARC
  8
_0-0_FRF74-0422
  6
CONTINUOUS
 62
    7
 10
1016.5523220394737
 20
810.14767066783759
 40
4.0999999999999952
 50
347.31961650818045
 51
192.680383491821
  0
LINE
  8
_0-0_FRF74-0422
  6
CONTINUOUS
 62
    7
 10
1019.6958603059531
 20
814.03587940286957
 11
1020.4503094899082
 21
814.96904949927728
  0
ARC
  8
_0-0_FRF74-0422
  6
CONTINUOUS
 62
    7
 10
963.86662069327781
 20
744.98129226870105
 40
90.000000000000028
 50
340.87026262856364
 51
50.460278231496723
  0
ARC
  8
_0-0_FRF74-0422
  6
CONTINUOUS
 62
    7
 10
963.86662069327781
 20
744.98129226870105
 40
88.800000000000054
 50
340.87026262856358
 51
50.46027823149673
  0
LINE
  8
_0-0_FRF74-0422
  6
CONTINUOUS
 62
    7
 10
1021.1617921248398
 20
814.38780010930577
 11
1020.4503094899082
 21
814.96904949927728
  0
LINE
  8
_0-0_FRF74-0422
  6
CONTINUOUS
 62
    7
 10
1020.3978565057523
 20
813.46238000476433
 11
1019.6958603059531
 21
814.03587940286957
  0
LINE
  8
_0-0_FRF74-0422
  6
CONTINUOUS
 62
    7
 10
1047.1047668063484
 20
710.75540978688457
 11
1045.994924858174
 21
711.2117548866421
  0
LINE
  8
_0-0_FRF74-0422
  6
CONTINUOUS
 62
    7
 10
1047.1047668063484
 20
710.75540978688457
 11
1047.206573744744
 21
711.00302568029997
  0
ARC
  8
_0-0_FRF74-0422
  6
CONTINUOUS
 62
    7
 10
989.91190244301299
 20
734.55965199841978
 40
61.948317193164598
 50
337.65005219185139
 51
338.73123523914904
  0
LINE
  8
_0-0_FRF74-0422
  6
CONTINUOUS
 62
    7
 10
1047.6408651358545
 20
712.08831760383066
 11
1047.7173873368261
 21
712.28490349443609
  0
ARC
  8
_0-0_FRF74-0422
  6
CONTINUOUS
 62
    7
 10
951.61371890124565
 20
749.69381523000868
 40
103.12779336345662
 50
338.73123523914887
 51
339.14630961115785
  0
LINE
  8
_0-0_FRF74-0422
  6
CONTINUOUS
 62
    7
 10
1047.9858688031838
 20
712.98209384168149
 11
1048.0136028712054
 21
713.05489870235544
  0
ARC
  8
_0-0_FRF74-0422
  6
CONTINUOUS
 62
    7
 10
987.05038057956722
 20
736.27804806638881
 40
65.236716184706268
 50
339.14630961115404
 51
339.6656185343856
  0
LINE
  8
_0-0_FRF74-0422
  6
CONTINUOUS
 62
    7
 10
1048.2215824597788
 20
713.60839436161586
 11
1048.240615010244
 21
713.65975129904291
  0
ARC
  8
_0-0_FRF74-0422
  6
CONTINUOUS
 62
    7
 10
924.27853555190734
 20
759.59930009760888
 40
132.20075373253661
 50
339.66561853439316
 51
339.87440712843153
  0
LINE
  8
_0-0_FRF74-0422
  6
CONTINUOUS
 62
    7
 10
1048.4071975285237
 20
714.11177913475944
 11
1048.419481015311
 21
714.14529893858764
  0
ARC
  8
_0-0_FRF74-0422
  6
CONTINUOUS
 62
    7
 10
1003.799303317022
 20
730.49656895226917
 40
47.521829603743335
 50
339.87440712843454
 51
340.36914863076402
  0
LINE
  8
_0-0_FRF74-0422
  6
CONTINUOUS
 62
    7
 10
1048.5590068705665
 20
714.5311930817785
 11
1048.5824628130904
 21
714.59695295128984
  0
ARC
  8
_0-0_FRF74-0422
  6
CONTINUOUS
 62
    7
 10
925.20297729992069
 20
758.60528420778394
 40
130.9932466407171
 50
340.36914863075162
 51
340.48755639802209
  0
ARC
  8
_0-0_FRF74-0422
  6
CONTINUOUS
 62
    7
 10
949.67611899468636
 20
749.93290810766098
 40
105.02894862143566
 50
340.48755639803659
 51
340.63523582356515
  0
LINE
  8
_0-0_FRF74-0422
  6
CONTINUOUS
 62
    7
 10
1048.7632389006626
 20
715.10730377316486
 11
1048.7783170625196
 21
715.15020472665697
  0
ARC
  8
_0-0_FRF74-0422
  6
CONTINUOUS
 62
    7
 10
634.29029700631031
 20
860.82802644112098
 40
439.34308519605469
 50
340.63523582356976
 51
340.68112009416637
  0
LINE
  8
_0-0_FRF74-0422
  6
CONTINUOUS
 62
    7
 10
1048.8948475405775
 20
715.48218650799447
 11
1048.8967265424646
 21
715.48754548610202
  0
LINE
  8
_0-0_FRF74-0422
  6
CONTINUOUS
 62
    7
 10
1045.994924858174
 20
711.2117548866421
 11
1046.11588595478
 21
711.50595146968465
  0
ARC
  8
_0-0_FRF74-0422
  6
CONTINUOUS
 62
    7
 10
993.04807399572917
 20
733.32517405429439
 40
57.378315941807784
 50
337.64962389959197
 51
338.80129830342821
  0
LINE
  8
_0-0_FRF74-0422
  6
CONTINUOUS
 62
    7
 10
1046.5437137829529
 20
712.57697740799483
 11
1046.628722226279
 21
712.79615698974669
  0
ARC
  8
_0-0_FRF74-0422
  6
CONTINUOUS
 62
    7
 10
940.93734994644399
 20
753.78838335812736
 40
113.36237822589656
 50
338.80129830342861
 51
339.14659983807928
  0
LINE
  8
_0-0_FRF74-0422
  6
CONTINUOUS
 62
    7
 10
1046.8738471025888
 20
713.43386233114256
 11
1046.8916138218365
 21
713.48050255769385
  0
ARC
  8
_0-0_FRF74-0422
  6
CONTINUOUS
 62
    7
 10
986.69707972268577
 20
736.41048096195482
 40
64.414019010101399
 50
339.14659983808144
 51
339.66550668655572
  0
LINE
  8
_0-0_FRF74-0422
  6
CONTINUOUS
 62
    7
 10
1047.0968107431559
 20
714.0265952919342
 11
1047.1155812161016
 21
714.0772447427828
  0
ARC
  8
_0-0_FRF74-0422
  6
CONTINUOUS
 62
    7
 10
924.78688038660596
 20
759.41174553058136
 40
130.45891310413083
 50
339.66550668655071
 51
339.87427225291862
  0
LINE
  8
_0-0_FRF74-0422
  6
CONTINUOUS
 62
    7
 10
1047.2799517188409
 20
714.52326723261308
 11
1047.2920668490624
 21
714.55632737558722
  0
ARC
  8
_0-0_FRF74-0422
  6
CONTINUOUS
 62
    7
 10
1003.2803199994828
 20
730.68475261487526
 40
46.87387290859148
 50
339.87427225292134
 51
340.36922681549527
  0
LINE
  8
_0-0_FRF74-0422
  6
CONTINUOUS
 62
    7
 10
1047.4297497349135
 20
714.93712373027631
 11
1047.4529023155551
 21
715.00203338999211
  0
ARC
  8
_0-0_FRF74-0422
  6
CONTINUOUS
 62
    7
 10
925.67679540960114
 20
758.43826688288107
 40
129.2908604396269
 50
340.36922681549669
 51
340.48759152358184
  0
ARC
  8
_0-0_FRF74-0422
  6
CONTINUOUS
 62
    7
 10
949.79603665069897
 20
749.89131665523973
 40
103.70203170050613
 50
340.4875915235786
 51
340.63516309652073
  0
LINE
  8
_0-0_FRF74-0422
  6
CONTINUOUS
 62
    7
 10
1047.6312639885987
 20
715.50556858203015
 11
1047.6461439242223
 21
715.54790536299538
  0
ARC
  8
_0-0_FRF74-0422
  6
CONTINUOUS
 62
    7
 10
638.23455956733847
 20
859.4421240508708
 40
433.96243106680089
 50
340.63516309653556
 51
340.68100341794235
  0
LINE
  8
_0-0_FRF74-0422
  6
CONTINUOUS
 62
    7
 10
1047.7611375408003
 20
715.87550707201331
 11
1047.7629917978088
 21
715.88079544320328
  0
LINE
  8
_0-0_FRF74-0422
  6
CONTINUOUS
 62
    7
 10
1014.0675615469268
 20
815.8279845055298
 11
1014.548482932581
 21
814.72856892404104
  0
LINE
  8
_0-0_FRF74-0422
  6
CONTINUOUS
 62
    7
 10
1021.2096156536431
 20
806.05504117185149
 11
1020.5523220394739
 21
806.63264255491401
  0
ARC
  8
_0-0_FRF74-0422
  6
CONTINUOUS
 62
    7
 10
1016.5523220394737
 20
810.14767066783759
 40
4.999999999999968
 50
113.62618747792224
 51
216.8698976458453
  0
LINE
  8
_0-0_FRF74-0422
  6
CONTINUOUS
 62
    7
 10
1020.5523220394737
 20
805.41058295490677
 11
1020.7071477767003
 21
805.54577724303078
  0
LINE
  8
_0-0_FRF74-0422
  6
CONTINUOUS
 62
    7
 10
1020.7071477767003
 20
805.54577724303078
 11
1021.2096156536431
 21
806.05504117185149
  0
ARC
  8
_0-0_FRF74-0422
  6
CONTINUOUS
 62
    7
 10
1016.5523220394737
 20
810.14767066783759
 40
4
 50
0
 51
180
  0
ARC
  8
_0-0_FRF74-0422
  6
CONTINUOUS
 62
    7
 10
1016.5523220394737
 20
730.14767066783759
 40
4
 50
180
 51
0
  0
LINE
  8
_0-0_FRF74-0422
  6
CONTINUOUS
 62
    7
 10
969.55232203947367
 20
792.23057443649236
 11
969.5443692190446
 21
792.22598287347671
  0
LINE
  8
_0-0_FRF74-0422
  6
CONTINUOUS
 62
    7
 10
969.55232203947367
 20
792.21220818442998
 11
969.5443692190446
 21
792.22598287347671
  0
LINE
  8
_0-0_FRF74-0422
  6
CONTINUOUS
 62
    7
 10
969.55232203947367
 20
831.99061043935694
 11
969.5443692190446
 21
831.97683575031022
  0
LINE
  8
_0-0_FRF74-0422
  6
CONTINUOUS
 62
    7
 10
969.55232203947367
 20
831.97224418729468
 11
969.5443692190446
 21
831.97683575031022
  0
LINE
  8
_0-0_FRF74-0422
  6
CONTINUOUS
 62
    7
 10
1014.5523220394737
 20
819.14767066783759
 11
1014.5523220394737
 21
818.92263505522976
  0
ARC
  8
_0-0_FRF74-0422
  6
CONTINUOUS
 62
    7
 10
1016.5523220394737
 20
810.14767066783759
 40
9.0000000000000426
 50
2.3964228908362331
 51
180
  0
ARC
  8
_0-0_FRF74-0422
  6
CONTINUOUS
 62
    7
 10
1016.5523220394737
 20
810.14767066783759
 40
9.0000000000000249
 50
296.38779996124373
 51
352.27216638673963
  0
ARC
  8
_0-0_FRF74-0422
  6
CONTINUOUS
 62
    7
 10
1016.5523220394737
 20
810.14767066783759
 40
9
 50
180
 51
243.6122000387582
  0
LINE
  8
_0-0_FRF74-0422
  6
CONTINUOUS
 62
    7
 10
979.55232203947367
 20
839.64767066783759
 11
979.55232203947367
 21
780.64767066783759
  0
LINE
  8
_0-0_FRF74-0422
  6
CONTINUOUS
 62
    7
 10
969.55232203947367
 20
780.14767066783759
 11
970.78057469960913
 21
780.14767066783759
  0
LINE
  8
_0-0_FRF74-0422
  6
CONTINUOUS
 62
    7
 10
975.05232203947367
 20
779.90044741757015
 11
975.0479521478162
 21
779.90044741757015
  0
LINE
  8
_0-0_FRF74-0422
  6
CONTINUOUS
 62
    7
 10
975.0479521478162
 20
779.90044741757015
 11
971.05232203947367
 21
779.90044741757015
  0
LINE
  8
_0-0_FRF74-0422
  6
CONTINUOUS
 62
    7
 10
762.92581012369169
 20
816.34767054924066
 11
807.91121957773589
 21
816.34767054924066
  0
LINE
  8
_0-0_FRF74-0422
  6
CONTINUOUS
 62
    7
 10
760.94593653866059
 20
814.63069102075417
 11
760.91121559912585
 21
814.38780021266336
  0
ARC
  8
_0-0_FRF74-0422
  6
CONTINUOUS
 62
    7
 10
762.92581012369169
 20
814.34767054924066
 40
2
 50
90
 51
171.86475349046265
  0
LINE
  8
_0-0_FRF74-0422
  6
CONTINUOUS
 62
    7
 10
882.88477507502034
 20
816.34767054924066
 11
838.91121907109641
 21
816.34767054924066
  0
LINE
  8
_0-0_FRF74-0422
  6
CONTINUOUS
 62
    7
 10
883.89662635652405
 20
816.34767054924066
 11
882.88477507502034
 21
816.34767054924066
  0
LINE
  8
_0-0_FRF74-0422
  6
CONTINUOUS
 62
    7
 10
885.87650171910286
 20
814.63067858561612
 11
885.91121932441615
 21
814.38780021266336
  0
ARC
  8
_0-0_FRF74-0422
  6
CONTINUOUS
 62
    7
 10
883.89662635652405
 20
814.34767054924066
 40
2
 50
8.1348866478714417
 51
90
  0
LINE
  8
_0-0_FRF74-0422
  6
CONTINUOUS
 62
    7
 10
807.91121957773589
 20
806.80069050723012
 11
807.91121957773589
 21
814.96904957452114
  0
ARC
  8
_0-0_FRF74-0422
  6
CONTINUOUS
 62
    7
 10
809.41121957773589
 20
806.80069050723012
 40
1.5
 50
180
 51
270
  0
LINE
  8
_0-0_FRF74-0422
  6
CONTINUOUS
 62
    7
 10
837.41121907109641
 20
805.30069050723012
 11
809.41121957773589
 21
805.30069050723012
  0
LINE
  8
_0-0_FRF74-0422
  6
CONTINUOUS
 62
    7
 10
838.91121907109641
 20
806.80069050723012
 11
838.91121907109641
 21
814.96904957452114
  0
ARC
  8
_0-0_FRF74-0422
  6
CONTINUOUS
 62
    7
 10
837.41121907109641
 20
806.80069050723012
 40
1.5
 50
270
 51
0
  0
LINE
  8
_0-0_FRF74-0422
  6
CONTINUOUS
 62
    7
 10
808.91121974164867
 20
819.14767044940288
 11
808.91121974164867
 21
805.38647688690514
  0
LINE
  8
_0-0_FRF74-0422
  6
CONTINUOUS
 62
    7
 10
837.91121937284493
 20
819.14767044940288
 11
837.91121937284493
 21
805.38647705154131
  0
ARC
  8
_0-0_FRF74-0422
  6
CONTINUOUS
 62
    7
 10
1016.5523220394737
 20
810.14767066783759
 40
5.0499999999999767
 50
51.04516023022353
 51
113.626187477922
  0
ARC
  8
_0-0_FRF74-0422
  6
CONTINUOUS
 62
    7
 10
1016.5523220394737
 20
810.14767066783759
 40
6.1999999999999664
 50
51.045160230223594
 51
229.82223045985333
  0
ARC
  8
_0-0_FRF74-0422
  6
CONTINUOUS
 62
    7
 10
1016.5523220394737
 20
810.14767066783759
 40
6.0000000000000222
 50
318.69238337150659
 51
16.370385063290176
  0
ARC
  8
_0-0_FRF74-0422
  6
CONTINUOUS
 62
    8
 10
1016.5523220394737
 20
810.14767066783759
 40
5.1499999999999879
 50
320.95932736364108
 51
36.767015521238413
  0
ARC
  8
_0-0_FRF74-0422
  6
CONTINUOUS
 62
    7
 10
1016.5523220394737
 20
810.14767066783759
 40
5.0500000000000593
 50
322.38024344941181
 51
45.235568537391323
  0
LINE
  8
_0-0_FRF74-0422
  6
CONTINUOUS
 62
    7
 10
1022.0111450161291
 20
807.65743941160065
 11
1021.1013411866866
 21
808.07247795430681
  0
TEXT
  8
_0-2_
 62
    7
 10
942.89541103866486
 20
507.16508785728229
 40
6
 41
1
 50
0
  1
FRF74-0422
  0
LINE
  8
_0-0_FRF74-0422
  6
CONTINUOUS
 62
    7
 10
970.80509878920634
 20
780.14767066783759
 11
979.05232203947367
 21
780.14767066783759
  0
TEXT
  8
_0-2_
 62
    7
 10
704.52645968509307
 20
506.99149662678974
 40
6
 41
1
 50
0
  1
ペーパーホルダー　-LANGBERGER,Nero-
  0
TEXT
  8
_0-0_FRF74-0422
 62
    7
 10
703.42737967914445
 20
488.82994652406416
 40
6
 41
1
 50
0
  1
クローム
  0
ENDSEC
  0
EOF
