  0
SECTION
  2
HEADER
  9
$ACADVER
  1
AC1009
  9
$INSBASE
 10
0
 20
0
 30
0
  9
$EXTMIN
 10
0
 20
0
  9
$EXTMAX
 10
1682
 20
1188
  9
$LIMMIN
 10
0
 20
0
  9
$LIMMAX
 10
1682
 20
1188
  9
$LTSCALE
 40
2
  0
ENDSEC
  0
SECTION
  2
TABLES
  0
TABLE
  2
LTYPE
 70
     9
  0
LTYPE
  2
CONTINUOUS
 70
    64
  3
実線
 72
    65
 73
     0
 40
0.0
  0
LTYPE
  2
DASHED1
 70
    64
  3
--  --  --  --  --  --  --  --  
 72
    65
 73
     2
 40
2.5
 49
1.25
 49
-1.25
  0
LTYPE
  2
DASHED2
 70
    64
  3
----    ----    ----    ----    
 72
    65
 73
     2
 40
5.0
 49
2.5
 49
-2.5
  0
LTYPE
  2
DASHED3
 70
    64
  3
------  ------  ------  ------  
 72
    65
 73
     2
 40
5.0
 49
3.75
 49
-1.25
  0
LTYPE
  2
CENTER1
 70
    64
  3
----- - ----- - ----- - ----- - 
 72
    65
 73
     4
 40
10.0
 49
6.25
 49
-1.25
 49
1.25
 49
-1.25
  0
LTYPE
  2
CENTER2
 70
    64
  3
----------  --  ----------  --  
 72
    65
 73
     4
 40
20.0
 49
12.5
 49
-2.5
 49
2.5
 49
-2.5
  0
LTYPE
  2
PHANTOM1
 70
    64
  3
--- - - --- - - --- - - --- - - 
 72
    65
 73
     6
 40
10.0
 49
3.25
 49
-1.25
 49
1.25
 49
-1.25
 49
1.25
 49
-1.25
  0
LTYPE
  2
PHANTOM2
 70
    64
  3
--------  -  -  --------  -  -  
 72
    65
 73
     6
 40
20.0
 49
10.0
 49
-2.5
 49
1.25
 49
-2.5
 49
1.25
 49
-2.5
  0
LTYPE
  2
DOT
 70
    64
  3
-   -   -   -   -   -   -   -   
 72
    65
 73
     2
 40
2.5
 49
0.625
 49
-1.875
  0
LTYPE
  2
DUMMY
 70
    64
  3
ダミー
 72
    65
 73
     0
 40
0.0
  0
LTYPE
  2
RAND1
 70
    64
  3
ランダム線1
 72
    65
 73
     4
 40
10.0
 49
1.0
 49
-2.0
 49
3.0
 49
-4.0
  0
LTYPE
  2
RAND2
 70
    64
  3
ランダム線2
 72
    65
 73
     4
 40
14.0
 49
2.0
 49
-3.0
 49
4.0
 49
-5.0
  0
LTYPE
  2
RAND3
 70
    64
  3
ランダム線3
 72
    65
 73
     4
 40
18.0
 49
3.0
 49
-4.0
 49
5.0
 49
-6.0
  0
LTYPE
  2
RAND4
 70
    64
  3
ランダム線4
 72
    65
 73
     4
 40
22.0
 49
4.0
 49
-5.0
 49
6.0
 49
-7.0
  0
LTYPE
  2
RAND5
 70
    64
  3
ランダム線5
 72
    65
 73
     4
 40
26.0
 49
5.0
 49
-6.0
 49
7.0
 49
-8.0
  0
LTYPE
  2
LONG1
 70
    64
  3
----------  --  ----------  --  
 72
    65
 73
     4
 40
40.0
 49
32.5
 49
-2.5
 49
2.5
 49
-2.5
  0
LTYPE
  2
LONG2
 70
    64
  3
--------  -  -  --------  -  -  
 72
    65
 73
     6
 40
40.0
 49
30.0
 49
-2.5
 49
1.25
 49
-2.5
 49
1.25
 49
-2.5
  0
LTYPE
  2
LONG3
 70
    64
  3
+++++++++++++++..+++++++++++++++
 72
    65
 73
     2
 40
40.0
 49
37.5
 49
-2.5
  0
LTYPE
  2
LONG4
 70
    64
  3
+++++++++++++++..+++++++++++++++
 72
    65
 73
     2
 40
80.0
 49
75.0
 49
-5.0
  0
LTYPE
  2
LONG5
 70
    64
  3
----------  --  ----------  --  
 72
    65
 73
     4
 40
60.0
 49
37.5
 49
-7.5
 49
7.5
 49
-7.5
  0
LTYPE
  2
dashed
 70
   64
  3
-------   -------------   ------
 72
   65
 73
    2
 40
7.5
 49
6
 49
-1.5
  0
LTYPE
  2
dashed_spaced
 70
   64
  3
----        --------        ----
 72
   65
 73
    2
 40
12
 49
6
 49
-6
  0
LTYPE
  2
long_dashed_dotted
 70
   64
  3
------------- --- --------------
 72
   65
 73
    4
 40
15.25
 49
12
 49
-1.5
 49
0.25
 49
-1.5
  0
LTYPE
  2
long_dashed_double-dotted
 70
   64
  3
----------- --- --- ------------
 72
   65
 73
    6
 40
17
 49
12
 49
-1.5
 49
0.25
 49
-1.5
 49
0.25
 49
-1.5
  0
LTYPE
  2
long_dashed_triplicate-dotted
 70
   64
  3
--------- --- --- --- ----------
 72
   65
 73
    8
 40
18.75
 49
12
 49
-1.5
 49
0.25
 49
-1.5
 49
0.25
 49
-1.5
 49
0.25
 49
-1.5
  0
LTYPE
  2
dotted
 70
   64
  3
   -       -       -       -    
 72
   65
 73
    2
 40
1.75
 49
0.25
 49
-1.5
  0
LTYPE
  2
chain
 70
   64
  3
-------------- -- --------------
 72
   65
 73
    4
 40
18.5
 49
12
 49
-1.5
 49
3.5
 49
-1.5
  0
LTYPE
  2
chain_double_dash
 70
   64
  3
------------ -- -- -------------
 72
   65
 73
    6
 40
23.5
 49
12
 49
-1.5
 49
3.5
 49
-1.5
 49
3.5
 49
-1.5
  0
LTYPE
  2
dashed_dotted
 70
   64
  3
-----------     -     ----------
 72
   65
 73
    4
 40
9.25
 49
6
 49
-1.5
 49
0.25
 49
-1.5
  0
LTYPE
  2
double-dashed_dotted
 70
   64
  3
------   -----------   -   -----
 72
   65
 73
    6
 40
16.75
 49
6
 49
-1.5
 49
6
 49
-1.5
 49
0.25
 49
-1.5
  0
LTYPE
  2
dashed_double-dotted
 70
   64
  3
---------    -    -    ---------
 72
   65
 73
    6
 40
11
 49
6
 49
-1.5
 49
0.25
 49
-1.5
 49
0.25
 49
-1.5
  0
LTYPE
  2
double-dashed_double-dotted
 70
   64
  3
-----   ---------   -   -   ----
 72
   65
 73
    8
 40
18.5
 49
6
 49
-1.5
 49
6
 49
-1.5
 49
0.25
 49
-1.5
 49
0.25
 49
-1.5
  0
LTYPE
  2
dashed_triplicate-dotted
 70
   64
  3
-------    -    -    -    ------
 72
   65
 73
    8
 40
12.75
 49
6
 49
-1.5
 49
0.25
 49
-1.5
 49
0.25
 49
-1.5
 49
0.25
 49
-1.5
  0
LTYPE
  2
double-dashed_triplicate-dotted
 70
   64
  3
-----  ---------  -  -  -  -----
 72
   65
 73
   10
 40
20.25
 49
6
 49
-1.5
 49
6
 49
-1.5
 49
0.25
 49
-1.5
 49
0.25
 49
-1.5
 49
0.25
 49
-1.5
  0
LTYPE
  2
undefined
 70
   64
  3
--------------------------------
 72
   65
 73
    0
 40
0
  0
ENDTAB
  0
TABLE
  2
STYLE
  5
3
100
AcDbSymbolTable
 70
     1
  0
STYLE
  5
10
100
AcDbSymbolTableRecord
100
AcDbTextStyleTableRecord
  2
STANDARD
 70
     0
 40
0.0
 41
1.0
 50
0.0
 71
     0
 42
0.2
  3
txt
  4
bigfont.shx
  0
STYLE
  5
26
100
AcDbSymbolTableRecord
100
AcDbTextStyleTableRecord
  2
TATEGAKI
 70
    68
 40
0.0
 41
1.0
 50
0.0
 71
     0
 42
1.0
  3
txt
  4
bigfont.shx
  0
ENDTAB
  0
TABLE
  2
LAYER
 70
    4
  0
LAYER
  2
_0-0_FRF74-0519
 70
   64
 62
    7
  6
CONTINUOUS
  0
LAYER
  2
_0-1_
 70
   64
 62
    7
  6
CONTINUOUS
  0
LAYER
  2
_0-2_
 70
   64
 62
    7
  6
CONTINUOUS
  0
LAYER
  2
ADD_LINE
 70
   64
 62
    7
  6
CONTINUOUS
  0
ENDTAB
  0
ENDSEC
  0
SECTION
  2
BLOCKS
  0
ENDSEC
  0
SECTION
  2
ENTITIES
  0
LINE
  8
_0-2_
  6
CONTINUOUS
 62
    7
 10
1079.8988725370491
 20
503.2673488237719
 11
689.8988725370491
 21
503.2673488237719
  0
LINE
  8
_0-2_
  6
CONTINUOUS
 62
    7
 10
1079.8988725371457
 20
1029.267348823772
 11
689.89887253714551
 21
1029.267348823772
  0
LINE
  8
_0-2_
  6
CONTINUOUS
 62
    7
 10
689.89887253714551
 20
1029.267348823772
 11
689.89887253714551
 21
469.2673488237719
  0
LINE
  8
_0-2_
  6
CONTINUOUS
 62
    7
 10
689.89887253714551
 20
469.2673488237719
 11
1079.8988725371457
 21
469.2673488237719
  0
LINE
  8
_0-2_
  6
CONTINUOUS
 62
    7
 10
1079.8988725371457
 20
469.2673488237719
 11
1079.8988725371457
 21
1029.267348823772
  0
LINE
  8
_0-2_
  6
CONTINUOUS
 62
    7
 10
1079.8988725370491
 20
520.26734882377195
 11
689.8988725370491
 21
520.26734882377195
  0
LINE
  8
_0-2_
  6
CONTINUOUS
 62
    7
 10
1079.8988725371457
 20
486.2673488237719
 11
929.29887253714571
 21
486.2673488237719
  0
LINE
  8
_0-2_
  6
CONTINUOUS
 62
    7
 10
1029.6988725371975
 20
486.2673488237719
 11
1029.6988725371975
 21
503.2673488237719
  0
LINE
  8
_0-2_
  6
CONTINUOUS
 62
    7
 10
979.49887253719749
 20
486.2673488237719
 11
979.49887253719749
 21
503.2673488237719
  0
LINE
  8
_0-2_
  6
CONTINUOUS
 62
    7
 10
929.29887253719744
 20
469.2673488237719
 11
929.29887253719744
 21
520.26734882377195
  0
TEXT
  8
_0-2_
 62
    7
 10
936.36516934588531
 20
473.92519932464324
 40
6
 41
1
 50
0
  1
大洋金物株式会社 ティーフォルム事業部
  0
TEXT
  8
_0-2_
 62
    7
 10
692.03092613020874
 20
496.95829989926438
 40
4.4000000000000004
 41
1
 50
0
  1
仕様
  0
TEXT
  8
_0-2_
 62
    7
 10
692.11008412622641
 20
513.7277384202182
 40
4.4000000000000004
 41
1
 50
0
  1
品名
  0
TEXT
  8
_0-2_
 62
    7
 10
931.58014201817321
 20
514.02354576782386
 40
4.4000000000000004
 41
1
 50
0
  1
品番
  0
TEXT
  8
_0-2_
 62
    7
 10
931.40046929208268
 20
496.85593532261146
 40
4.4000000000000004
 41
1
 50
0
  1
重量
  0
TEXT
  8
_0-2_
 62
    7
 10
981.63419090952073
 20
497.28379304790997
 40
4.4000000000000004
 41
1
 50
0
  1
容量
  0
TEXT
  8
_0-2_
 62
    7
 10
1031.8476186341097
 20
497.19837872271296
 40
4.4000000000000004
 41
1
 50
0
  1
縮尺
  0
TEXT
  8
_0-2_
 62
    4
 10
690.59866426069993
 20
460.90948008418826
 40
5
 41
1
 50
0
  1
120907S
  0
TEXT
  8
_0-2_
 62
    7
 10
942.89541103866486
 20
507.16508785728229
 40
6
 41
1
 50
0
  1
FRF74-0519
  0
LINE
  8
_0-1_
  6
CONTINUOUS
 62
    4
 10
754.78443994639122
 20
762.99111804731103
 11
890.78443991239112
 21
762.99111804731103
  0
POINT
  8
_0-1_
 62
    7
 10
754.78443994639122
 20
762.99111804731103
  0
POINT
  8
_0-1_
 62
    7
 10
890.78443991239112
 20
762.99111804731103
  0
LINE
  8
_0-1_
  6
CONTINUOUS
 62
    4
 10
754.78443994639122
 20
762.99111804731103
 11
754.78443994639122
 21
814.13799279914383
  0
LINE
  8
_0-1_
  6
CONTINUOUS
 62
    4
 10
890.78443991239112
 20
762.99111804731103
 11
890.78443991239112
 21
814.13799279914383
  0
TEXT
  8
_0-1_
 62
    4
 10
819.03443992939117
 20
763.99111804731103
 40
5
 41
1
 50
0
  1
136
  0
LINE
  8
_0-1_
  6
CONTINUOUS
 62
    4
 10
910.78443991239112
 20
906.13799277764383
 11
862.52412039018998
 21
906.13799277764383
  0
LINE
  8
_0-1_
  6
CONTINUOUS
 62
    4
 10
910.78443991239112
 20
906.13799277764372
 11
910.78443991239112
 21
783.14111804731101
  0
POINT
  8
_0-1_
 62
    7
 10
910.78443991239112
 20
906.13799277764372
  0
POINT
  8
_0-1_
 62
    7
 10
910.78443991239112
 20
783.14111804731101
  0
LINE
  8
_0-1_
  6
CONTINUOUS
 62
    4
 10
910.78443991239112
 20
906.13799277764372
 11
862.52412039018998
 21
906.13799277764372
  0
LINE
  8
_0-1_
  6
CONTINUOUS
 62
    4
 10
910.78443991239112
 20
783.14111804731101
 11
886.02412038431498
 21
783.14111804731101
  0
TEXT
  8
_0-1_
 62
    4
 10
909.78443991239112
 20
840.88955541247742
 40
5
 41
1
 50
90
  1
123
  0
LINE
  8
_0-1_
  6
CONTINUOUS
 62
    4
 10
954.64953996038719
 20
906.13799152929175
 11
954.64953996038719
 21
876.13799220734404
  0
POINT
  8
_0-1_
 62
    7
 10
954.64953996038719
 20
906.13799152929175
  0
POINT
  8
_0-1_
 62
    7
 10
954.64953996038719
 20
876.13799220734404
  0
LINE
  8
_0-1_
  6
CONTINUOUS
 62
    4
 10
954.64953996038719
 20
906.13799152929175
 11
968.64953996038719
 21
906.13799152929175
  0
LINE
  8
_0-1_
  6
CONTINUOUS
 62
    4
 10
954.64953996038719
 20
876.13799220734404
 11
968.64953996038719
 21
876.13799220734404
  0
TEXT
  8
_0-1_
 62
    4
 10
953.64953996038719
 20
888.63799186831795
 40
5
 41
1
 50
90
  1
30
  0
LINE
  8
_0-1_
  6
CONTINUOUS
 62
    4
 10
1019.8995361328125
 20
825.81393246912455
 11
1011.8995361328125
 21
825.81393246912455
  0
POINT
  8
_0-1_
 62
    7
 10
1019.8995361328125
 20
825.81393246912455
  0
POINT
  8
_0-1_
 62
    7
 10
1011.8995361328125
 20
825.81393246912455
  0
TEXT
  8
_0-1_
 62
    4
 10
1002.8163461571012
 20
826.78413060696164
 40
5
 41
1
 50
0
  1
φ8
  0
LINE
  8
_0-1_
  6
CONTINUOUS
 62
    7
 10
1011.8995361328125
 20
825.81393246912455
 11
1002.6855536057526
 21
825.81393246912455
  0
LINE
  8
_0-1_
  6
CONTINUOUS
 62
    4
 10
811.52412040143997
 20
706.26986434286857
 11
833.52412039594003
 21
706.26986434286857
  0
POINT
  8
_0-1_
 62
    7
 10
811.52412040143997
 20
706.26986434286857
  0
POINT
  8
_0-1_
 62
    7
 10
833.52412039594003
 20
706.26986434286857
  0
LINE
  8
_0-1_
  6
CONTINUOUS
 62
    4
 10
811.52412040143997
 20
706.26986434286857
 11
811.52412040143997
 21
692.26986434286857
  0
LINE
  8
_0-1_
  6
CONTINUOUS
 62
    4
 10
833.52412039594003
 20
706.26986434286857
 11
833.52412039594003
 21
692.26986434286857
  0
TEXT
  8
_0-1_
 62
    4
 10
820.02412039869
 20
707.26986434286857
 40
5
 41
1
 50
0
  1
22
  0
LINE
  8
_0-1_
  6
CONTINUOUS
 62
    4
 10
786.52412343261119
 20
718.44606071842782
 11
858.52412037337729
 21
718.44606071842782
  0
POINT
  8
_0-1_
 62
    7
 10
786.52412343261119
 20
718.44606071842782
  0
POINT
  8
_0-1_
 62
    7
 10
858.52412037337729
 20
718.44606071842782
  0
LINE
  8
_0-1_
  6
CONTINUOUS
 62
    4
 10
786.52412343261119
 20
718.44606071842782
 11
786.52412343261119
 21
692.26986434286857
  0
LINE
  8
_0-1_
  6
CONTINUOUS
 62
    4
 10
858.52412037337729
 20
718.44606071842782
 11
858.52412037337729
 21
692.26986434286857
  0
TEXT
  8
_0-1_
 62
    4
 10
820.02412190299424
 20
719.44606071842782
 40
5
 41
1
 50
0
  1
72
  0
LINE
  8
_0-0_FRF74-0519
  6
CONTINUOUS
 62
    7
 10
890.78443991239112
 20
820.13799279914383
 11
890.78443991239112
 21
830.13799279664374
  0
LINE
  8
_0-0_FRF74-0519
  6
CONTINUOUS
 62
    7
 10
754.78443994639122
 20
876.13799278514375
 11
754.78443994639122
 21
820.13799279914383
  0
ARC
  8
_0-0_FRF74-0519
  6
CONTINUOUS
 62
    7
 10
770.78443994239115
 20
876.13799278514375
 40
15.999999996
 50
132.26185654836658
 51
180
  0
ARC
  8
_0-0_FRF74-0519
  6
CONTINUOUS
 62
    7
 10
874.78443991639119
 20
820.13799279914383
 40
15.999999995999975
 50
309.79033035295379
 51
0.0000000000000063
  0
ARC
  8
_0-0_FRF74-0519
  6
CONTINUOUS
 62
    7
 10
770.78443994239115
 20
820.13799279914383
 40
15.999999996
 50
180
 51
227.73814345163427
  0
LINE
  8
_0-0_FRF74-0519
  6
CONTINUOUS
 62
    7
 10
843.52412039344006
 20
882.13799278364377
 11
844.52412039319006
 21
882.13799278364377
  0
LINE
  8
_0-0_FRF74-0519
  6
CONTINUOUS
 62
    7
 10
844.52412039319006
 20
894.1379927806438
 11
843.52412039344006
 21
894.1379927806438
  0
ARC
  8
_0-0_FRF74-0519
  6
CONTINUOUS
 62
    7
 10
844.62412039316496
 20
882.98799278343131
 40
0.0999999999749657
 50
90
 51
180
  0
ARC
  8
_0-0_FRF74-0519
  6
CONTINUOUS
 62
    7
 10
844.62412039316496
 20
893.28799278085626
 40
0.0999999999749657
 50
180
 51
270
  0
LINE
  8
_0-0_FRF74-0519
  6
CONTINUOUS
 62
    7
 10
844.62412039316496
 20
883.08799278340621
 11
845.024120393065
 21
883.08799278340621
  0
LINE
  8
_0-0_FRF74-0519
  6
CONTINUOUS
 62
    7
 10
845.024120393065
 20
893.18799278088125
 11
844.62412039316496
 21
893.18799278088125
  0
LINE
  8
_0-0_FRF74-0519
  6
CONTINUOUS
 62
    7
 10
801.52412040394006
 20
894.1379927806438
 11
800.52412040419006
 21
894.1379927806438
  0
LINE
  8
_0-0_FRF74-0519
  6
CONTINUOUS
 62
    7
 10
800.52412040419006
 20
882.13799278364377
 11
801.52412040394006
 21
882.13799278364377
  0
ARC
  8
_0-0_FRF74-0519
  6
CONTINUOUS
 62
    7
 10
800.42412040421505
 20
893.28799278085626
 40
0.0999999999750228
 50
270
 51
0
  0
ARC
  8
_0-0_FRF74-0519
  6
CONTINUOUS
 62
    7
 10
800.42412040421505
 20
882.98799278343131
 40
0.0999999999749943
 50
0
 51
90
  0
LINE
  8
_0-0_FRF74-0519
  6
CONTINUOUS
 62
    7
 10
800.42412040421505
 20
893.18799278088125
 11
800.024120404315
 21
893.18799278088125
  0
LINE
  8
_0-0_FRF74-0519
  6
CONTINUOUS
 62
    7
 10
800.024120404315
 20
883.08799278340621
 11
800.42412040421505
 21
883.08799278340621
  0
LINE
  8
_0-0_FRF74-0519
  6
CONTINUOUS
 62
    7
 10
843.52412039344006
 20
897.13799277989381
 11
801.52412040394006
 21
897.13799277989381
  0
LINE
  8
_0-0_FRF74-0519
  6
CONTINUOUS
 62
    7
 10
890.78443991239112
 20
830.13799279664374
 11
885.02412038306488
 21
830.13799279664374
  0
LINE
  8
_0-0_FRF74-0519
  6
CONTINUOUS
 62
    7
 10
800.024120404315
 20
894.33799280533435
 11
800.024120404315
 21
891.73871914476194
  0
LINE
  8
_0-0_FRF74-0519
  6
CONTINUOUS
 62
    7
 10
845.024120393065
 20
891.73871914476194
 11
845.024120393065
 21
894.33799280533435
  0
LINE
  8
_0-0_FRF74-0519
  6
CONTINUOUS
 62
    7
 10
844.52412039319006
 20
888.13799278214378
 11
844.52412039319006
 21
894.1379927806438
  0
LINE
  8
_0-0_FRF74-0519
  6
CONTINUOUS
 62
    7
 10
844.52412039319006
 20
882.13799278364377
 11
844.52412039319006
 21
888.13799278214378
  0
LINE
  8
_0-0_FRF74-0519
  6
CONTINUOUS
 62
    7
 10
800.52412040419006
 20
894.1379927806438
 11
800.52412040419006
 21
882.13799278364377
  0
LINE
  8
_0-0_FRF74-0519
  6
CONTINUOUS
 62
    7
 10
801.52412040394006
 20
897.13799277989381
 11
801.52412040394006
 21
880.43928805212715
  0
LINE
  8
_0-0_FRF74-0519
  6
CONTINUOUS
 62
    7
 10
843.52412039344006
 20
897.13799277989381
 11
843.52412039344006
 21
880.43928805212715
  0
LINE
  8
_0-0_FRF74-0519
  6
CONTINUOUS
 62
    8
 10
844.62412039316496
 20
888.13799278214378
 11
844.62412039316496
 21
883.08799278340621
  0
LINE
  8
_0-0_FRF74-0519
  6
CONTINUOUS
 62
    8
 10
844.62412039316496
 20
893.18799278088125
 11
844.62412039316496
 21
888.13799278214378
  0
LINE
  8
_0-0_FRF74-0519
  6
CONTINUOUS
 62
    8
 10
800.42412040421505
 20
883.08799278340621
 11
800.42412040421505
 21
893.18799278088125
  0
LINE
  8
_0-0_FRF74-0519
  6
CONTINUOUS
 62
    7
 10
786.52412040769002
 20
904.13799277814371
 11
786.52412040769002
 21
894.33799280533435
  0
ARC
  8
_0-0_FRF74-0519
  6
CONTINUOUS
 62
    7
 10
788.52412040719003
 20
904.13799277814371
 40
1.9999999995
 50
90.000000000000057
 51
180
  0
LINE
  8
_0-0_FRF74-0519
  6
CONTINUOUS
 62
    7
 10
856.52412039018998
 20
906.13799277764372
 11
788.52412040719003
 21
906.13799277764372
  0
LINE
  8
_0-0_FRF74-0519
  6
CONTINUOUS
 62
    7
 10
858.52412038968998
 20
904.13799277814383
 11
858.52412038968998
 21
894.33799280533435
  0
ARC
  8
_0-0_FRF74-0519
  6
CONTINUOUS
 62
    7
 10
856.52412039018998
 20
904.13799277814383
 40
1.9999999995
 50
0
 51
90.000000000000057
  0
LINE
  8
_0-0_FRF74-0519
  6
CONTINUOUS
 62
    7
 10
843.9898251998145
 20
880.43928805212715
 11
844.024120393315
 21
880.43928805212715
  0
LINE
  8
_0-0_FRF74-0519
  6
CONTINUOUS
 62
    7
 10
845.024120393065
 20
881.43928805187716
 11
845.024120393065
 21
891.73871911634296
  0
ARC
  8
_0-0_FRF74-0519
  6
CONTINUOUS
 62
    7
 10
844.024120393315
 20
881.43928805187716
 40
0.99999999975
 50
270
 51
0
  0
LINE
  8
_0-0_FRF74-0519
  6
CONTINUOUS
 62
    7
 10
801.024120404065
 20
880.43928805212715
 11
844.024120393315
 21
880.43928805212715
  0
LINE
  8
_0-0_FRF74-0519
  6
CONTINUOUS
 62
    7
 10
800.024120404315
 20
881.43928805187716
 11
800.024120404315
 21
891.73871911634296
  0
ARC
  8
_0-0_FRF74-0519
  6
CONTINUOUS
 62
    7
 10
801.024120404065
 20
881.43928805187716
 40
0.99999999975
 50
180
 51
270
  0
LINE
  8
_0-0_FRF74-0519
  6
CONTINUOUS
 62
    7
 10
760.02412041431501
 20
892.71132613907434
 11
760.02412041431501
 21
891.73871914476194
  0
LINE
  8
_0-0_FRF74-0519
  6
CONTINUOUS
 62
    7
 10
761.65078708057501
 20
894.33799280533435
 11
800.024120404315
 21
894.33799280533435
  0
ARC
  8
_0-0_FRF74-0519
  6
CONTINUOUS
 62
    7
 10
761.65078708057501
 20
892.71132613907434
 40
1.6266666662599998
 50
90
 51
180
  0
LINE
  8
_0-0_FRF74-0519
  6
CONTINUOUS
 62
    7
 10
883.39745371680499
 20
894.33799280533435
 11
845.024120393065
 21
894.33799280533435
  0
LINE
  8
_0-0_FRF74-0519
  6
CONTINUOUS
 62
    7
 10
885.024120383065
 20
892.71132613907434
 11
885.024120383065
 21
891.73871914476194
  0
ARC
  8
_0-0_FRF74-0519
  6
CONTINUOUS
 62
    7
 10
883.39745371680499
 20
892.71132613907434
 40
1.6266666662599998
 50
0
 51
90
  0
LINE
  8
_0-0_FRF74-0519
  6
CONTINUOUS
 62
    7
 10
880.02412038431498
 20
783.14111804731112
 11
880.02412038431498
 21
783.14111804731112
  0
LINE
  8
_0-0_FRF74-0519
  6
CONTINUOUS
 62
    7
 10
880.02412038431498
 20
783.14111804731112
 11
880.89236127243259
 21
783.19429091175505
  0
LINE
  8
_0-0_FRF74-0519
  6
CONTINUOUS
 62
    7
 10
880.89236127243259
 20
783.19429091175505
 11
881.73422110051581
 21
783.35219387450763
  0
LINE
  8
_0-0_FRF74-0519
  6
CONTINUOUS
 62
    7
 10
881.73422110051581
 20
783.35219387450763
 11
882.52412038368993
 21
783.61002913394827
  0
LINE
  8
_0-0_FRF74-0519
  6
CONTINUOUS
 62
    7
 10
882.52412038368993
 20
783.61002913394827
 11
883.23805843194418
 21
783.95996249618997
  0
LINE
  8
_0-0_FRF74-0519
  6
CONTINUOUS
 62
    7
 10
883.23805843194418
 20
783.95996249618997
 11
883.85434259895237
 21
784.39136141309564
  0
LINE
  8
_0-0_FRF74-0519
  6
CONTINUOUS
 62
    7
 10
883.85434259895237
 20
784.39136141309564
 11
884.35424740215467
 21
784.89111804687354
  0
LINE
  8
_0-0_FRF74-0519
  6
CONTINUOUS
 62
    7
 10
884.35424740215467
 20
784.89111804687354
 11
884.72258348706987
 21
785.44404754509549
  0
LINE
  8
_0-0_FRF74-0519
  6
CONTINUOUS
 62
    7
 10
884.72258348706987
 20
785.44404754509549
 11
884.94815914814501
 21
786.03334942475374
  0
LINE
  8
_0-0_FRF74-0519
  6
CONTINUOUS
 62
    7
 10
884.94815914814501
 20
786.03334942475374
 11
885.024120383065
 21
786.64111804643608
  0
LINE
  8
_0-0_FRF74-0519
  6
CONTINUOUS
 62
    7
 10
880.02412038431498
 20
783.14111804731101
 11
765.02412041306502
 21
783.14111804731101
  0
LINE
  8
_0-0_FRF74-0519
  6
CONTINUOUS
 62
    7
 10
760.02412041431501
 20
786.64111804643608
 11
760.02412041431501
 21
786.64111804643608
  0
LINE
  8
_0-0_FRF74-0519
  6
CONTINUOUS
 62
    7
 10
760.02412041431501
 20
786.64111804643608
 11
760.0497308058051
 21
786.2873249838766
  0
LINE
  8
_0-0_FRF74-0519
  6
CONTINUOUS
 62
    7
 10
760.0497308058051
 20
786.2873249838766
 11
760.0497308058051
 21
786.2873249838766
  0
LINE
  8
_0-0_FRF74-0519
  6
CONTINUOUS
 62
    7
 10
760.0497308058051
 20
786.2873249838766
 11
760.21306799073875
 21
785.68804431225135
  0
LINE
  8
_0-0_FRF74-0519
  6
CONTINUOUS
 62
    7
 10
760.21306799073875
 20
785.68804431225135
 11
760.52258656901472
 21
785.11772230376073
  0
LINE
  8
_0-0_FRF74-0519
  6
CONTINUOUS
 62
    7
 10
760.52258656901472
 20
785.11772230376073
 11
760.96888197525629
 21
784.59368790403585
  0
LINE
  8
_0-0_FRF74-0519
  6
CONTINUOUS
 62
    7
 10
760.96888197525629
 20
784.59368790403585
 11
761.53839374938093
 21
784.13186363313821
  0
LINE
  8
_0-0_FRF74-0519
  6
CONTINUOUS
 62
    7
 10
761.53839374938093
 20
784.13186363313821
 11
762.21381756431879
 21
783.74628178784462
  0
LINE
  8
_0-0_FRF74-0519
  6
CONTINUOUS
 62
    7
 10
762.21381756431879
 20
783.74628178784462
 11
762.97463100923392
 21
783.44865807741041
  0
LINE
  8
_0-0_FRF74-0519
  6
CONTINUOUS
 62
    7
 10
762.97463100923392
 20
783.44865807741041
 11
763.7977171525929
 21
783.2480356476724
  0
LINE
  8
_0-0_FRF74-0519
  6
CONTINUOUS
 62
    7
 10
763.7977171525929
 20
783.2480356476724
 11
764.65806693843115
 21
783.15051030963832
  0
LINE
  8
_0-0_FRF74-0519
  6
CONTINUOUS
 62
    7
 10
764.65806693843115
 20
783.15051030963832
 11
765.02412041306502
 21
783.14111804731112
  0
LINE
  8
_0-0_FRF74-0519
  6
CONTINUOUS
 62
    7
 10
760.02412041431501
 20
786.64111804643608
 11
760.02412041431501
 21
891.73871911634285
  0
LINE
  8
_0-0_FRF74-0519
  6
CONTINUOUS
 62
    7
 10
885.02412038306488
 20
891.73871911634285
 11
885.02412038306488
 21
786.64111804643608
  0
LINE
  8
_0-0_FRF74-0519
  6
CONTINUOUS
 62
    7
 10
800.02412098544573
 20
651.21986521887868
 11
780.02411771219033
 21
651.21986521887868
  0
LINE
  8
_0-0_FRF74-0519
  6
CONTINUOUS
 62
    7
 10
800.02412098544573
 20
651.21986521887868
 11
800.02412098544573
 21
639.97261217625078
  0
LINE
  8
_0-0_FRF74-0519
  6
CONTINUOUS
 62
    7
 10
760.02412188951541
 20
639.97261217625078
 11
760.02412188951541
 21
641.23000941037628
  0
LINE
  8
_0-0_FRF74-0519
  6
CONTINUOUS
 62
    7
 10
760.02412188951541
 20
641.23000941037628
 11
760.02412188951541
 21
641.96353024583095
  0
LINE
  8
_0-0_FRF74-0519
  6
CONTINUOUS
 62
    7
 10
779.02411771219033
 20
646.46467557775736
 11
765.02411711989384
 21
646.46467557775736
  0
LINE
  8
_0-0_FRF74-0519
  6
CONTINUOUS
 62
    7
 10
780.02411771219033
 20
647.46467557775736
 11
780.02411771219033
 21
651.21986521887868
  0
ARC
  8
_0-0_FRF74-0519
  6
CONTINUOUS
 62
    7
 10
779.02411771219033
 20
647.46467557775736
 40
1
 50
270
 51
0
  0
LINE
  8
_0-0_FRF74-0519
  6
CONTINUOUS
 62
    7
 10
780.02411771219033
 20
649.01986523134963
 11
770.78443664941767
 21
649.01986523134963
  0
LINE
  8
_0-0_FRF74-0519
  6
CONTINUOUS
 62
    7
 10
770.78443664941767
 20
649.01986523134963
 11
758.78444213604496
 21
649.01986523134963
  0
LINE
  8
_0-0_FRF74-0519
  6
CONTINUOUS
 62
    7
 10
758.78444213604496
 20
641.01986578469257
 11
760.02412188951541
 21
641.01986578469257
  0
LINE
  8
_0-0_FRF74-0519
  6
CONTINUOUS
 62
    7
 10
886.78444073313813
 20
649.01986523134963
 11
874.78443970050739
 21
649.01986523134963
  0
LINE
  8
_0-0_FRF74-0519
  6
CONTINUOUS
 62
    7
 10
885.02411999562025
 20
641.01986578469257
 11
886.78444073313813
 21
641.01986578469257
  0
LINE
  8
_0-0_FRF74-0519
  6
CONTINUOUS
 62
    7
 10
874.78443970050739
 20
649.01986523134963
 11
865.02412044765515
 21
649.01986523134963
  0
LINE
  8
_0-0_FRF74-0519
  6
CONTINUOUS
 62
    7
 10
865.02412044765515
 20
651.21986521887868
 11
845.02411996836736
 21
651.21986521887868
  0
LINE
  8
_0-0_FRF74-0519
  6
CONTINUOUS
 62
    7
 10
760.02412188951541
 20
623.23919675561035
 11
885.02411999562025
 21
623.23919675561035
  0
LINE
  8
_0-0_FRF74-0519
  6
CONTINUOUS
 62
    7
 10
843.52411972287314
 20
639.01986545736702
 11
844.5241208178586
 21
639.01986545736702
  0
LINE
  8
_0-0_FRF74-0519
  6
CONTINUOUS
 62
    7
 10
844.5241208178586
 20
651.01986555867518
 11
843.52411972287314
 21
651.01986555867518
  0
ARC
  8
_0-0_FRF74-0519
  6
CONTINUOUS
 62
    7
 10
844.62412039316496
 20
639.86986469257772
 40
0.0999999999749943
 50
90
 51
180
  0
ARC
  8
_0-0_FRF74-0519
  6
CONTINUOUS
 62
    7
 10
844.62412039316496
 20
650.16986469000278
 40
0.0999999999750228
 50
180
 51
270
  0
LINE
  8
_0-0_FRF74-0519
  6
CONTINUOUS
 62
    7
 10
844.62412064796035
 20
639.96986291201119
 11
845.02411996836736
 21
639.96986291201119
  0
LINE
  8
_0-0_FRF74-0519
  6
CONTINUOUS
 62
    7
 10
845.02411996836736
 20
650.0698643787407
 11
844.62412064796035
 21
650.0698643787407
  0
LINE
  8
_0-0_FRF74-0519
  6
CONTINUOUS
 62
    7
 10
801.52412029961738
 20
651.01986555867518
 11
800.52412199859975
 21
651.01986555867518
  0
LINE
  8
_0-0_FRF74-0519
  6
CONTINUOUS
 62
    7
 10
800.52412199859975
 20
639.01986545736702
 11
801.52412029961738
 21
639.01986545736702
  0
ARC
  8
_0-0_FRF74-0519
  6
CONTINUOUS
 62
    7
 10
800.42412040421505
 20
650.16986469000278
 40
0.0999999999750228
 50
270
 51
0
  0
ARC
  8
_0-0_FRF74-0519
  6
CONTINUOUS
 62
    7
 10
800.42412040421505
 20
639.86986469257772
 40
0.0999999999749943
 50
0
 51
90
  0
LINE
  8
_0-0_FRF74-0519
  6
CONTINUOUS
 62
    7
 10
800.42412030585274
 20
650.0698643787407
 11
800.02412098544573
 21
650.0698643787407
  0
LINE
  8
_0-0_FRF74-0519
  6
CONTINUOUS
 62
    7
 10
800.02412098544573
 20
639.96986291201119
 11
800.42412030585274
 21
639.96986291201119
  0
LINE
  8
_0-0_FRF74-0519
  6
CONTINUOUS
 62
    7
 10
801.52412029961738
 20
636.01986310373354
 11
843.52411972287314
 21
636.01986310373354
  0
LINE
  8
_0-0_FRF74-0519
  6
CONTINUOUS
 62
    7
 10
811.52412193624502
 20
654.01986418701836
 11
801.52412029961738
 21
654.01986418701836
  0
LINE
  8
_0-0_FRF74-0519
  6
CONTINUOUS
 62
    7
 10
843.52411972287314
 20
654.01986418701836
 11
833.52411994889064
 21
654.01986418701836
  0
LINE
  8
_0-0_FRF74-0519
  6
CONTINUOUS
 62
    7
 10
787.0241169951845
 20
676.01986464438562
 11
858.02412034975362
 21
676.01986464438562
  0
ARC
  8
_0-0_FRF74-0519
  6
CONTINUOUS
 62
    7
 10
858.02412038981504
 20
676.51986468341511
 40
0.4999999998749999
 50
270
 51
0.0000000000032314
  0
ARC
  8
_0-0_FRF74-0519
  6
CONTINUOUS
 62
    7
 10
787.02412040756496
 20
676.51986468341511
 40
0.4999999998749999
 50
179.99999999999676
 51
270
  0
ARC
  8
_0-0_FRF74-0519
  6
CONTINUOUS
 62
    7
 10
758.78443994539123
 20
645.01986469129019
 40
3.9999999989999999
 50
90
 51
270
  0
ARC
  8
_0-0_FRF74-0519
  6
CONTINUOUS
 62
    7
 10
886.78443991339111
 20
645.01986469129019
 40
3.999999999000003
 50
243.64156495078228
 51
89.999999999999972
  0
ARC
  8
_0-0_FRF74-0519
  6
CONTINUOUS
 62
    7
 10
886.78443991339111
 20
645.01986469129019
 40
3.9999999989999999
 50
90
 51
172.78981116190758
  0
LINE
  8
_0-0_FRF74-0519
  6
CONTINUOUS
 62
    7
 10
760.02412188951541
 20
641.23000941037617
 11
760.02662531970736
 21
641.2531518378604
  0
ARC
  8
_0-0_FRF74-0519
  6
CONTINUOUS
 62
    7
 10
788.99314678565747
 20
638.11970075794841
 40
29.135508945401174
 50
173.53497693425928
 51
173.82604123729431
  0
LINE
  8
_0-0_FRF74-0519
  6
CONTINUOUS
 62
    7
 10
760.04291704254967
 20
641.40026158329999
 11
760.04513107269759
 21
641.41979991374137
  0
ARC
  8
_0-0_FRF74-0519
  6
CONTINUOUS
 62
    7
 10
775.33247878328962
 20
639.68747949804879
 40
15.385185538275778
 50
173.13023418850133
 51
173.53497693424922
  0
ARC
  8
_0-0_FRF74-0519
  6
CONTINUOUS
 62
    7
 10
771.39423121151276
 20
640.16195136297426
 40
11.418459244817608
 50
172.58488730862132
 51
173.13023418847894
  0
LINE
  8
_0-0_FRF74-0519
  6
CONTINUOUS
 62
    7
 10
760.07126276055033
 20
641.63558530126079
 11
760.07134390276576
 21
641.63620877410676
  0
ARC
  8
_0-0_FRF74-0519
  6
CONTINUOUS
 62
    7
 10
768.90300166933264
 20
640.48680783101577
 40
8.9061384131249479
 50
171.87761833316875
 51
172.58488730863144
  0
LINE
  8
_0-0_FRF74-0519
  6
CONTINUOUS
 62
    7
 10
760.08620481497451
 20
641.74513793981896
 11
760.096707663399
 21
641.81872870928566
  0
ARC
  8
_0-0_FRF74-0519
  6
CONTINUOUS
 62
    7
 10
765.1649936741743
 20
641.09538473383509
 40
5.1196435026124902
 50
168.98399925114495
 51
171.87761833318467
  0
LINE
  8
_0-0_FRF74-0519
  6
CONTINUOUS
 62
    7
 10
760.13968544587601
 20
642.07366220185691
 11
760.16064947045356
 21
642.18135218619341
  0
ARC
  8
_0-0_FRF74-0519
  6
CONTINUOUS
 62
    7
 10
765.62347144427338
 20
641.11790385506492
 40
5.5653702725540475
 50
167.23697099213689
 51
168.98399925116999
  0
LINE
  8
_0-0_FRF74-0519
  6
CONTINUOUS
 62
    7
 10
760.19560973436467
 20
642.3474011217296
 11
760.19796604730959
 21
642.35780353673022
  0
ARC
  8
_0-0_FRF74-0519
  6
CONTINUOUS
 62
    7
 10
771.07086822455187
 20
639.89491774079136
 40
11.148354506370765
 50
166.47441366647766
 51
167.23697099211725
  0
ARC
  8
_0-0_FRF74-0519
  6
CONTINUOUS
 62
    7
 10
765.11972825361238
 20
641.32647109387938
 40
5.0274549028442932
 50
164.78354461918622
 51
166.47441366647823
  0
LINE
  8
_0-0_FRF74-0519
  6
CONTINUOUS
 62
    7
 10
760.26853011902847
 20
642.64600868680452
 11
760.28009601774761
 21
642.68852999623277
  0
ARC
  8
_0-0_FRF74-0519
  6
CONTINUOUS
 62
    7
 10
764.85855500942841
 20
641.44317810797986
 40
4.7448064306226518
 50
163.22830398211968
 51
164.7835446191749
  0
ARC
  8
_0-0_FRF74-0519
  6
CONTINUOUS
 62
    7
 10
767.99978507584626
 20
640.49647779359861
 40
8.0255941127833221
 50
162.30879442251322
 51
163.22830398212079
  0
LINE
  8
_0-0_FRF74-0519
  6
CONTINUOUS
 62
    7
 10
760.3537362638624
 20
642.9353501617029
 11
760.35498592295642
 21
642.93926793721096
  0
ARC
  8
_0-0_FRF74-0519
  6
CONTINUOUS
 62
    7
 10
763.78449195070516
 20
641.84535293705426
 40
3.5997446606575525
 50
160.12807018534284
 51
162.30879442244296
  0
LINE
  8
_0-0_FRF74-0519
  6
CONTINUOUS
 62
    7
 10
760.39909490681885
 20
643.0689739883519
 11
760.3992140838418
 21
643.06930371587714
  0
ARC
  8
_0-0_FRF74-0519
  6
CONTINUOUS
 62
    7
 10
766.30941254631432
 20
640.93311609525881
 40
6.2844047782025836
 50
158.87244471686333
 51
160.12807018534428
  0
LINE
  8
_0-0_FRF74-0519
  6
CONTINUOUS
 62
    7
 10
760.44744361268022
 20
643.19830121736345
 11
760.44870883247711
 21
643.20157542178549
  0
ARC
  8
_0-0_FRF74-0519
  6
CONTINUOUS
 62
    7
 10
763.2253635733432
 20
642.12861903470105
 40
2.9767510743358172
 50
156.08693292581609
 51
158.87244471685676
  0
LINE
  8
_0-0_FRF74-0519
  6
CONTINUOUS
 62
    7
 10
760.50413224649014
 20
643.33524533323475
 11
760.51473005841945
 21
643.35914593763346
  0
ARC
  8
_0-0_FRF74-0519
  6
CONTINUOUS
 62
    7
 10
764.70479687192437
 20
641.50122053456482
 40
4.5835081220613576
 50
154.9180188061323
 51
156.08693292582501
  0
ARC
  8
_0-0_FRF74-0519
  6
CONTINUOUS
 62
    7
 10
765.01186623388026
 20
641.35749647698731
 40
4.9225482344058449
 50
153.82960853106917
 51
154.91801880614918
  0
LINE
  8
_0-0_FRF74-0519
  6
CONTINUOUS
 62
    7
 10
760.59394611441883
 20
643.52854759064405
 11
760.59921572659721
 21
643.53927084147779
  0
ARC
  8
_0-0_FRF74-0519
  6
CONTINUOUS
 62
    7
 10
764.85580778770986
 20
641.44749944571333
 40
4.7427928003303812
 50
152.41130489643578
 51
153.82960853106636
  0
LINE
  8
_0-0_FRF74-0519
  6
CONTINUOUS
 62
    7
 10
760.65229436681659
 20
643.64398720284635
 11
760.65979698937849
 21
643.65834529545532
  0
ARC
  8
_0-0_FRF74-0519
  6
CONTINUOUS
 62
    7
 10
765.94385337619883
 20
640.8972347673091
 40
5.9619613591279963
 50
150.97167627854142
 51
152.41130489647497
  0
LINE
  8
_0-0_FRF74-0519
  6
CONTINUOUS
 62
    7
 10
760.7308339700844
 20
643.79022835859314
 11
760.73732881157412
 21
643.80193171487667
  0
ARC
  8
_0-0_FRF74-0519
  6
CONTINUOUS
 62
    7
 10
765.59887249704445
 20
641.10399149441344
 40
5.5599899675206643
 50
149.15217824345447
 51
150.97167627854469
  0
LINE
  8
_0-0_FRF74-0519
  6
CONTINUOUS
 62
    7
 10
760.82544195207265
 20
643.95492980859365
 11
760.83267917892908
 21
643.96704736286188
  0
ARC
  8
_0-0_FRF74-0519
  6
CONTINUOUS
 62
    7
 10
765.66323692399874
 20
641.08198974559195
 40
5.6265305103073286
 50
147.06682179702548
 51
149.15217824345328
  0
LINE
  8
_0-0_FRF74-0519
  6
CONTINUOUS
 62
    7
 10
760.94086067423393
 20
644.14091245450049
 11
760.94355210642561
 21
644.14506749752354
  0
ARC
  8
_0-0_FRF74-0519
  6
CONTINUOUS
 62
    7
 10
765.79638648435525
 20
641.0016404395974
 40
5.781966375561038
 50
145.02375450010015
 51
147.06682179702941
  0
ARC
  8
_0-0_FRF74-0519
  6
CONTINUOUS
 62
    7
 10
765.72672929286387
 20
641.05031652784601
 40
5.6969870615834415
 50
142.94930603590151
 51
145.02329815899017
  0
LINE
  8
_0-0_FRF74-0519
  6
CONTINUOUS
 62
    7
 10
761.17994839085952
 20
644.48287315651487
 11
761.18007452807501
 21
644.48304023847277
  0
ARC
  8
_0-0_FRF74-0519
  6
CONTINUOUS
 62
    7
 10
765.64200377639736
 20
641.11454170114098
 40
5.5906703545319161
 50
140.83970670327733
 51
142.94930603591934
  0
ARC
  8
_0-0_FRF74-0519
  6
CONTINUOUS
 62
    7
 10
765.55782555468136
 20
641.18309869801362
 40
5.4821068485482538
 50
138.68834017865618
 51
140.83970670328873
  0
LINE
  8
_0-0_FRF74-0519
  6
CONTINUOUS
 62
    7
 10
761.44005170046285
 20
644.80213641326509
 11
761.44806342862671
 21
644.81125223005301
  0
ARC
  8
_0-0_FRF74-0519
  6
CONTINUOUS
 62
    7
 10
765.03683255742919
 20
641.65714729659339
 40
4.7778281458335448
 50
136.17574390157395
 51
138.68834017866757
  0
LINE
  8
_0-0_FRF74-0519
  6
CONTINUOUS
 62
    7
 10
761.58978652355813
 20
644.96554803282436
 11
761.59827136119577
 21
644.9743884449324
  0
ARC
  8
_0-0_FRF74-0519
  6
CONTINUOUS
 62
    7
 10
765.34314807576925
 20
641.3801362191565
 40
5.1906406800943579
 50
134.13333309507902
 51
136.175743901565
  0
ARC
  8
_0-0_FRF74-0519
  6
CONTINUOUS
 62
    7
 10
765.23646534294414
 20
641.49008867352518
 40
5.0374390231953479
 50
132.02870213717739
 51
134.1332736377889
  0
ARC
  8
_0-0_FRF74-0519
  6
CONTINUOUS
 62
    7
 10
765.1296839500535
 20
641.6086072613133
 40
4.8779118450360235
 50
129.85596895945164
 51
132.0290579172374
  0
ARC
  8
_0-0_FRF74-0519
  6
CONTINUOUS
 62
    7
 10
765.02665458602769
 20
641.73210550701265
 40
4.7170800585239601
 50
127.61047972510832
 51
129.85662206752556
  0
LINE
  8
_0-0_FRF74-0519
  6
CONTINUOUS
 62
    7
 10
762.14786747638539
 20
645.46887270017328
 11
762.15297299955614
 21
645.47280597017186
  0
ARC
  8
_0-0_FRF74-0519
  6
CONTINUOUS
 62
    7
 10
764.73134102687868
 20
642.12599334060531
 40
4.2248238379540402
 50
125.27816629401818
 51
127.61047972513309
  0
LINE
  8
_0-0_FRF74-0519
  6
CONTINUOUS
 62
    7
 10
762.29130848153238
 20
645.57496095996555
 11
762.29198291314469
 21
645.57543809842127
  0
ARC
  8
_0-0_FRF74-0519
  6
CONTINUOUS
 62
    7
 10
765.06072277762405
 20
641.66184515998748
 40
4.7939680980285111
 50
123.24242518264882
 51
125.2781662940337
  0
ARC
  8
_0-0_FRF74-0519
  6
CONTINUOUS
 62
    7
 10
764.77692963922266
 20
642.0948264600097
 40
4.2762699701850186
 50
120.96029276179037
 51
123.24242518265008
  0
LINE
  8
_0-0_FRF74-0519
  6
CONTINUOUS
 62
    7
 10
762.57702857227355
 20
645.76183070783145
 11
762.58181731231321
 21
645.76470355815036
  0
ARC
  8
_0-0_FRF74-0519
  6
CONTINUOUS
 62
    7
 10
764.96678702273425
 20
641.78919439770425
 40
4.6360277829641978
 50
118.71704101885385
 51
120.96019801105673
  0
ARC
  8
_0-0_FRF74-0519
  6
CONTINUOUS
 62
    7
 10
765.00374230928708
 20
641.72168710342385
 40
4.7129883397796712
 50
116.50977228742163
 51
118.71672140063033
  0
ARC
  8
_0-0_FRF74-0519
  6
CONTINUOUS
 62
    7
 10
765.04086627953768
 20
641.64725973085854
 40
4.7961605884817065
 50
114.34077155940824
 51
116.50977228743021
  0
LINE
  8
_0-0_FRF74-0519
  6
CONTINUOUS
 62
    7
 10
763.06406726824662
 20
646.01709062683881
 11
763.06471782811252
 21
646.01738492337574
  0
ARC
  8
_0-0_FRF74-0519
  6
CONTINUOUS
 62
    7
 10
765.04547278984489
 20
641.63880916544485
 40
4.805758617155683
 50
112.15908205582305
 51
114.34077155941728
  0
LINE
  8
_0-0_FRF74-0519
  6
CONTINUOUS
 62
    7
 10
763.23283926608383
 20
646.08961533903914
 11
763.23381935832288
 21
646.09001449100833
  0
ARC
  8
_0-0_FRF74-0519
  6
CONTINUOUS
 62
    7
 10
765.02836279252426
 20
641.68362738019141
 40
4.7577971276220987
 50
109.92992665499447
 51
112.15908205580155
  0
LINE
  8
_0-0_FRF74-0519
  6
CONTINUOUS
 62
    7
 10
763.40656947014872
 20
646.15648104727097
 11
763.40690317260112
 21
646.15660204304891
  0
ARC
  8
_0-0_FRF74-0519
  6
CONTINUOUS
 62
    7
 10
765.00682220149668
 20
641.74416987189034
 40
4.6935379580970444
 50
107.66236977452428
 51
109.93031322503565
  0
ARC
  8
_0-0_FRF74-0519
  6
CONTINUOUS
 62
    7
 10
764.97890832754649
 20
641.83202802960568
 40
4.6013520767849432
 50
105.35085892856725
 51
107.66310153899312
  0
LINE
  8
_0-0_FRF74-0519
  6
CONTINUOUS
 62
    7
 10
763.76079634554856
 20
646.26921679433565
 11
763.77722332493329
 21
646.27372638396037
  0
ARC
  8
_0-0_FRF74-0519
  6
CONTINUOUS
 62
    7
 10
764.74954533553193
 20
642.73187114824418
 40
3.6728937641953752
 50
102.98644313102922
 51
105.35085892856682
  0
LINE
  8
_0-0_FRF74-0519
  6
CONTINUOUS
 62
    7
 10
763.92417081092788
 20
646.31082427691183
 11
763.94547800092869
 21
646.31573811936391
  0
ARC
  8
_0-0_FRF74-0519
  6
CONTINUOUS
 62
    7
 10
764.85442902305749
 20
642.37438421580634
 40
4.044806862350443
 50
101.45870579636384
 51
102.98644313106054
  0
LINE
  8
_0-0_FRF74-0519
  6
CONTINUOUS
 62
    7
 10
764.05088109249232
 20
646.33857054808209
 11
764.05565201124364
 21
646.33953762217197
  0
ARC
  8
_0-0_FRF74-0519
  6
CONTINUOUS
 62
    7
 10
765.00152620200765
 20
641.67320547636632
 40
4.761232369852598
 50
100.27797280946388
 51
101.45870579632599
  0
ARC
  8
_0-0_FRF74-0519
  6
CONTINUOUS
 62
    7
 10
765.1051376277743
 20
641.10175522232498
 40
5.3419997245430819
 50
99.225350116833155
 51
100.27784876420399
  0
ARC
  8
_0-0_FRF74-0519
  6
CONTINUOUS
 62
    7
 10
765.2217028951967
 20
640.3839229578582
 40
6.0692346391194212
 50
98.298400264034029
 51
99.225125131469184
  0
ARC
  8
_0-0_FRF74-0519
  6
CONTINUOUS
 62
    7
 10
765.35961266449112
 20
639.43818626953339
 40
7.0249736135680898
 50
97.49705088547843
 51
98.298147449395188
  0
ARC
  8
_0-0_FRF74-0519
  6
CONTINUOUS
 62
    7
 10
765.53041888110806
 20
638.14000998774293
 40
8.3343385059044266
 50
96.821131462619547
 51
97.496819444243002
  0
ARC
  8
_0-0_FRF74-0519
  6
CONTINUOUS
 62
    7
 10
765.75593264808629
 20
636.2544350850103
 40
10.233351189392781
 50
96.270276647793892
 51
96.820949270769248
  0
ARC
  8
_0-0_FRF74-0519
  6
CONTINUOUS
 62
    7
 10
766.08402685669262
 20
633.2681339446774
 40
13.23762153505966
 50
95.844191455133355
 51
96.270153989673403
  0
ARC
  8
_0-0_FRF74-0519
  6
CONTINUOUS
 62
    7
 10
766.51484896646002
 20
629.0590618072049
 40
17.468684752350576
 50
95.521307093645348
 51
95.844191455101878
  0
LINE
  8
_0-0_FRF74-0519
  6
CONTINUOUS
 62
    7
 10
764.83408351819935
 20
646.44670036121624
 11
764.85555697621817
 21
646.44877607990452
  0
ARC
  8
_0-0_FRF74-0519
  6
CONTINUOUS
 62
    7
 10
768.26226798572907
 20
611.20610747744308
 40
35.4069395758127
 50
95.292184895421528
 51
95.521307093629432
  0
LINE
  8
_0-0_FRF74-0519
  6
CONTINUOUS
 62
    7
 10
764.99651704233804
 20
646.46211747433563
 11
765.0179856176336
 21
646.46410610038924
  0
LINE
  8
_0-0_FRF74-0519
  6
CONTINUOUS
 62
    7
 10
765.0179856176336
 20
646.46410610038924
 11
765.02411711989384
 21
646.46467557775736
  0
LINE
  8
_0-0_FRF74-0519
  6
CONTINUOUS
 62
    7
 10
845.02411996836736
 20
639.97261217625078
 11
845.02411996836736
 21
651.21986521887868
  0
LINE
  8
_0-0_FRF74-0519
  6
CONTINUOUS
 62
    7
 10
885.02411999562025
 20
641.23000941037628
 11
885.02411999562025
 21
639.97261217625078
  0
LINE
  8
_0-0_FRF74-0519
  6
CONTINUOUS
 62
    7
 10
885.02411999562025
 20
639.97261217625078
 11
885.02411999562025
 21
623.23919675561035
  0
LINE
  8
_0-0_FRF74-0519
  6
CONTINUOUS
 62
    7
 10
760.02412188951541
 20
623.23919675561035
 11
760.02412188951541
 21
639.97261217625078
  0
LINE
  8
_0-0_FRF74-0519
  6
CONTINUOUS
 62
    7
 10
844.5241208178586
 20
639.01986545736702
 11
844.5241208178586
 21
651.01986555867518
  0
LINE
  8
_0-0_FRF74-0519
  6
CONTINUOUS
 62
    7
 10
800.52412199859975
 20
651.01986555867518
 11
800.52412199859975
 21
639.01986545736702
  0
LINE
  8
_0-0_FRF74-0519
  6
CONTINUOUS
 62
    7
 10
833.52411994889064
 20
653.51986503650949
 11
833.52411994889064
 21
676.01986464438562
  0
LINE
  8
_0-0_FRF74-0519
  6
CONTINUOUS
 62
    7
 10
833.52411994889064
 20
653.51986503650949
 11
811.52412193624502
 21
653.51986503650949
  0
LINE
  8
_0-0_FRF74-0519
  6
CONTINUOUS
 62
    7
 10
811.52412193624502
 20
653.51986503650949
 11
811.52412193624502
 21
676.01986464438562
  0
LINE
  8
_0-0_FRF74-0519
  6
CONTINUOUS
 62
    7
 10
833.52411994889064
 20
676.01986464438562
 11
811.52412193624502
 21
676.01986464438562
  0
LINE
  8
_0-0_FRF74-0519
  6
CONTINUOUS
 62
    7
 10
843.52411972287314
 20
654.01986418701836
 11
843.52411972287314
 21
636.01986310373354
  0
LINE
  8
_0-0_FRF74-0519
  6
CONTINUOUS
 62
    7
 10
801.52412029961738
 20
654.01986418701836
 11
801.52412029961738
 21
636.01986310373354
  0
LINE
  8
_0-0_FRF74-0519
  6
CONTINUOUS
 62
    7
 10
856.52412045350536
 20
686.26986434286857
 11
858.52412037337729
 21
686.26986434286857
  0
LINE
  8
_0-0_FRF74-0519
  6
CONTINUOUS
 62
    7
 10
858.52412037337729
 20
686.26986434286857
 11
858.52412037337729
 21
676.70783833443284
  0
LINE
  8
_0-0_FRF74-0519
  6
CONTINUOUS
 62
    7
 10
856.52412045350536
 20
686.26986434286857
 11
788.52412003464644
 21
686.26986434286857
  0
LINE
  8
_0-0_FRF74-0519
  6
CONTINUOUS
 62
    7
 10
786.52412343261119
 20
676.70783833443284
 11
786.52412343261119
 21
686.26986434286857
  0
LINE
  8
_0-0_FRF74-0519
  6
CONTINUOUS
 62
    7
 10
786.52412343261119
 20
686.26986434286857
 11
788.52412003464644
 21
686.26986434286857
  0
LINE
  8
_0-0_FRF74-0519
  6
CONTINUOUS
 62
    7
 10
858.52412037337729
 20
676.70783833443284
 11
858.52412037337729
 21
676.51986460980174
  0
LINE
  8
_0-0_FRF74-0519
  6
CONTINUOUS
 62
    7
 10
786.52412343261119
 20
676.51986460980174
 11
786.52412343261119
 21
676.70783833443284
  0
LINE
  8
_0-0_FRF74-0519
  6
CONTINUOUS
 62
    8
 10
844.62412064796035
 20
650.0698643787407
 11
844.62412064796035
 21
639.96986291201119
  0
LINE
  8
_0-0_FRF74-0519
  6
CONTINUOUS
 62
    8
 10
800.42412030585274
 20
639.96986291201119
 11
800.42412030585274
 21
650.0698643787407
  0
LINE
  8
_0-0_FRF74-0519
  6
CONTINUOUS
 62
    7
 10
865.02412044765515
 20
647.46467557775736
 11
865.02412044765515
 21
651.21986521887868
  0
ARC
  8
_0-0_FRF74-0519
  6
CONTINUOUS
 62
    7
 10
866.02412044765515
 20
647.46467557775736
 40
1
 50
180
 51
270
  0
LINE
  8
_0-0_FRF74-0519
  6
CONTINUOUS
 62
    7
 10
880.02411999562025
 20
646.46467557775736
 11
866.02412044765515
 21
646.46467557775736
  0
LINE
  8
_0-0_FRF74-0519
  6
CONTINUOUS
 62
    7
 10
885.02411999562025
 20
641.46467557775736
 11
885.02411999562025
 21
641.23000941037628
  0
ARC
  8
_0-0_FRF74-0519
  6
CONTINUOUS
 62
    7
 10
880.02411999562025
 20
641.46467557775736
 40
5
 50
0
 51
90
  0
ARC
  8
_0-0_FRF74-0519
  6
CONTINUOUS
 62
    7
 10
801.02412098544573
 20
634.10476756656135
 40
1
 50
180
 51
270
  0
ARC
  8
_0-0_FRF74-0519
  6
CONTINUOUS
 62
    7
 10
801.02412098544573
 20
635.17322925266706
 40
1
 50
180
 51
270
  0
LINE
  8
_0-0_FRF74-0519
  6
CONTINUOUS
 62
    7
 10
800.02412098544573
 20
634.10476756656135
 11
800.02412098544573
 21
639.97261217625078
  0
LINE
  8
_0-0_FRF74-0519
  6
CONTINUOUS
 62
    7
 10
844.02411996836736
 20
634.17322925266706
 11
801.02412098544573
 21
634.17322925266706
  0
ARC
  8
_0-0_FRF74-0519
  6
CONTINUOUS
 62
    7
 10
844.02411996836736
 20
635.17322925266706
 40
1
 50
270
 51
0
  0
LINE
  8
_0-0_FRF74-0519
  6
CONTINUOUS
 62
    7
 10
844.02411996836736
 20
633.10476756656135
 11
801.02412098544573
 21
633.10476756656135
  0
LINE
  8
_0-0_FRF74-0519
  6
CONTINUOUS
 62
    7
 10
845.02411996836736
 20
634.10476756656135
 11
845.02411996836736
 21
639.97261217625078
  0
ARC
  8
_0-0_FRF74-0519
  6
CONTINUOUS
 62
    7
 10
844.02411996836736
 20
634.10476756656135
 40
1
 50
270
 51
0
  0
LINE
  8
_0-0_FRF74-0519
  6
CONTINUOUS
 62
    7
 10
1011.8995390719062
 20
820.13799235545457
 11
1011.8995390719062
 21
808.13799411679156
  0
LINE
  8
_0-0_FRF74-0519
  6
CONTINUOUS
 62
    7
 10
1019.8995385185633
 20
808.13799411679156
 11
1019.8995385185633
 21
820.13799235545457
  0
LINE
  8
_0-0_FRF74-0519
  6
CONTINUOUS
 62
    7
 10
1019.8995385185633
 20
820.13799235545457
 11
1019.8995385185633
 21
876.13799220734404
  0
LINE
  8
_0-0_FRF74-0519
  6
CONTINUOUS
 62
    7
 10
1011.8995390719062
 20
876.13799220734404
 11
1011.8995390719062
 21
820.13799235545457
  0
LINE
  8
_0-0_FRF74-0519
  6
CONTINUOUS
 62
    7
 10
1011.8995390719062
 20
888.1379923086522
 11
1011.8995390719062
 21
876.13799220734404
  0
LINE
  8
_0-0_FRF74-0519
  6
CONTINUOUS
 62
    7
 10
1019.8995385185633
 20
876.13799220734404
 11
1019.8995385185633
 21
888.1379923086522
  0
LINE
  8
_0-0_FRF74-0519
  6
CONTINUOUS
 62
    7
 10
984.87176866743994
 20
886.13799198132665
 11
984.89953965887014
 21
886.13799198132665
  0
LINE
  8
_0-0_FRF74-0519
  6
CONTINUOUS
 62
    7
 10
984.89953965887014
 20
890.13799263597775
 11
984.89842882386961
 21
890.13799263597775
  0
ARC
  8
_0-0_FRF74-0519
  6
CONTINUOUS
 62
    7
 10
1015.8995396119656
 20
808.1379928021438
 40
3.9999999989999999
 50
180
 51
0
  0
ARC
  8
_0-0_FRF74-0519
  6
CONTINUOUS
 62
    7
 10
1015.8995396119656
 20
888.13799278214378
 40
3.9999999989999999
 50
0
 51
180
  0
LINE
  8
_0-0_FRF74-0519
  6
CONTINUOUS
 62
    7
 10
1014.4547287254985
 20
894.16729642410917
 11
1014.7343695043278
 21
893.0003343372465
  0
LINE
  8
_0-0_FRF74-0519
  6
CONTINUOUS
 62
    7
 10
1019.6893948928796
 20
893.0448217539797
 11
1018.9558740574248
 21
892.09511487197869
  0
LINE
  8
_0-0_FRF74-0519
  6
CONTINUOUS
 62
    7
 10
1019.6893948928796
 20
893.0448217539797
 11
1019.6878846659022
 21
893.04591543733898
  0
ARC
  8
_0-0_FRF74-0519
  6
CONTINUOUS
 62
    7
 10
985.4191473964795
 20
845.72548118035172
 40
58.425763600577561
 50
54.088516872801108
 51
54.20103900180937
  0
LINE
  8
_0-0_FRF74-0519
  6
CONTINUOUS
 62
    7
 10
1019.5948869096136
 20
893.11312388434123
 11
1019.5843644198334
 21
893.12071265325324
  0
ARC
  8
_0-0_FRF74-0519
  6
CONTINUOUS
 62
    7
 10
1011.5324166653022
 20
881.95598502191456
 40
13.765355270521585
 50
54.201039001866924
 51
54.570627717196764
  0
ARC
  8
_0-0_FRF74-0519
  6
CONTINUOUS
 62
    7
 10
1008.3019954442478
 20
877.41527231030022
 40
19.337939338515032
 50
54.570627717183243
 51
54.83358773635279
  0
ARC
  8
_0-0_FRF74-0519
  6
CONTINUOUS
 62
    7
 10
1015.3981121384529
 20
887.48716208624251
 40
7.0173129016873474
 50
54.833713133835509
 51
55.558010660392235
  0
LINE
  8
_0-0_FRF74-0519
  6
CONTINUOUS
 62
    7
 10
1019.3669045883358
 20
893.2743346990078
 11
1019.3425377539177
 21
893.29104526130413
  0
ARC
  8
_0-0_FRF74-0519
  6
CONTINUOUS
 62
    7
 10
1016.4304331277388
 20
889.04470274000266
 40
5.1489589396330571
 50
55.558010660436807
 51
56.543233498075033
  0
ARC
  8
_0-0_FRF74-0519
  6
CONTINUOUS
 62
    7
 10
1014.3836416636311
 20
885.94726255701789
 40
8.8615713601143042
 50
56.543233498055102
 51
57.115700222998782
  0
LINE
  8
_0-0_FRF74-0519
  6
CONTINUOUS
 62
    7
 10
1019.1949818227483
 20
893.38893258757321
 11
1019.1802849187422
 21
893.39843472945381
  0
ARC
  8
_0-0_FRF74-0519
  6
CONTINUOUS
 62
    7
 10
1017.4035159172493
 20
890.65031711723475
 40
3.2724697852318076
 50
57.115700223031226
 51
59.278482188027297
  0
LINE
  8
_0-0_FRF74-0519
  6
CONTINUOUS
 62
    7
 10
1019.07530882892
 20
893.46353004123148
 11
1019.04753314718
 21
893.48003614620973
  0
ARC
  8
_0-0_FRF74-0519
  6
CONTINUOUS
 62
    7
 10
1016.3972073313575
 20
889.02019498656284
 40
5.1879099933688115
 50
59.278482188031091
 51
60.454549733595236
  0
ARC
  8
_0-0_FRF74-0519
  6
CONTINUOUS
 62
    7
 10
1016.2718317791929
 20
888.79900403009856
 40
5.4421627579598129
 50
60.454549733580016
 51
61.575676093149426
  0
LINE
  8
_0-0_FRF74-0519
  6
CONTINUOUS
 62
    7
 10
1018.8622882201607
 20
893.58509543244065
 11
1018.8390421268123
 21
893.59767730503347
  0
ARC
  8
_0-0_FRF74-0519
  6
CONTINUOUS
 62
    7
 10
1016.6720578484557
 20
889.59398719867102
 40
4.5525108819672049
 50
61.575676093180746
 51
63.581068755918295
  0
LINE
  8
_0-0_FRF74-0519
  6
CONTINUOUS
 62
    7
 10
1018.6976115653017
 20
893.67105568848092
 11
1018.6626173779777
 21
893.68844136801499
  0
ARC
  8
_0-0_FRF74-0519
  6
CONTINUOUS
 62
    7
 10
1016.0146436344681
 20
888.35855541055389
 40
5.951424137620875
 50
63.581068755906507
 51
65.641544645726597
  0
ARC
  8
_0-0_FRF74-0519
  6
CONTINUOUS
 62
    7
 10
1015.4675176033626
 20
887.15009438386323
 40
7.2779703851913942
 50
65.641544645716493
 51
67.326520423314676
  0
LINE
  8
_0-0_FRF74-0519
  6
CONTINUOUS
 62
    7
 10
1018.2730222547771
 20
893.86559857778764
 11
1018.2665050247408
 21
893.86832125037517
  0
ARC
  8
_0-0_FRF74-0519
  6
CONTINUOUS
 62
    7
 10
1016.2947448305852
 20
889.14854156774913
 40
5.115091251951025
 50
67.326520423305325
 51
69.62601714457179
  0
ARC
  8
_0-0_FRF74-0519
  6
CONTINUOUS
 62
    7
 10
1015.4344932094291
 20
886.83217576313575
 40
7.5860391252343824
 50
69.626017144582121
 51
71.17662826173634
  0
LINE
  8
_0-0_FRF74-0519
  6
CONTINUOUS
 62
    7
 10
1017.8821425374309
 20
894.0124962557544
 11
1017.8630195441333
 21
894.01901495944492
  0
ARC
  8
_0-0_FRF74-0519
  6
CONTINUOUS
 62
    7
 10
1016.3468101384099
 20
889.57112720752207
 40
4.6992123186455252
 50
71.176628261744256
 51
74.17195179871139
  0
LINE
  8
_0-0_FRF74-0519
  6
CONTINUOUS
 62
    7
 10
1017.6285261831538
 20
894.09216695478767
 11
1017.5612754567748
 21
894.11123255470261
  0
ARC
  8
_0-0_FRF74-0519
  6
CONTINUOUS
 62
    7
 10
1016.1968951605477
 20
889.2986084364951
 40
5.0022879261279618
 50
74.171951798708278
 51
77.085570035613841
  0
ARC
  8
_0-0_FRF74-0519
  6
CONTINUOUS
 62
    7
 10
1015.4970464612254
 20
886.2464410831293
 40
8.1336636229894363
 50
77.085570035611738
 51
78.877715746556959
  0
LINE
  8
_0-0_FRF74-0519
  6
CONTINUOUS
 62
    7
 10
1017.0660595336769
 20
894.22733588950393
 11
1017.0633049870142
 21
894.22787742273135
  0
ARC
  8
_0-0_FRF74-0519
  6
CONTINUOUS
 62
    7
 10
1016.1086354966519
 20
889.37188424382134
 40
4.9489457048394803
 50
78.877715746568768
 51
81.887682490392976
  0
LINE
  8
_0-0_FRF74-0519
  6
CONTINUOUS
 62
    7
 10
1016.8070013427895
 20
894.27130755012979
 11
1016.7704914682452
 21
894.27651168290913
  0
ARC
  8
_0-0_FRF74-0519
  6
CONTINUOUS
 62
    7
 10
1015.9182286480126
 20
888.29741584419196
 40
6.039531352954107
 50
81.887682490384762
 51
84.725252408251109
  0
LINE
  8
_0-0_FRF74-0519
  6
CONTINUOUS
 62
    7
 10
1016.4734531841324
 20
894.31137167025236
 11
1016.4644842575892
 21
894.31219970561267
  0
ARC
  8
_0-0_FRF74-0519
  6
CONTINUOUS
 62
    7
 10
1015.9129471264641
 20
888.33818428078769
 40
5.9994210973274198
 50
84.72525240825442
 51
87.409847241492557
  0
LINE
  8
_0-0_FRF74-0519
  6
CONTINUOUS
 62
    7
 10
1016.1840687506934
 20
894.33147607811679
 11
1016.1689681735032
 21
894.33215919069551
  0
ARC
  8
_0-0_FRF74-0519
  6
CONTINUOUS
 62
    7
 10
1015.9121077243187
 20
888.65411846806319
 40
5.6838476174353607
 50
87.409847241500245
 51
89.938848804941571
  0
LINE
  8
_0-0_FRF74-0519
  6
CONTINUOUS
 62
    7
 10
1015.9181740351587
 20
894.33796284824268
 11
1015.9038775220281
 21
894.3379781067697
  0
ARC
  8
_0-0_FRF74-0519
  6
CONTINUOUS
 62
    7
 10
1015.897481239584
 20
888.34496604679578
 40
5.9930154733173975
 50
89.938848804940307
 51
92.06416826913528
  0
LINE
  8
_0-0_FRF74-0519
  6
CONTINUOUS
 62
    7
 10
1015.6816203739647
 20
894.33409274023916
 11
1015.6725587667318
 21
894.33376614063934
  0
ARC
  8
_0-0_FRF74-0519
  6
CONTINUOUS
 62
    7
 10
1015.8890293443259
 20
888.32772279930202
 40
6.0099431053035763
 50
92.064168269145327
 51
94.01066754501565
  0
LINE
  8
_0-0_FRF74-0519
  6
CONTINUOUS
 62
    7
 10
1015.4686806849385
 20
894.32294782706686
 11
1015.4583553090248
 21
894.32222387460422
  0
ARC
  8
_0-0_FRF74-0519
  6
CONTINUOUS
 62
    7
 10
1015.8708629816682
 20
888.43883096263232
 40
5.8978364453951562
 50
94.010667544984955
 51
95.793104497154602
  0
LINE
  8
_0-0_FRF74-0519
  6
CONTINUOUS
 62
    7
 10
1015.2755556398118
 20
894.30654635325607
 11
1015.2652794674336
 21
894.30550378720511
  0
ARC
  8
_0-0_FRF74-0519
  6
CONTINUOUS
 62
    7
 10
1015.8433141876179
 20
888.6080379818095
 40
5.7267129089373912
 50
95.793104497175108
 51
97.422160064727876
  0
ARC
  8
_0-0_FRF74-0519
  6
CONTINUOUS
 62
    7
 10
1015.9381190730197
 20
887.88028466716128
 40
6.4606153910681376
 50
97.422160064698886
 51
98.866181671944815
  0
LINE
  8
_0-0_FRF74-0519
  6
CONTINUOUS
 62
    7
 10
1014.9423623523276
 20
894.26370223023071
 11
1014.9021182083684
 21
894.25742449946642
  0
ARC
  8
_0-0_FRF74-0519
  6
CONTINUOUS
 62
    7
 10
1015.5715199117136
 20
889.96614481128586
 40
4.3431762573758537
 50
98.86618167195833
 51
101.59156090527998
  0
LINE
  8
_0-0_FRF74-0519
  6
CONTINUOUS
 62
    7
 10
1014.6988297087196
 20
894.22074136233869
 11
1014.6441204000528
 21
894.20951955150122
  0
ARC
  8
_0-0_FRF74-0519
  6
CONTINUOUS
 62
    7
 10
1015.8370604581823
 20
888.39361988916016
 40
5.9369853347223263
 50
101.5915609053023
 51
102.50771106337625
  0
ARC
  8
_0-0_FRF74-0519
  6
CONTINUOUS
 62
    7
 10
1015.6543179802206
 20
889.21739325899034
 40
5.0931859639634638
 50
102.50771106336384
 51
103.57563367854388
  0
LINE
  8
_0-0_FRF74-0519
  6
CONTINUOUS
 62
    7
 10
1014.458800838325
 20
894.16828025294899
 11
1014.4552432516443
 21
894.16742118348009
  0
LINE
  8
_0-0_FRF74-0519
  6
CONTINUOUS
 62
    7
 10
1014.4552432516443
 20
894.16742118348009
 11
1014.4547287254985
 21
894.16729642410917
  0
LINE
  8
_0-0_FRF74-0519
  6
CONTINUOUS
 62
    7
 10
1020.800049216895
 20
786.99641661005103
 11
1019.8251183942895
 21
787.69606338083031
  0
ARC
  8
_0-0_FRF74-0519
  6
CONTINUOUS
 62
    7
 10
947.6802075675289
 20
839.47011086810562
 40
89.999999921008907
 50
324.33528020850412
 51
35.504177649889371
  0
ARC
  8
_0-0_FRF74-0519
  6
CONTINUOUS
 62
    7
 10
947.68020761151183
 20
839.47011083265488
 40
88.799999885499048
 50
324.33528021054173
 51
35.504177684991589
  0
ARC
  8
_0-0_FRF74-0519
  6
CONTINUOUS
 62
    7
 10
1015.8995395918249
 20
888.13799276777536
 40
5.0000000477022253
 50
35.504177649887765
 51
52.318813651686597
  0
ARC
  8
_0-0_FRF74-0519
  6
CONTINUOUS
 62
    7
 10
1015.8995396119656
 20
888.13799278214378
 40
6.200000023190583
 50
35.504177649889193
 51
52.318813733697354
  0
LINE
  8
_0-0_FRF74-0519
  6
CONTINUOUS
 62
    7
 10
1017.7524804940975
 20
782.99111859259688
 11
1016.8181832754124
 21
783.74417112508149
  0
LINE
  8
_0-0_FRF74-0519
  6
CONTINUOUS
 62
    7
 10
1017.7524804940975
 20
782.99111859259688
 11
1017.9187331055583
 21
783.19739691498432
  0
ARC
  8
_0-0_FRF74-0519
  6
CONTINUOUS
 62
    7
 10
969.62068896072401
 20
822.12381378030148
 40
62.031983671238592
 50
321.13248497487854
 51
322.20451080808709
  0
LINE
  8
_0-0_FRF74-0519
  6
CONTINUOUS
 62
    7
 10
1018.6385648774713
 20
784.10783241983677
 11
1018.7662539294111
 21
784.27247491701621
  0
ARC
  8
_0-0_FRF74-0519
  6
CONTINUOUS
 62
    7
 10
937.32256289677298
 20
847.43640812135595
 40
103.06676121263393
 50
322.20451080808874
 51
322.61808704976977
  0
LINE
  8
_0-0_FRF74-0519
  6
CONTINUOUS
 62
    7
 10
1019.2200623761029
 20
784.8619976495404
 11
1019.2671415896245
 21
784.92361500775121
  0
ARC
  8
_0-0_FRF74-0519
  6
CONTINUOUS
 62
    7
 10
967.43513114665814
 20
824.52625877169544
 40
65.229799169195971
 50
322.61808704976903
 51
323.13533489816768
  0
LINE
  8
_0-0_FRF74-0519
  6
CONTINUOUS
 62
    7
 10
1019.6225445359873
 20
785.39314512883664
 11
1019.6552333868783
 21
785.43673855690474
  0
ARC
  8
_0-0_FRF74-0519
  6
CONTINUOUS
 62
    7
 10
913.80069625296585
 20
864.81253747550807
 40
132.30910961003929
 50
323.13533489816888
 51
323.34315355397348
  0
LINE
  8
_0-0_FRF74-0519
  6
CONTINUOUS
 62
    7
 10
1019.9424419764961
 20
785.82120693498064
 11
1019.9636623012543
 21
785.84972097948719
  0
ARC
  8
_0-0_FRF74-0519
  6
CONTINUOUS
 62
    7
 10
981.83804883718165
 20
814.22303361601917
 40
47.524806911572696
 50
323.34315355397302
 51
323.83601577212659
  0
LINE
  8
_0-0_FRF74-0519
  6
CONTINUOUS
 62
    7
 10
1020.2063179143715
 20
786.1787258156362
 11
1020.2473599894961
 21
786.23487672487158
  0
ARC
  8
_0-0_FRF74-0519
  6
CONTINUOUS
 62
    7
 10
914.46357938246229
 20
863.55483342302421
 40
131.02894315120326
 50
323.83601577213062
 51
323.95395409976936
  0
ARC
  8
_0-0_FRF74-0519
  6
CONTINUOUS
 62
    7
 10
935.44333840040247
 20
848.28637075790164
 40
105.08137600884713
 50
323.95395409976709
 51
324.10101471114297
  0
LINE
  8
_0-0_FRF74-0519
  6
CONTINUOUS
 62
    7
 10
1020.5647198264448
 20
786.67106415284684
 11
1020.5912880368912
 21
786.70776806458287
  0
ARC
  8
_0-0_FRF74-0519
  6
CONTINUOUS
 62
    7
 10
664.4492814971353
 20
1044.5019739415834
 40
439.65325133099714
 50
324.10101471115115
 51
324.14670122499939
  0
LINE
  8
_0-0_FRF74-0519
  6
CONTINUOUS
 62
    7
 10
1020.7967347620869
 20
786.99183053457102
 11
1020.800049216895
 21
786.99641661005103
  0
LINE
  8
_0-0_FRF74-0519
  6
CONTINUOUS
 62
    7
 10
1016.8181832754124
 20
783.74417112508149
 11
1016.9611380486176
 21
783.92153875738347
  0
ARC
  8
_0-0_FRF74-0519
  6
CONTINUOUS
 62
    7
 10
966.51669786776426
 20
824.57875119197479
 40
64.789277416183367
 50
321.13187860225258
 51
322.20835772400886
  0
LINE
  8
_0-0_FRF74-0519
  6
CONTINUOUS
 62
    7
 10
1017.7160620831006
 20
784.87641408121374
 11
1017.8651131831139
 21
785.06862749008656
  0
ARC
  8
_0-0_FRF74-0519
  6
CONTINUOUS
 62
    7
 10
951.85736557251801
 20
836.25406480403626
 40
83.528269092831053
 50
322.20835772400602
 51
322.70966891636095
  0
LINE
  8
_0-0_FRF74-0519
  6
CONTINUOUS
 62
    7
 10
1018.3104294615573
 20
785.6481161675008
 11
1018.3784088978939
 21
785.73738317953655
  0
ARC
  8
_0-0_FRF74-0519
  6
CONTINUOUS
 62
    7
 10
963.91378088069666
 20
827.21378782730358
 40
68.459388308375807
 50
322.70966891636675
 51
323.13351328492786
  0
LINE
  8
_0-0_FRF74-0519
  6
CONTINUOUS
 62
    7
 10
1018.6837367438006
 20
786.14141533300256
 11
1018.6919998463081
 21
786.15243416956196
  0
ARC
  8
_0-0_FRF74-0519
  6
CONTINUOUS
 62
    7
 10
912.1231724857696
 20
866.0691422379939
 40
133.20508696553307
 50
323.13351328492985
 51
323.33949616436263
  0
LINE
  8
_0-0_FRF74-0519
  6
CONTINUOUS
 62
    7
 10
1018.9786174634255
 20
786.53607319044386
 11
1018.9993087057475
 21
786.56387259428845
  0
ARC
  8
_0-0_FRF74-0519
  6
CONTINUOUS
 62
    7
 10
981.59867192207423
 20
814.40136303157806
 40
46.623315043767967
 50
323.33949616436638
 51
323.84282229667667
  0
LINE
  8
_0-0_FRF74-0519
  6
CONTINUOUS
 62
    7
 10
1019.2424064016302
 20
786.8934957914023
 11
1019.2855517199532
 21
786.95253893323525
  0
ARC
  8
_0-0_FRF74-0519
  6
CONTINUOUS
 62
    7
 10
913.50548186546757
 20
864.25050520686557
 40
131.01297175646053
 50
323.84282229667195
 51
323.95797959778719
  0
ARC
  8
_0-0_FRF74-0519
  6
CONTINUOUS
 62
    7
 10
934.64493503529127
 20
848.86809350187605
 40
104.86923311446512
 50
323.95797959778963
 51
324.10184540993055
  0
LINE
  8
_0-0_FRF74-0519
  6
CONTINUOUS
 62
    7
 10
1019.5953611928813
 20
787.37841022362318
 11
1019.6213002207563
 21
787.41424601516769
  0
ARC
  8
_0-0_FRF74-0519
  6
CONTINUOUS
 62
    7
 10
664.16922356632051
 20
1044.7011909155822
 40
438.7969357392322
 50
324.10184540993544
 51
324.14653756386662
  0
LINE
  8
_0-0_FRF74-0519
  6
CONTINUOUS
 62
    7
 10
1019.8218823747836
 20
787.69158584874651
 11
1019.8251183942895
 21
787.69606338083031
  0
LINE
  8
_0-0_FRF74-0519
  6
CONTINUOUS
 62
    7
 10
1020.6679355217834
 20
884.17536749155624
 11
1019.8995385185633
 21
884.81391950145598
  0
LINE
  8
_0-0_FRF74-0519
  6
CONTINUOUS
 62
    7
 10
1019.8995385185633
 20
883.40090571573171
 11
1020.2074523881056
 21
883.67908059282888
  0
LINE
  8
_0-0_FRF74-0519
  6
CONTINUOUS
 62
    7
 10
1020.2074523881056
 20
883.67908059282888
 11
1020.6679355217834
 21
884.17536749155624
  0
LINE
  8
_0-0_FRF74-0519
  6
CONTINUOUS
 62
    7
 10
1021.2959673118829
 20
885.08535905369524
 11
1020.2514964952934
 21
885.67619382017381
  0
ARC
  8
_0-0_FRF74-0519
  6
CONTINUOUS
 62
    7
 10
1015.8995396119656
 20
888.13799278214378
 40
4.3599999989099727
 50
336.55338274495409
 51
203.44661725504758
  0
ARC
  8
_0-0_FRF74-0519
  6
CONTINUOUS
 62
    7
 10
1015.8995396119656
 20
888.13799278214378
 40
4.0999999989749956
 50
347.31961650818045
 51
192.68038349182027
  0
LINE
  8
_0-0_FRF74-0519
  6
CONTINUOUS
 62
    7
 10
1014.6679904191612
 20
893.03551970410672
 11
1014.7221673159581
 21
893.04882644104953
  0
ARC
  8
_0-0_FRF74-0519
  6
CONTINUOUS
 62
    7
 10
1015.8995396119656
 20
888.13799278214378
 40
5.0499999987375306
 50
330.49772328328976
 51
27.196047307220272
  0
ARC
  8
_0-0_FRF74-0519
  6
CONTINUOUS
 62
    7
 10
1015.8995396119656
 20
888.13799278214378
 40
5.999999998500039
 50
330.49477132414205
 51
0.8294016422452119
  0
LINE
  8
_0-0_FRF74-0519
  6
CONTINUOUS
 62
    7
 10
1007.3995392667463
 20
885.13799368030902
 11
984.89953965887014
 21
885.13799368030902
  0
LINE
  8
_0-0_FRF74-0519
  6
CONTINUOUS
 62
    7
 10
984.89953965887014
 20
891.13799093699538
 11
984.89953965887014
 21
885.13799368030902
  0
LINE
  8
_0-0_FRF74-0519
  6
CONTINUOUS
 62
    7
 10
1007.3995392667463
 20
891.13799093699538
 11
984.89953965887014
 21
891.13799093699538
  0
LINE
  8
_0-0_FRF74-0519
  6
CONTINUOUS
 62
    7
 10
1007.3995392667463
 20
891.13799093699538
 11
1007.3995392667463
 21
891.09603299237426
  0
LINE
  8
_0-0_FRF74-0519
  6
CONTINUOUS
 62
    7
 10
1007.3995392667463
 20
885.17995162493014
 11
1007.3995392667463
 21
885.13799368030902
  0
ARC
  8
_0-0_FRF74-0519
  6
CONTINUOUS
 62
    7
 10
1015.8995396119656
 20
888.13799278214378
 40
8.9999999977499812
 50
346.85543988876668
 51
180
  0
ARC
  8
_0-0_FRF74-0519
  6
CONTINUOUS
 62
    7
 10
1015.8995396119656
 20
888.13799278214378
 40
8.9999999977499741
 50
296.3877999612439
 51
336.73118344789663
  0
ARC
  8
_0-0_FRF74-0519
  6
CONTINUOUS
 62
    7
 10
1015.8995396119656
 20
888.13799278214378
 40
8.9999999977499989
 50
180
 51
243.61220003875769
  0
LINE
  8
_0-0_FRF74-0519
  6
CONTINUOUS
 62
    7
 10
974.64953996038719
 20
904.13799120196632
 11
974.64953996038719
 21
906.13799152929175
  0
LINE
  8
_0-0_FRF74-0519
  6
CONTINUOUS
 62
    7
 10
974.64953996038719
 20
904.13799120196632
 11
974.64953996038719
 21
878.13799253466959
  0
LINE
  8
_0-0_FRF74-0519
  6
CONTINUOUS
 62
    7
 10
974.64953996038719
 20
876.13799220734404
 11
974.64953996038719
 21
878.13799253466959
  0
ARC
  8
_0-0_FRF74-0519
  6
CONTINUOUS
 62
    7
 10
534.77453973224692
 20
891.13799278139379
 40
450.12499988746862
 50
358.34317720413486
 51
1.6568227958658492
  0
LINE
  8
_0-0_FRF74-0519
  6
CONTINUOUS
 62
    7
 10
984.71135696873637
 20
878.12353654567005
 11
984.70886335908779
 21
878.03806688510906
  0
ARC
  8
_0-0_FRF74-0519
  6
CONTINUOUS
 62
    7
 10
473.04862275955759
 20
892.96594777747293
 40
511.87795756245032
 50
358.25539998388507
 51
358.3288480342149
  0
ARC
  8
_0-0_FRF74-0519
  6
CONTINUOUS
 62
    7
 10
599.10901166385293
 20
889.12634648654421
 40
385.75910810379293
 50
358.15793907295307
 51
358.25539998387808
  0
LINE
  8
_0-0_FRF74-0519
  6
CONTINUOUS
 62
    7
 10
984.6687719428395
 20
876.72631670253895
 11
984.66541848361453
 21
876.6220460711437
  0
LINE
  8
_0-0_FRF74-0519
  6
CONTINUOUS
 62
    7
 10
984.66541848361453
 20
876.6220460711437
 11
984.66541273066628
 21
876.62186830144515
  0
ARC
  8
_0-0_FRF74-0519
  6
CONTINUOUS
 62
    8
 10
1015.8995396119656
 20
888.13799278214378
 40
5.1499999987125422
 50
330.50984757979995
 51
21.226029825187691
  0
LINE
  8
_0-0_FRF74-0519
  6
CONTINUOUS
 62
    7
 10
984.66541278025534
 20
905.65411732599932
 11
984.66541278025534
 21
904.15244905361101
  0
LINE
  8
_0-0_FRF74-0519
  6
CONTINUOUS
 62
    7
 10
974.64953996038719
 20
876.13799034469889
 11
984.16567295349444
 21
876.13799034469889
  0
ARC
  8
_0-0_FRF74-0519
  6
CONTINUOUS
 62
    7
 10
984.1656728490716
 20
876.63798909622199
 40
0.4999999998750636
 50
270
 51
358.1519424534826
  0
LINE
  8
_0-0_FRF74-0519
  6
CONTINUOUS
 62
    7
 10
974.64953996038719
 20
906.13799152929175
 11
984.16567295349444
 21
906.13799152929175
  0
ARC
  8
_0-0_FRF74-0519
  6
CONTINUOUS
 62
    7
 10
984.1656728490716
 20
905.63799277776877
 40
0.4999999998750636
 50
1.8480575465174089
 51
90
  0
ARC
  8
_0-0_FRF74-0519
  6
CONTINUOUS
 62
    7
 10
1015.8995396119656
 20
888.13799278214378
 40
6.2000000231906185
 50
103.47576631976068
 51
229.82223065291183
  0
ARC
  8
_0-0_FRF74-0519
  6
CONTINUOUS
 62
    7
 10
1015.8995395918249
 20
888.13799276777536
 40
5.0000000291729867
 50
52.318832141877508
 51
216.86989849533313
  0
LINE
  8
_0-0_FRF74-0519
  6
CONTINUOUS
 62
    4
 10
1019.8995361328125
 20
814.1379928021438
 11
1019.8995361328125
 21
825.81393246912455
  0
LINE
  8
_0-0_FRF74-0519
  6
CONTINUOUS
 62
    4
 10
1011.8995361328125
 20
814.1379928021438
 11
1011.8995361328125
 21
825.81393246912455
  0
TEXT
  8
_0-2_
 62
    7
 10
704.52645968509307
 20
506.99149662678974
 40
6
 41
1
 50
0
  1
ペーパーホルダー　-LANGBERGER,Alster-
  0
TEXT
  8
_0-2_
 62
    7
 10
704.22379049664801
 20
489.15023468982457
 40
6
 41
1
 50
0
  1
クローム
  0
LINE
  8
_0-1_
  6
CONTINUOUS
 62
    4
 10
1015.8995396119658
 20
789.13799280314379
 11
974.64953996038719
 21
789.13799280314379
  0
POINT
  8
_0-1_
 62
    7
 10
1015.8995396119658
 20
789.13799280314379
  0
POINT
  8
_0-1_
 62
    7
 10
974.64953996038719
 20
789.13799280314379
  0
TEXT
  8
_0-1_
 62
    4
 10
989.02453978617655
 20
790.13799280314379
 40
5
 41
1
 50
0
  1
41.25
  0
LINE
  8
_0-1_
  6
CONTINUOUS
 62
    4
 10
974.64953996038719
 20
789.13799280314379
 11
974.64953996038719
 21
870.13799220734404
  0
LINE
  8
_0-1_
  6
CONTINUOUS
 62
    4
 10
1015.8995396119658
 20
789.13799280314379
 11
1015.8995396119658
 21
798.13799280314379
  0
LINE
  8
_0-1_
  6
CONTINUOUS
 62
    4
 10
760.02412188951541
 20
603.23919675561035
 11
885.02411999562025
 21
603.23919675561035
  0
POINT
  8
_0-1_
 62
    7
 10
760.02412188951541
 20
603.23919675561035
  0
POINT
  8
_0-1_
 62
    7
 10
885.02411999562025
 20
603.23919675561035
  0
LINE
  8
_0-1_
  6
CONTINUOUS
 62
    4
 10
760.02412188951541
 20
603.23919675561035
 11
760.02412188951541
 21
617.23919675561035
  0
LINE
  8
_0-1_
  6
CONTINUOUS
 62
    4
 10
885.02411999562025
 20
603.23919675561035
 11
885.02411999562025
 21
617.23919675561035
  0
TEXT
  8
_0-1_
 62
    4
 10
818.77412094256783
 20
604.23919675561035
 40
5
 41
1
 50
0
  1
125
  0
ENDSEC
  0
EOF
