  0
SECTION
  2
HEADER
  9
$ACADVER
  1
AC1009
  9
$INSBASE
 10
0
 20
0
 30
0
  9
$EXTMIN
 10
0
 20
0
  9
$EXTMAX
 10
1682
 20
1188
  9
$LIMMIN
 10
0
 20
0
  9
$LIMMAX
 10
1682
 20
1188
  9
$LTSCALE
 40
2
  0
ENDSEC
  0
SECTION
  2
TABLES
  0
TABLE
  2
LTYPE
 70
     9
  0
LTYPE
  2
CONTINUOUS
 70
    64
  3
実線
 72
    65
 73
     0
 40
0.0
  0
LTYPE
  2
DASHED1
 70
    64
  3
--  --  --  --  --  --  --  --  
 72
    65
 73
     2
 40
2.5
 49
1.25
 49
-1.25
  0
LTYPE
  2
DASHED2
 70
    64
  3
----    ----    ----    ----    
 72
    65
 73
     2
 40
5.0
 49
2.5
 49
-2.5
  0
LTYPE
  2
DASHED3
 70
    64
  3
------  ------  ------  ------  
 72
    65
 73
     2
 40
5.0
 49
3.75
 49
-1.25
  0
LTYPE
  2
CENTER1
 70
    64
  3
----- - ----- - ----- - ----- - 
 72
    65
 73
     4
 40
10.0
 49
6.25
 49
-1.25
 49
1.25
 49
-1.25
  0
LTYPE
  2
CENTER2
 70
    64
  3
----------  --  ----------  --  
 72
    65
 73
     4
 40
20.0
 49
12.5
 49
-2.5
 49
2.5
 49
-2.5
  0
LTYPE
  2
PHANTOM1
 70
    64
  3
--- - - --- - - --- - - --- - - 
 72
    65
 73
     6
 40
10.0
 49
3.25
 49
-1.25
 49
1.25
 49
-1.25
 49
1.25
 49
-1.25
  0
LTYPE
  2
PHANTOM2
 70
    64
  3
--------  -  -  --------  -  -  
 72
    65
 73
     6
 40
20.0
 49
10.0
 49
-2.5
 49
1.25
 49
-2.5
 49
1.25
 49
-2.5
  0
LTYPE
  2
DOT
 70
    64
  3
-   -   -   -   -   -   -   -   
 72
    65
 73
     2
 40
2.5
 49
0.625
 49
-1.875
  0
LTYPE
  2
DUMMY
 70
    64
  3
ダミー
 72
    65
 73
     0
 40
0.0
  0
LTYPE
  2
RAND1
 70
    64
  3
ランダム線1
 72
    65
 73
     4
 40
10.0
 49
1.0
 49
-2.0
 49
3.0
 49
-4.0
  0
LTYPE
  2
RAND2
 70
    64
  3
ランダム線2
 72
    65
 73
     4
 40
14.0
 49
2.0
 49
-3.0
 49
4.0
 49
-5.0
  0
LTYPE
  2
RAND3
 70
    64
  3
ランダム線3
 72
    65
 73
     4
 40
18.0
 49
3.0
 49
-4.0
 49
5.0
 49
-6.0
  0
LTYPE
  2
RAND4
 70
    64
  3
ランダム線4
 72
    65
 73
     4
 40
22.0
 49
4.0
 49
-5.0
 49
6.0
 49
-7.0
  0
LTYPE
  2
RAND5
 70
    64
  3
ランダム線5
 72
    65
 73
     4
 40
26.0
 49
5.0
 49
-6.0
 49
7.0
 49
-8.0
  0
LTYPE
  2
LONG1
 70
    64
  3
----------  --  ----------  --  
 72
    65
 73
     4
 40
40.0
 49
32.5
 49
-2.5
 49
2.5
 49
-2.5
  0
LTYPE
  2
LONG2
 70
    64
  3
--------  -  -  --------  -  -  
 72
    65
 73
     6
 40
40.0
 49
30.0
 49
-2.5
 49
1.25
 49
-2.5
 49
1.25
 49
-2.5
  0
LTYPE
  2
LONG3
 70
    64
  3
+++++++++++++++..+++++++++++++++
 72
    65
 73
     2
 40
40.0
 49
37.5
 49
-2.5
  0
LTYPE
  2
LONG4
 70
    64
  3
+++++++++++++++..+++++++++++++++
 72
    65
 73
     2
 40
80.0
 49
75.0
 49
-5.0
  0
LTYPE
  2
LONG5
 70
    64
  3
----------  --  ----------  --  
 72
    65
 73
     4
 40
60.0
 49
37.5
 49
-7.5
 49
7.5
 49
-7.5
  0
LTYPE
  2
dashed
 70
   64
  3
-------   -------------   ------
 72
   65
 73
    2
 40
7.5
 49
6
 49
-1.5
  0
LTYPE
  2
dashed_spaced
 70
   64
  3
----        --------        ----
 72
   65
 73
    2
 40
12
 49
6
 49
-6
  0
LTYPE
  2
long_dashed_dotted
 70
   64
  3
------------- --- --------------
 72
   65
 73
    4
 40
15.25
 49
12
 49
-1.5
 49
0.25
 49
-1.5
  0
LTYPE
  2
long_dashed_double-dotted
 70
   64
  3
----------- --- --- ------------
 72
   65
 73
    6
 40
17
 49
12
 49
-1.5
 49
0.25
 49
-1.5
 49
0.25
 49
-1.5
  0
LTYPE
  2
long_dashed_triplicate-dotted
 70
   64
  3
--------- --- --- --- ----------
 72
   65
 73
    8
 40
18.75
 49
12
 49
-1.5
 49
0.25
 49
-1.5
 49
0.25
 49
-1.5
 49
0.25
 49
-1.5
  0
LTYPE
  2
dotted
 70
   64
  3
   -       -       -       -    
 72
   65
 73
    2
 40
1.75
 49
0.25
 49
-1.5
  0
LTYPE
  2
chain
 70
   64
  3
-------------- -- --------------
 72
   65
 73
    4
 40
18.5
 49
12
 49
-1.5
 49
3.5
 49
-1.5
  0
LTYPE
  2
chain_double_dash
 70
   64
  3
------------ -- -- -------------
 72
   65
 73
    6
 40
23.5
 49
12
 49
-1.5
 49
3.5
 49
-1.5
 49
3.5
 49
-1.5
  0
LTYPE
  2
dashed_dotted
 70
   64
  3
-----------     -     ----------
 72
   65
 73
    4
 40
9.25
 49
6
 49
-1.5
 49
0.25
 49
-1.5
  0
LTYPE
  2
double-dashed_dotted
 70
   64
  3
------   -----------   -   -----
 72
   65
 73
    6
 40
16.75
 49
6
 49
-1.5
 49
6
 49
-1.5
 49
0.25
 49
-1.5
  0
LTYPE
  2
dashed_double-dotted
 70
   64
  3
---------    -    -    ---------
 72
   65
 73
    6
 40
11
 49
6
 49
-1.5
 49
0.25
 49
-1.5
 49
0.25
 49
-1.5
  0
LTYPE
  2
double-dashed_double-dotted
 70
   64
  3
-----   ---------   -   -   ----
 72
   65
 73
    8
 40
18.5
 49
6
 49
-1.5
 49
6
 49
-1.5
 49
0.25
 49
-1.5
 49
0.25
 49
-1.5
  0
LTYPE
  2
dashed_triplicate-dotted
 70
   64
  3
-------    -    -    -    ------
 72
   65
 73
    8
 40
12.75
 49
6
 49
-1.5
 49
0.25
 49
-1.5
 49
0.25
 49
-1.5
 49
0.25
 49
-1.5
  0
LTYPE
  2
double-dashed_triplicate-dotted
 70
   64
  3
-----  ---------  -  -  -  -----
 72
   65
 73
   10
 40
20.25
 49
6
 49
-1.5
 49
6
 49
-1.5
 49
0.25
 49
-1.5
 49
0.25
 49
-1.5
 49
0.25
 49
-1.5
  0
LTYPE
  2
undefined
 70
   64
  3
--------------------------------
 72
   65
 73
    0
 40
0
  0
ENDTAB
  0
TABLE
  2
STYLE
  5
3
100
AcDbSymbolTable
 70
     1
  0
STYLE
  5
10
100
AcDbSymbolTableRecord
100
AcDbTextStyleTableRecord
  2
STANDARD
 70
     0
 40
0.0
 41
1.0
 50
0.0
 71
     0
 42
0.2
  3
txt
  4
bigfont.shx
  0
STYLE
  5
26
100
AcDbSymbolTableRecord
100
AcDbTextStyleTableRecord
  2
TATEGAKI
 70
    68
 40
0.0
 41
1.0
 50
0.0
 71
     0
 42
1.0
  3
txt
  4
bigfont.shx
  0
ENDTAB
  0
TABLE
  2
LAYER
 70
    4
  0
LAYER
  2
_0-0_
 70
   64
 62
    7
  6
CONTINUOUS
  0
LAYER
  2
_0-1_
 70
   64
 62
    7
  6
CONTINUOUS
  0
LAYER
  2
_0-2_
 70
   64
 62
    7
  6
CONTINUOUS
  0
LAYER
  2
ADD_LINE
 70
   64
 62
    7
  6
CONTINUOUS
  0
ENDTAB
  0
ENDSEC
  0
SECTION
  2
BLOCKS
  0
ENDSEC
  0
SECTION
  2
ENTITIES
  0
LINE
  8
_0-2_
  6
CONTINUOUS
 62
    7
 10
1079.8988725370491
 20
503.2673488237719
 11
689.8988725370491
 21
503.2673488237719
  0
LINE
  8
_0-2_
  6
CONTINUOUS
 62
    7
 10
1079.8988725371457
 20
1029.267348823772
 11
689.89887253714551
 21
1029.267348823772
  0
LINE
  8
_0-2_
  6
CONTINUOUS
 62
    7
 10
689.89887253714551
 20
1029.267348823772
 11
689.89887253714551
 21
469.2673488237719
  0
LINE
  8
_0-2_
  6
CONTINUOUS
 62
    7
 10
689.89887253714551
 20
469.2673488237719
 11
1079.8988725371457
 21
469.2673488237719
  0
LINE
  8
_0-2_
  6
CONTINUOUS
 62
    7
 10
1079.8988725371457
 20
469.2673488237719
 11
1079.8988725371457
 21
1029.267348823772
  0
LINE
  8
_0-2_
  6
CONTINUOUS
 62
    7
 10
1079.8988725370491
 20
520.26734882377195
 11
689.8988725370491
 21
520.26734882377195
  0
LINE
  8
_0-2_
  6
CONTINUOUS
 62
    7
 10
1079.8988725371457
 20
486.2673488237719
 11
929.29887253714571
 21
486.2673488237719
  0
LINE
  8
_0-2_
  6
CONTINUOUS
 62
    7
 10
1029.6988725371975
 20
486.2673488237719
 11
1029.6988725371975
 21
503.2673488237719
  0
LINE
  8
_0-2_
  6
CONTINUOUS
 62
    7
 10
979.49887253719749
 20
486.2673488237719
 11
979.49887253719749
 21
503.2673488237719
  0
LINE
  8
_0-2_
  6
CONTINUOUS
 62
    7
 10
929.29887253719744
 20
469.2673488237719
 11
929.29887253719744
 21
520.26734882377195
  0
TEXT
  8
_0-2_
 62
    7
 10
692.3096492748183
 20
513.10915436114692
 40
4.4000000000000004
 41
1
 50
0
  1
品名
  0
TEXT
  8
_0-2_
 62
    7
 10
692.19974237584904
 20
495.8798246882979
 40
4.4000000000000004
 41
1
 50
0
  1
仕様
  0
TEXT
  8
_0-2_
 62
    7
 10
930.64338553821096
 20
497.16512894069484
 40
4.4000000000000004
 41
1
 50
0
  1
重量
  0
TEXT
  8
_0-2_
 62
    7
 10
980.63579254540582
 20
498.18538214492327
 40
4.4000000000000004
 41
1
 50
0
  1
容量
  0
TEXT
  8
_0-2_
 62
    7
 10
1031.3933894557722
 20
497.16512894069484
 40
4.4000000000000004
 41
1
 50
0
  1
縮尺
  0
TEXT
  8
_0-2_
 62
    7
 10
930.64338553821096
 20
513.99930681046453
 40
4.4000000000000004
 41
1
 50
0
  1
品番
  0
TEXT
  8
_0-2_
 62
    7
 10
936.36516934588531
 20
473.92519932464324
 40
6
 41
1
 50
0
  1
大洋金物株式会社 ティーフォルム事業部
  0
TEXT
  8
_0-2_
 62
    7
 10
692.05154659479831
 20
459.81912536826712
 40
6
 41
1
 50
0
  1
120912S
  0
TEXT
  8
_0-2_
 62
    7
 10
942.89541103866497
 20
507.16508785728229
 40
6
 41
1
 50
0
  1
FRF74-1105
  0
TEXT
  8
_0-2_
 62
    7
 10
703.1219468089871
 20
507.29832354106759
 40
6
 41
1
 50
0
  1
ペーパーホルダー　-LANGBERGER,Vota-
  0
TEXT
  8
_0-2_
 62
    7
 10
702.7186078274384
 20
488.29680214760043
 40
6
 41
1
 50
0
  1
クローム
  0
TEXT
  8
_0-2_
 62
    7
 10
1043.1484409851291
 20
489.49301166508508
 40
6
 41
1
 50
0
  1
1/2
  0
LINE
  8
_0-0_
  6
CONTINUOUS
 62
    7
 10
880.71448553925256
 20
834.15451119787701
 11
882.71448214178781
 21
834.15451119787701
  0
LINE
  8
_0-0_
  6
CONTINUOUS
 62
    7
 10
882.71448214178781
 20
852.15451135433921
 11
880.71448553925256
 21
852.15451135433921
  0
LINE
  8
_0-0_
  6
CONTINUOUS
 62
    7
 10
882.71448214178781
 20
840.65451133198746
 11
882.96448264842729
 21
840.65451133198746
  0
LINE
  8
_0-0_
  6
CONTINUOUS
 62
    7
 10
882.96448264842729
 20
845.65451122022876
 11
882.71448214178781
 21
845.65451122022876
  0
LINE
  8
_0-0_
  6
CONTINUOUS
 62
    7
 10
767.71448378091554
 20
852.15451135433921
 11
765.7144871783803
 21
852.15451135433921
  0
LINE
  8
_0-0_
  6
CONTINUOUS
 62
    7
 10
765.7144871783803
 20
834.15451119787701
 11
767.71448378091554
 21
834.15451119787701
  0
LINE
  8
_0-0_
  6
CONTINUOUS
 62
    7
 10
765.7144871783803
 20
845.65451122022876
 11
765.46448294645052
 21
845.65451122022876
  0
LINE
  8
_0-0_
  6
CONTINUOUS
 62
    7
 10
765.46448294645052
 20
840.65451133198746
 11
765.7144871783803
 21
840.65451133198746
  0
LINE
  8
_0-0_
  6
CONTINUOUS
 62
    7
 10
767.71448378091554
 20
834.15451119787701
 11
880.71448553925256
 21
834.15451119787701
  0
LINE
  8
_0-0_
  6
CONTINUOUS
 62
    7
 10
880.71448553925256
 20
852.15451135433921
 11
767.71448378091554
 21
852.15451135433921
  0
LINE
  8
_0-0_
  6
CONTINUOUS
 62
    7
 10
884.2144851816247
 20
879.97253365017184
 11
764.21448413854341
 21
879.97253365017184
  0
LINE
  8
_0-0_
  6
CONTINUOUS
 62
    7
 10
885.4644839895318
 20
851.7040306249977
 11
884.6644853485177
 21
851.7040306249977
  0
LINE
  8
_0-0_
  6
CONTINUOUS
 62
    7
 10
884.6644853485177
 20
850.80403029121169
 11
884.2144851816247
 21
850.80403029121169
  0
LINE
  8
_0-0_
  6
CONTINUOUS
 62
    7
 10
763.76448397165041
 20
851.7040306249977
 11
762.96448533063631
 21
851.7040306249977
  0
LINE
  8
_0-0_
  6
CONTINUOUS
 62
    7
 10
764.21448413854341
 20
850.80403029121169
 11
763.76448397165041
 21
850.80403029121169
  0
LINE
  8
_0-0_
  6
CONTINUOUS
 62
    7
 10
882.96448264842729
 20
837.15451122395405
 11
885.4644839895318
 21
837.15451122395405
  0
LINE
  8
_0-0_
  6
CONTINUOUS
 62
    7
 10
885.4644839895318
 20
845.93483186460742
 11
882.96448264842729
 21
845.93483186460742
  0
LINE
  8
_0-0_
  6
CONTINUOUS
 62
    7
 10
885.4644839895318
 20
849.13916266657122
 11
882.96448264842729
 21
849.13916266657122
  0
LINE
  8
_0-0_
  6
CONTINUOUS
 62
    7
 10
762.96448533063631
 20
837.15451122395405
 11
765.46448294645052
 21
837.15451122395405
  0
LINE
  8
_0-0_
  6
CONTINUOUS
 62
    7
 10
765.46448294645052
 20
845.93483186460742
 11
762.96448533063631
 21
845.93483186460742
  0
LINE
  8
_0-0_
  6
CONTINUOUS
 62
    7
 10
765.46448294645052
 20
849.13916266657122
 11
762.96448533063631
 21
849.13916266657122
  0
LINE
  8
_0-0_
  6
CONTINUOUS
 62
    7
 10
880.71448553925256
 20
843.15451081044682
 11
880.71448553925256
 21
852.15451135433921
  0
LINE
  8
_0-0_
  6
CONTINUOUS
 62
    7
 10
880.71448553925256
 20
834.15451119787701
 11
880.71448553925256
 21
843.15451081044682
  0
LINE
  8
_0-0_
  6
CONTINUOUS
 62
    7
 10
882.71448214178781
 20
843.15451081044682
 11
882.71448214178781
 21
852.15451135433921
  0
LINE
  8
_0-0_
  6
CONTINUOUS
 62
    7
 10
882.71448214178781
 20
834.15451119787701
 11
882.71448214178781
 21
843.15451081044682
  0
LINE
  8
_0-0_
  6
CONTINUOUS
 62
    7
 10
765.7144871783803
 20
852.15451135433921
 11
765.7144871783803
 21
834.15451119787701
  0
LINE
  8
_0-0_
  6
CONTINUOUS
 62
    7
 10
767.71448378091554
 20
852.15451135433921
 11
767.71448378091554
 21
834.15451119787701
  0
LINE
  8
_0-0_
  6
CONTINUOUS
 62
    7
 10
880.71448553925256
 20
852.15451135433921
 11
880.71448553925256
 21
834.15451119787701
  0
LINE
  8
_0-0_
  6
CONTINUOUS
 62
    7
 10
766.21448074107866
 20
857.69909373618373
 11
766.21448074107866
 21
858.34453567065009
  0
LINE
  8
_0-0_
  6
CONTINUOUS
 62
    7
 10
764.21448413854341
 20
859.18084844149359
 11
764.2162374162076
 21
859.17266817046902
  0
ARC
  8
_0-0_
  6
CONTINUOUS
 62
    7
 10
777.4894972991608
 20
862.01752624599089
 40
13.574706088541118
 50
192.09718421756926
 51
192.36557110732002
  0
LINE
  8
_0-0_
  6
CONTINUOUS
 62
    7
 10
764.22970897198729
 20
859.11052454168635
 11
764.23078373242629
 21
859.1056222067815
  0
ARC
  8
_0-0_
  6
CONTINUOUS
 62
    7
 10
770.48436791793426
 20
860.47662296762951
 40
6.4021057669708163
 50
192.36557110728975
 51
192.84481246616133
  0
ARC
  8
_0-0_
  6
CONTINUOUS
 62
    7
 10
768.41647083087423
 20
860.00510713605104
 40
4.2811329849435218
 50
192.84481246616002
 51
193.5615517843336
  0
ARC
  8
_0-0_
  6
CONTINUOUS
 62
    7
 10
767.36187834534394
 20
859.75071899230784
 40
3.1962926104228964
 50
193.56147597513041
 51
194.52182612683703
  0
ARC
  8
_0-0_
  6
CONTINUOUS
 62
    7
 10
766.73982974189028
 20
859.58958177084332
 40
2.5537121337198023
 50
194.52157246880844
 51
195.72387329671849
  0
LINE
  8
_0-0_
  6
CONTINUOUS
 62
    7
 10
764.28168029359188
 20
858.89752183721203
 11
764.28168797665796
 21
858.89749454748755
  0
ARC
  8
_0-0_
  6
CONTINUOUS
 62
    7
 10
766.33336015084581
 20
859.47511610328183
 40
2.1314327040876737
 50
195.72387329671295
 51
197.16587490188036
  0
LINE
  8
_0-0_
  6
CONTINUOUS
 62
    7
 10
764.29687357657644
 20
858.84604710478061
 11
764.29688823419826
 21
858.84599965362645
  0
ARC
  8
_0-0_
  6
CONTINUOUS
 62
    7
 10
766.050840791817
 20
859.38779413083012
 40
1.8357262404578643
 50
197.16587490186069
 51
198.84322887474818
  0
LINE
  8
_0-0_
  6
CONTINUOUS
 62
    7
 10
764.31349874677869
 20
858.79489156847444
 11
764.31352439966065
 21
858.79481639957953
  0
ARC
  8
_0-0_
  6
CONTINUOUS
 62
    7
 10
765.84722389928129
 20
859.3182218889059
 40
1.6205515917098547
 50
198.84322887478754
 51
200.74887596749946
  0
LINE
  8
_0-0_
  6
CONTINUOUS
 62
    7
 10
764.33177778339927
 20
858.74410471336466
 11
764.33181992346738
 21
858.74399347996973
  0
ARC
  8
_0-0_
  6
CONTINUOUS
 62
    7
 10
765.69728240753955
 20
859.26129030527147
 40
1.4601656758312771
 50
200.74887596746836
 51
202.87312754997311
  0
LINE
  8
_0-0_
  6
CONTINUOUS
 62
    7
 10
764.35193275900349
 20
858.69373579329931
 11
764.35199848761556
 21
858.69357998806242
  0
ARC
  8
_0-0_
  6
CONTINUOUS
 62
    7
 10
765.58798160084143
 20
859.2149967018488
 40
1.3414654843100271
 50
202.87312754998919
 51
205.19973480761692
  0
LINE
  8
_0-0_
  6
CONTINUOUS
 62
    7
 10
764.3741846970604
 20
858.64383409630909
 11
764.37600185583869
 21
858.63997239094306
  0
ARC
  8
_0-0_
  6
CONTINUOUS
 62
    7
 10
765.33995414422134
 20
859.09356845708419
 40
1.0653419195248583
 50
205.19973480765057
 51
207.72014889642202
  0
LINE
  8
_0-0_
  6
CONTINUOUS
 62
    7
 10
764.39688140757505
 20
858.59802106390032
 11
764.39763212479306
 21
858.59659237927599
  0
ARC
  8
_0-0_
  6
CONTINUOUS
 62
    7
 10
765.61002830419727
 20
859.23365858092006
 40
1.3695830902545694
 50
207.72014889640514
 51
209.54580187239921
  0
ARC
  8
_0-0_
  6
CONTINUOUS
 62
    7
 10
765.38642141061416
 20
859.10691181317054
 40
1.1125523800410719
 50
209.54580187241402
 51
211.79313374049823
  0
LINE
  8
_0-0_
  6
CONTINUOUS
 62
    7
 10
764.44080102161627
 20
858.52075920655136
 11
764.44222020603274
 21
858.51846968381483
  0
ARC
  8
_0-0_
  6
CONTINUOUS
 62
    7
 10
765.52507033223856
 20
859.18968556646519
 40
1.2740075184025295
 50
211.79313374049863
 51
213.99792699881436
  0
LINE
  8
_0-0_
  6
CONTINUOUS
 62
    7
 10
764.46884445675119
 20
858.47730781772725
 11
764.46900128049504
 21
858.47707529881927
  0
ARC
  8
_0-0_
  6
CONTINUOUS
 62
    7
 10
765.55540953446189
 20
859.20980973009137
 40
1.3104131566261377
 50
213.99792699877764
 51
216.16599843972668
  0
LINE
  8
_0-0_
  6
CONTINUOUS
 62
    7
 10
764.49749902598558
 20
858.4364999622012
 11
764.49766453432358
 21
858.43627354192665
  0
ARC
  8
_0-0_
  6
CONTINUOUS
 62
    7
 10
765.58373924924138
 20
859.2301707373648
 40
1.3452996109820776
 50
216.16599843970675
 51
218.30174147729215
  0
LINE
  8
_0-0_
  6
CONTINUOUS
 62
    7
 10
764.52800524633778
 20
858.3963501580904
 11
764.52817880450141
 21
858.39613040907079
  0
ARC
  8
_0-0_
  6
CONTINUOUS
 62
    7
 10
765.60997859433326
 20
859.25053779287816
 40
1.378514694439233
 50
218.30174147732055
 51
220.40930514684678
  0
LINE
  8
_0-0_
  6
CONTINUOUS
 62
    7
 10
764.56033196084036
 20
858.35692450538636
 11
764.56051298743694
 21
858.35671186983097
  0
ARC
  8
_0-0_
  6
CONTINUOUS
 62
    7
 10
765.63406979485092
 20
859.27068100703457
 40
1.4099162395353566
 50
220.4093051468414
 51
222.4926288758864
  0
LINE
  8
_0-0_
  6
CONTINUOUS
 62
    7
 10
764.59444797045751
 20
858.3182891419126
 11
764.59463598679656
 21
858.31808390508036
  0
ARC
  8
_0-0_
  6
CONTINUOUS
 62
    7
 10
765.656000764135
 20
859.29039437043036
 40
1.4394036374845598
 50
222.49262887588341
 51
224.55543462257179
  0
LINE
  8
_0-0_
  6
CONTINUOUS
 62
    7
 10
764.63032207276046
 20
858.28051019208908
 11
764.6305167103734
 21
858.2803125103585
  0
ARC
  8
_0-0_
  6
CONTINUOUS
 62
    7
 10
765.67581457034839
 20
859.30951374006258
 40
1.4669365314466347
 50
224.55543462260371
 51
226.60119592513604
  0
LINE
  8
_0-0_
  6
CONTINUOUS
 62
    7
 10
764.66792304774424
 20
858.24365377460958
 11
764.66812407552197
 21
858.24346368003842
  0
ARC
  8
_0-0_
  6
CONTINUOUS
 62
    7
 10
765.69354529802649
 20
859.32786155846281
 40
1.4924501473395413
 50
226.60119592514999
 51
228.63322852693494
  0
LINE
  8
_0-0_
  6
CONTINUOUS
 62
    7
 10
764.70721972597858
 20
858.20778597698711
 11
764.70742698018682
 21
858.20760347133398
  0
ARC
  8
_0-0_
  6
CONTINUOUS
 62
    7
 10
765.70947329375122
 20
859.34553159480515
 40
1.516237853608227
 50
228.63322852695359
 51
230.65425230625101
  0
LINE
  8
_0-0_
  6
CONTINUOUS
 62
    7
 10
764.74818070563038
 20
858.17297294435798
 11
764.74839442107157
 21
858.17279773515236
  0
ARC
  8
_0-0_
  6
CONTINUOUS
 62
    7
 10
765.7204838712405
 20
859.35852610535665
 40
1.5332676436411412
 50
230.65425230620647
 51
232.67348104567276
  0
LINE
  8
_0-0_
  6
CONTINUOUS
 62
    7
 10
764.7907770466943
 20
858.1392825335347
 11
764.79373162464833
 21
858.13702958641977
  0
ARC
  8
_0-0_
  6
CONTINUOUS
 62
    7
 10
765.65526990797139
 20
859.26687502380685
 40
1.4208444411741605
 50
232.6734810456997
 51
235.15197885564589
  0
LINE
  8
_0-0_
  6
CONTINUOUS
 62
    7
 10
764.84339712868893
 20
858.10082977756815
 11
764.84622574630396
 21
858.09886031913425
  0
ARC
  8
_0-0_
  6
CONTINUOUS
 62
    7
 10
765.80225966862588
 20
859.47195575824026
 40
1.6731383521765759
 50
235.15197885566266
 51
237.06084056486651
  0
ARC
  8
_0-0_
  6
CONTINUOUS
 62
    7
 10
765.8311096524053
 20
859.51648428247313
 40
1.7261959721234703
 50
237.06084056485923
 51
238.91104046473248
  0
LINE
  8
_0-0_
  6
CONTINUOUS
 62
    7
 10
764.93975673299542
 20
858.03822770554382
 11
764.93997190548907
 21
858.03809796174062
  0
ARC
  8
_0-0_
  6
CONTINUOUS
 62
    7
 10
765.86618816671603
 20
859.57417334782258
 40
1.7937123945292643
 50
238.91104046473765
 51
240.70765715129153
  0
LINE
  8
_0-0_
  6
CONTINUOUS
 62
    7
 10
764.98858585432913
 20
858.00981458603508
 11
764.98879302915407
 21
858.00969836134936
  0
ARC
  8
_0-0_
  6
CONTINUOUS
 62
    7
 10
765.89797059586772
 20
859.63034118832593
 40
1.8582483742615072
 50
240.7076571512668
 51
242.45653341719174
  0
LINE
  8
_0-0_
  6
CONTINUOUS
 62
    7
 10
765.03867678528275
 20
857.98270616577508
 11
765.03887378598426
 21
857.98260342367428
  0
ARC
  8
_0-0_
  6
CONTINUOUS
 62
    7
 10
765.92625111886309
 20
859.68408661121407
 40
1.91897982490371
 50
242.45653341716684
 51
244.16333451385145
  0
LINE
  8
_0-0_
  6
CONTINUOUS
 62
    7
 10
765.0899459821776
 20
857.95692787886173
 11
765.09013084118055
 21
857.95683836854005
  0
ARC
  8
_0-0_
  6
CONTINUOUS
 62
    7
 10
765.95090322668932
 20
859.73452748819591
 40
1.975122200218818
 50
244.16333451383758
 51
245.8335407471838
  0
LINE
  8
_0-0_
  6
CONTINUOUS
 62
    7
 10
765.14230990108388
 20
857.93250514105819
 11
765.14248085837312
 21
857.93242843006556
  0
ARC
  8
_0-0_
  6
CONTINUOUS
 62
    7
 10
765.96844804337479
 20
859.77316997250114
 40
2.0175607095569736
 50
245.83354074722513
 51
247.47926015245915
  0
LINE
  8
_0-0_
  6
CONTINUOUS
 62
    7
 10
765.19568631461254
 20
857.90946652846606
 11
765.20941004660426
 21
857.90377615165585
  0
ARC
  8
_0-0_
  6
CONTINUOUS
 62
    7
 10
765.81032109503383
 20
859.35301975266634
 40
1.5688853059400103
 50
247.47926015241393
 51
250.68007529636088
  0
LINE
  8
_0-0_
  6
CONTINUOUS
 62
    7
 10
765.29126703098359
 20
857.87248472039346
 11
765.31530665402045
 21
857.8640567779513
  0
ARC
  8
_0-0_
  6
CONTINUOUS
 62
    7
 10
765.88980586161711
 20
859.50274195887937
 40
1.73647299481525
 50
250.68007529635778
 51
253.64534182019725
  0
LINE
  8
_0-0_
  6
CONTINUOUS
 62
    7
 10
765.4008459721631
 20
857.83653168156513
 11
765.41105642254888
 21
857.8335353606567
  0
ARC
  8
_0-0_
  6
CONTINUOUS
 62
    7
 10
766.05681795538828
 20
860.03407271743811
 40
2.2933322079206047
 50
253.64534182019639
 51
255.35926316912759
  0
ARC
  8
_0-0_
  6
CONTINUOUS
 62
    7
 10
766.11985658751985
 20
860.27537828032803
 40
2.5427359846013942
 50
255.35926316915828
 51
256.90509637058028
  0
LINE
  8
_0-0_
  6
CONTINUOUS
 62
    7
 10
765.5437624409202
 20
857.79876328771411
 11
765.54389055588945
 21
857.79873348643923
  0
ARC
  8
_0-0_
  6
CONTINUOUS
 62
    7
 10
766.19037371018374
 20
860.57794914389024
 40
2.8534155216874515
 50
256.90509637056527
 51
258.28791826626895
  0
LINE
  8
_0-0_
  6
CONTINUOUS
 62
    7
 10
765.61114811986386
 20
857.78394165375607
 11
765.61128514302072
 21
857.78391324749055
  0
ARC
  8
_0-0_
  6
CONTINUOUS
 62
    7
 10
766.26935355020566
 20
860.95823442635162
 40
3.2418156911060443
 50
258.28791826624138
 51
259.51002424745201
  0
LINE
  8
_0-0_
  6
CONTINUOUS
 62
    7
 10
765.67913725132587
 20
857.77059992791271
 11
765.67927645328859
 21
857.77057415354398
  0
ARC
  8
_0-0_
  6
CONTINUOUS
 62
    7
 10
766.35991419512288
 20
861.44655590960258
 40
3.738463535529716
 50
259.51002424745195
 51
260.57412469231923
  0
LINE
  8
_0-0_
  6
CONTINUOUS
 62
    7
 10
765.74766044880084
 20
857.75856798166683
 11
765.7477958165282
 21
857.75854550887129
  0
ARC
  8
_0-0_
  6
CONTINUOUS
 62
    7
 10
766.46735195870826
 20
862.09288299847731
 40
4.3936593536086095
 50
260.5741246923306
 51
261.48312907065554
  0
LINE
  8
_0-0_
  6
CONTINUOUS
 62
    7
 10
765.81664826825545
 20
857.74767561300268
 11
765.81677456812577
 21
857.74765669933879
  0
ARC
  8
_0-0_
  6
CONTINUOUS
 62
    7
 10
766.60125917288462
 20
862.98621358535604
 40
5.2969702984953555
 50
261.48312907062888
 51
262.23988531893917
  0
LINE
  8
_0-0_
  6
CONTINUOUS
 62
    7
 10
765.88603125498003
 20
857.73775253771623
 11
765.8861440448843
 21
857.73773716740334
  0
ARC
  8
_0-0_
  6
CONTINUOUS
 62
    7
 10
766.78037669340642
 20
864.29976460763044
 40
6.6226774159682282
 50
262.23988531895623
 51
262.84712918373128
  0
LINE
  8
_0-0_
  6
CONTINUOUS
 62
    7
 10
765.95573998843929
 20
857.72862844553515
 11
765.9558355575017
 21
857.72861645221246
  0
ARC
  8
_0-0_
  6
CONTINUOUS
 62
    7
 10
767.04819863590433
 20
866.4331362527148
 40
8.7727944266576809
 50
262.8471291837094
 51
263.30680410063098
  0
LINE
  8
_0-0_
  6
CONTINUOUS
 62
    7
 10
766.02570494016152
 20
857.72013282711225
 11
766.02578047949203
 21
857.7201239623746
  0
ARC
  8
_0-0_
  6
CONTINUOUS
 62
    7
 10
767.51919200347595
 20
870.44597232558806
 40
12.813176598465695
 50
263.30680410066134
 51
263.62221070678856
  0
LINE
  8
_0-0_
  6
CONTINUOUS
 62
    7
 10
766.09585706957864
 20
857.71209576699766
 11
766.09590987132833
 21
857.71208986505781
  0
ARC
  8
_0-0_
  6
CONTINUOUS
 62
    7
 10
768.68852060524443
 20
880.90690105386341
 40
23.3392565541827
 50
263.62221070679141
 51
263.7956290830632
  0
LINE
  8
_0-0_
  6
CONTINUOUS
 62
    7
 10
766.16612587681811
 20
857.7043490102634
 11
766.21008584985145
 21
857.69957003577679
  0
LINE
  8
_0-0_
  6
CONTINUOUS
 62
    7
 10
766.21008584985145
 20
857.69957003577679
 11
766.21448074107866
 21
857.69909373618373
  0
LINE
  8
_0-0_
  6
CONTINUOUS
 62
    7
 10
764.21448413854341
 20
859.18084844149359
 11
764.21448413854341
 21
859.85098532534846
  0
LINE
  8
_0-0_
  6
CONTINUOUS
 62
    7
 10
766.21448074107866
 20
858.34453567065009
 11
882.21448485379915
 21
858.34453567065009
  0
LINE
  8
_0-0_
  6
CONTINUOUS
 62
    7
 10
882.21448485379915
 20
857.69909373618373
 11
882.21448485379915
 21
858.34453567065009
  0
LINE
  8
_0-0_
  6
CONTINUOUS
 62
    7
 10
766.21448074107866
 20
857.69909373618373
 11
882.21448485379915
 21
857.69909373618373
  0
LINE
  8
_0-0_
  6
CONTINUOUS
 62
    7
 10
884.2144851816247
 20
859.18084844149359
 11
884.2144851816247
 21
859.85098532534846
  0
LINE
  8
_0-0_
  6
CONTINUOUS
 62
    7
 10
882.21448485379915
 20
857.69909373618373
 11
882.26357624622096
 21
857.70488183507905
  0
ARC
  8
_0-0_
  6
CONTINUOUS
 62
    7
 10
879.5004734074173
 20
881.13996271639678
 40
23.597409883538216
 50
276.7243885398704
 51
276.8987268721379
  0
LINE
  8
_0-0_
  6
CONTINUOUS
 62
    7
 10
882.3348710915435
 20
857.71339781712209
 11
882.33492038352597
 21
857.71340378099615
  0
ARC
  8
_0-0_
  6
CONTINUOUS
 62
    7
 10
880.7367281655753
 20
870.92261359824704
 40
13.305541791361762
 50
276.89872687217166
 51
277.20748819457265
  0
LINE
  8
_0-0_
  6
CONTINUOUS
 62
    7
 10
882.40607996605195
 20
857.72220803902576
 11
882.40614999435809
 21
857.72221689495655
  0
ARC
  8
_0-0_
  6
CONTINUOUS
 62
    7
 10
881.26517880146866
 20
866.74445083824003
 40
9.0940926205058279
 50
277.20748819456702
 51
277.65834536844511
  0
LINE
  8
_0-0_
  6
CONTINUOUS
 62
    7
 10
882.47710937413274
 20
857.73147436665295
 11
882.47719790784981
 21
857.73148627134606
  0
ARC
  8
_0-0_
  6
CONTINUOUS
 62
    7
 10
881.5612434488902
 20
864.54332531052137
 40
6.8731451073377743
 50
277.65834536844886
 51
278.25339824539401
  0
LINE
  8
_0-0_
  6
CONTINUOUS
 62
    7
 10
882.5478924914795
 20
857.74136622998594
 11
882.54799668411431
 21
857.74138134350869
  0
ARC
  8
_0-0_
  6
CONTINUOUS
 62
    7
 10
881.75828067576276
 20
863.18568397005401
 40
5.5012800749693413
 50
278.25339824539861
 51
278.99464392812206
  0
LINE
  8
_0-0_
  6
CONTINUOUS
 62
    7
 10
882.61836254337754
 20
857.75205335652731
 11
882.61847881682309
 21
857.75207176128993
  0
ARC
  8
_0-0_
  6
CONTINUOUS
 62
    7
 10
881.90435656051523
 20
862.26359176860376
 40
4.5676890626821978
 50
278.99464392812956
 51
279.8844342355959
  0
LINE
  8
_0-0_
  6
CONTINUOUS
 62
    7
 10
882.68845275898661
 20
857.7637054894974
 11
882.68857679822247
 21
857.76372710308658
  0
ARC
  8
_0-0_
  6
CONTINUOUS
 62
    7
 10
882.02066289872471
 20
861.59684936261056
 40
3.890878465539712
 50
279.88443423561523
 51
280.92528600698944
  0
LINE
  8
_0-0_
  6
CONTINUOUS
 62
    7
 10
882.75809637304133
 20
857.7764924284279
 11
882.75822311669106
 21
857.77651689342201
  0
ARC
  8
_0-0_
  6
CONTINUOUS
 62
    7
 10
882.11796035253008
 20
861.09347005048528
 40
3.3781821521823616
 50
280.92528600700109
 51
282.11971571850887
  0
LINE
  8
_0-0_
  6
CONTINUOUS
 62
    7
 10
882.82722661942387
 20
857.79058403731892
 11
882.82735026506703
 21
857.79061058915374
  0
ARC
  8
_0-0_
  6
CONTINUOUS
 62
    7
 10
882.20222082347198
 20
860.70169121633649
 40
2.9774447495642238
 50
282.11971571847511
 51
283.47002437478812
  0
LINE
  8
_0-0_
  6
CONTINUOUS
 62
    7
 10
882.89577672150108
 20
857.80615025599479
 11
882.89589082536588
 21
857.80617758678011
  0
ARC
  8
_0-0_
  6
CONTINUOUS
 62
    7
 10
882.27668291240286
 20
860.39132159614724
 40
2.658267854946657
 50
283.47002437479597
 51
284.97738910004409
  0
LINE
  8
_0-0_
  6
CONTINUOUS
 62
    7
 10
882.96367990741987
 20
857.82336070908514
 11
882.96782995593912
 21
857.82447095608165
  0
ARC
  8
_0-0_
  6
CONTINUOUS
 62
    7
 10
882.42589799797747
 20
859.85018588873402
 40
2.0969528453045614
 50
284.9773891000566
 51
286.65347599866044
  0
ARC
  8
_0-0_
  6
CONTINUOUS
 62
    7
 10
882.27166660559806
 20
860.36578661521105
 40
2.6351270099937474
 50
286.65347599863145
 51
287.98728917004382
  0
LINE
  8
_0-0_
  6
CONTINUOUS
 62
    7
 10
883.08540963400787
 20
857.85945131391691
 11
883.09707281183273
 21
857.86323804972972
  0
ARC
  8
_0-0_
  6
CONTINUOUS
 62
    7
 10
882.60206635947225
 20
859.38786204354983
 40
1.6029690297727914
 50
287.98728917006969
 51
291.05592583641715
  0
LINE
  8
_0-0_
  6
CONTINUOUS
 62
    7
 10
883.17797952912611
 20
857.89192296343003
 11
883.19345229556245
 21
857.89787973672378
  0
ARC
  8
_0-0_
  6
CONTINUOUS
 62
    7
 10
882.42275242806454
 20
859.89977882773849
 40
2.1451289603114527
 50
291.05592583641447
 51
292.62777183665173
  0
LINE
  8
_0-0_
  6
CONTINUOUS
 62
    7
 10
883.24807527920973
 20
857.91977366417336
 11
883.24824290594427
 21
857.91984353579642
  0
ARC
  8
_0-0_
  6
CONTINUOUS
 62
    7
 10
882.44257476125836
 20
859.8526957334368
 40
2.0940436426408442
 50
292.62777183663934
 51
294.22802286527735
  0
LINE
  8
_0-0_
  6
CONTINUOUS
 62
    7
 10
883.3019055553109
 20
857.94309646561192
 11
883.30209352813313
 21
857.94318105447678
  0
ARC
  8
_0-0_
  6
CONTINUOUS
 62
    7
 10
882.46835662795013
 20
859.79590573880671
 40
2.0316756568537619
 50
294.22802286530407
 51
295.86576762453319
  0
LINE
  8
_0-0_
  6
CONTINUOUS
 62
    7
 10
883.35470409225763
 20
857.96776620716048
 11
883.3549104928037
 21
857.96786627753113
  0
ARC
  8
_0-0_
  6
CONTINUOUS
 62
    7
 10
882.49844217905434
 20
859.7343784468751
 40
1.9631870050754774
 50
295.86576762455201
 51
297.54725326063078
  0
LINE
  8
_0-0_
  6
CONTINUOUS
 62
    7
 10
883.40637689752475
 20
857.99375851021659
 11
883.40659955645003
 21
857.99387465261179
  0
ARC
  8
_0-0_
  6
CONTINUOUS
 62
    7
 10
882.53270088859836
 20
859.66924339106799
 40
1.8895923611903236
 50
297.54725326059622
 51
299.27899250019391
  0
LINE
  8
_0-0_
  6
CONTINUOUS
 62
    7
 10
883.45682998272002
 20
858.02104901270513
 11
883.45706652351441
 21
858.02118163919204
  0
ARC
  8
_0-0_
  6
CONTINUOUS
 62
    7
 10
882.57099343423965
 20
859.60150271538305
 40
1.8117781937616746
 50
299.27899250018356
 51
301.06794852236357
  0
LINE
  8
_0-0_
  6
CONTINUOUS
 62
    7
 10
883.50596926937214
 20
858.04961341162812
 11
883.50918698141425
 21
858.05155200544186
  0
ARC
  8
_0-0_
  6
CONTINUOUS
 62
    7
 10
882.72738237639248
 20
859.34920501268437
 40
1.5149659295307061
 50
301.06794852238357
 51
302.92326287639611
  0
ARC
  8
_0-0_
  6
CONTINUOUS
 62
    7
 10
882.48363498567721
 20
859.7256458934603
 40
1.9634305626958184
 50
302.92326287638684
 51
304.35485789728256
  0
LINE
  8
_0-0_
  6
CONTINUOUS
 62
    7
 10
883.59163171826708
 20
858.10471936363297
 11
883.59282937434398
 21
858.10553803060861
  0
ARC
  8
_0-0_
  6
CONTINUOUS
 62
    7
 10
882.84384784737722
 20
859.2012488677467
 40
1.3272360627858111
 50
304.35485789725396
 51
306.59774753429843
  0
LINE
  8
_0-0_
  6
CONTINUOUS
 62
    7
 10
883.63513711329676
 20
858.13568945410543
 11
883.6396741544836
 21
858.13905868152165
  0
ARC
  8
_0-0_
  6
CONTINUOUS
 62
    7
 10
882.74998170708636
 20
859.33712897439682
 40
1.4922885369879617
 50
306.59774753431077
 51
308.65637674621848
  0
LINE
  8
_0-0_
  6
CONTINUOUS
 62
    7
 10
883.68213717398544
 20
858.17179157125747
 11
883.68270226311381
 21
858.1722435870588
  0
ARC
  8
_0-0_
  6
CONTINUOUS
 62
    7
 10
882.74891927666727
 20
859.33961563942762
 40
1.4948940345150359
 50
308.65637674623554
 51
310.65596576899782
  0
LINE
  8
_0-0_
  6
CONTINUOUS
 62
    7
 10
883.72286599022118
 20
858.20553628877087
 11
883.72306992906874
 21
858.2057114313393
  0
ARC
  8
_0-0_
  6
CONTINUOUS
 62
    7
 10
882.76307077870956
 20
859.32355001318285
 40
1.4734861600125042
 50
310.65596576900242
 51
312.66370060522382
  0
LINE
  8
_0-0_
  6
CONTINUOUS
 62
    7
 10
883.7616434098577
 20
858.24003067137573
 11
883.76183049213807
 21
858.24020308661341
  0
ARC
  8
_0-0_
  6
CONTINUOUS
 62
    7
 10
882.7766965053687
 20
859.30914058363749
 40
1.4536561988420924
 50
312.66370060521899
 51
314.67876889921001
  0
LINE
  8
_0-0_
  6
CONTINUOUS
 62
    7
 10
883.79880762867765
 20
858.27550370540598
 11
883.79894960613501
 21
858.27564409971797
  0
ARC
  8
_0-0_
  6
CONTINUOUS
 62
    7
 10
882.78841567121424
 20
859.29757324031664
 40
1.4371910109763126
 50
314.67876889918824
 51
316.70100269183382
  0
ARC
  8
_0-0_
  6
CONTINUOUS
 62
    7
 10
882.79408915680142
 20
859.29222700541573
 40
1.4293954567097353
 50
316.70100269185002
 51
318.73426291779242
  0
LINE
  8
_0-0_
  6
CONTINUOUS
 62
    7
 10
883.86850665988936
 20
858.34946595365307
 11
883.86864334561585
 21
858.3496217275225
  0
ARC
  8
_0-0_
  6
CONTINUOUS
 62
    7
 10
882.83296032014709
 20
859.25839472831422
 40
1.3778634533987966
 50
318.73426291777372
 51
320.86077955151302
  0
LINE
  8
_0-0_
  6
CONTINUOUS
 62
    7
 10
883.90165120921984
 20
858.38867783194792
 11
883.90191427865466
 21
858.3890010864568
  0
ARC
  8
_0-0_
  6
CONTINUOUS
 62
    7
 10
882.86194836894367
 20
859.23534115781808
 40
1.3408283297099077
 50
320.86077955150847
 51
323.03706730446947
  0
LINE
  8
_0-0_
  6
CONTINUOUS
 62
    7
 10
883.93330330275251
 20
858.42910346609415
 11
883.93346686487405
 21
858.42932081277445
  0
ARC
  8
_0-0_
  6
CONTINUOUS
 62
    7
 10
882.89972253772589
 20
859.20725500979154
 40
1.2937576855035666
 50
323.0370673044614
 51
325.26843075064397
  0
ARC
  8
_0-0_
  6
CONTINUOUS
 62
    7
 10
882.92548347089564
 20
859.18939628654027
 40
1.2624118775869952
 50
325.26843075068166
 51
327.5551846351118
  0
LINE
  8
_0-0_
  6
CONTINUOUS
 62
    7
 10
883.99084365632143
 20
858.51212867031882
 11
883.99316540848065
 21
858.51578084894322
  0
ARC
  8
_0-0_
  6
CONTINUOUS
 62
    7
 10
883.12697334599773
 20
859.06643389696706
 40
1.0264051190473136
 50
327.5551846350977
 51
330.85036818542261
  0
LINE
  8
_0-0_
  6
CONTINUOUS
 62
    7
 10
884.02338488569239
 20
858.56648007919125
 11
884.02597157044181
 21
858.57111797568564
  0
ARC
  8
_0-0_
  6
CONTINUOUS
 62
    7
 10
883.06046114920844
 20
859.10961017466229
 40
1.1055244103450979
 50
330.85036818540971
 51
333.72965726223146
  0
LINE
  8
_0-0_
  6
CONTINUOUS
 62
    7
 10
884.05180219097076
 20
858.62029722696275
 11
884.05222805193
 21
858.62116001518234
  0
ARC
  8
_0-0_
  6
CONTINUOUS
 62
    7
 10
882.97759525398635
 20
859.15158468227946
 40
1.198409770438035
 50
333.72965726223225
 51
336.29390989591712
  0
LINE
  8
_0-0_
  6
CONTINUOUS
 62
    7
 10
884.07488304523406
 20
858.66976990348985
 11
884.07496296451916
 21
858.66995191213641
  0
ARC
  8
_0-0_
  6
CONTINUOUS
 62
    7
 10
882.8920045067407
 20
859.1893843456304
 40
1.2919755283267089
 50
336.29390989594992
 51
338.65488961793977
  0
LINE
  8
_0-0_
  6
CONTINUOUS
 62
    7
 10
884.09535689900349
 20
858.71912507051661
 11
884.0954076401606
 21
858.71925491270395
  0
ARC
  8
_0-0_
  6
CONTINUOUS
 62
    7
 10
882.77484092710779
 20
859.23532048851837
 40
1.4178223168520581
 50
338.65488961789845
 51
340.79509591191976
  0
LINE
  8
_0-0_
  6
CONTINUOUS
 62
    7
 10
884.11375890584361
 20
858.76893141448045
 11
884.11595574248327
 21
858.7752381318478
  0
ARC
  8
_0-0_
  6
CONTINUOUS
 62
    7
 10
882.98596732825445
 20
859.16885018169205
 40
1.1965802363710194
 50
340.79509591199587
 51
342.6915770119607
  0
LINE
  8
_0-0_
  6
CONTINUOUS
 62
    7
 10
884.12836290846292
 20
858.8128493384429
 11
884.12837692277139
 21
858.81289430992092
  0
ARC
  8
_0-0_
  6
CONTINUOUS
 62
    7
 10
881.64461533664451
 20
859.58690047241748
 40
2.6015682109646874
 50
342.69157701197821
 51
343.56184352835589
  0
ARC
  8
_0-0_
  6
CONTINUOUS
 62
    7
 10
882.73090920791844
 20
859.26640055703547
 40
1.4689806556176008
 50
343.56184352829314
 51
345.10302428427315
  0
LINE
  8
_0-0_
  6
CONTINUOUS
 62
    7
 10
884.15051691014503
 20
858.88875238961293
 11
884.15389816399716
 21
858.90146277569625
  0
ARC
  8
_0-0_
  6
CONTINUOUS
 62
    7
 10
882.44299745052365
 20
859.35660155669348
 40
1.7704046320916658
 50
345.10302428426212
 51
346.37962529780168
  0
ARC
  8
_0-0_
  6
CONTINUOUS
 62
    7
 10
880.20959279171461
 20
859.89775977548561
 40
4.0684360913533038
 50
346.37962529782794
 51
346.93507022422733
  0
ARC
  8
_0-0_
  6
CONTINUOUS
 62
    7
 10
881.75382207554355
 20
859.53939841728481
 40
2.4831705161076671
 50
346.93516461551837
 51
347.84504109600834
  0
LINE
  8
_0-0_
  6
CONTINUOUS
 62
    7
 10
884.18132417461925
 20
859.0165510484959
 11
884.18270793068734
 21
859.02297562086733
  0
ARC
  8
_0-0_
  6
CONTINUOUS
 62
    7
 10
879.68131889507345
 20
859.99250698154538
 40
4.604616630001158
 50
347.84504109601215
 51
348.49929821782473
  0
ARC
  8
_0-0_
  6
CONTINUOUS
 62
    7
 10
876.74015187081807
 20
860.5909353805107
 40
7.6060462915536879
 50
348.49927098666728
 51
348.89539746707948
  0
ARC
  8
_0-0_
  6
CONTINUOUS
 62
    7
 10
862.39823866693803
 20
863.40591407936586
 40
22.221605788972809
 50
348.89537025410903
 51
349.0309645715177
  0
LINE
  8
_0-0_
  6
CONTINUOUS
 62
    7
 10
884.21385926710195
 20
859.17762108216084
 11
884.2144851816247
 21
859.18084844149359
  0
LINE
  8
_0-0_
  6
CONTINUOUS
 62
    7
 10
764.21448413854341
 20
879.97253365017184
 11
764.21448413854341
 21
859.85098532534846
  0
LINE
  8
_0-0_
  6
CONTINUOUS
 62
    7
 10
884.2144851816247
 20
859.85098532534846
 11
884.2144851816247
 21
879.97253365017184
  0
LINE
  8
_0-0_
  6
CONTINUOUS
 62
    7
 10
884.2144851816247
 20
859.10583413339862
 11
884.2144851816247
 21
851.24393864668616
  0
LINE
  8
_0-0_
  6
CONTINUOUS
 62
    7
 10
764.21448413854341
 20
851.2629823306919
 11
764.21448413854341
 21
859.10912729002246
  0
LINE
  8
_0-0_
  6
CONTINUOUS
 62
    7
 10
884.2144851816247
 20
849.13916266657122
 11
884.2144851816247
 21
851.24393864668616
  0
LINE
  8
_0-0_
  6
CONTINUOUS
 62
    7
 10
764.21448413854341
 20
851.24393864668616
 11
764.21448413854341
 21
849.13916266657122
  0
LINE
  8
_0-0_
  6
CONTINUOUS
 62
    7
 10
884.6644853485177
 20
851.7040306249977
 11
884.6644853485177
 21
849.13916266657122
  0
LINE
  8
_0-0_
  6
CONTINUOUS
 62
    7
 10
763.76448397165041
 20
849.13916266657122
 11
763.76448397165041
 21
851.7040306249977
  0
LINE
  8
_0-0_
  6
CONTINUOUS
 62
    7
 10
885.4644839895318
 20
845.76537399686583
 11
882.96448264842729
 21
845.76537399686583
  0
LINE
  8
_0-0_
  6
CONTINUOUS
 62
    7
 10
882.96448264842729
 20
837.15451122395405
 11
882.96448264842729
 21
845.76537399686583
  0
LINE
  8
_0-0_
  6
CONTINUOUS
 62
    7
 10
882.96448264842729
 20
845.76537399686583
 11
882.96448264842729
 21
845.93483186460742
  0
LINE
  8
_0-0_
  6
CONTINUOUS
 62
    7
 10
885.4644839895318
 20
847.40098319150218
 11
882.96448264842729
 21
847.40098319150218
  0
LINE
  8
_0-0_
  6
CONTINUOUS
 62
    7
 10
885.4644839895318
 20
848.76151695050009
 11
882.96448264842729
 21
848.76151695050009
  0
LINE
  8
_0-0_
  6
CONTINUOUS
 62
    7
 10
882.96448264842729
 20
847.40098319150218
 11
882.96448264842729
 21
848.76151695050009
  0
LINE
  8
_0-0_
  6
CONTINUOUS
 62
    7
 10
882.96448264842729
 20
848.76151695050009
 11
882.96448264842729
 21
849.13916266657122
  0
LINE
  8
_0-0_
  6
CONTINUOUS
 62
    7
 10
885.4644839895318
 20
845.98198286391505
 11
882.96448264842729
 21
845.98198286391505
  0
LINE
  8
_0-0_
  6
CONTINUOUS
 62
    7
 10
882.96448264842729
 20
847.40098319150218
 11
882.96448264842729
 21
845.98198286391505
  0
LINE
  8
_0-0_
  6
CONTINUOUS
 62
    7
 10
882.96448264842729
 20
845.93483186460742
 11
882.96448264842729
 21
845.98198286391505
  0
LINE
  8
_0-0_
  6
CONTINUOUS
 62
    7
 10
765.46448294645052
 20
845.76537399686583
 11
762.96448533063631
 21
845.76537399686583
  0
LINE
  8
_0-0_
  6
CONTINUOUS
 62
    7
 10
765.46448294645052
 20
845.76537399686583
 11
765.46448294645052
 21
837.15451122395405
  0
LINE
  8
_0-0_
  6
CONTINUOUS
 62
    7
 10
765.46448294645052
 20
845.93483186460742
 11
765.46448294645052
 21
845.76537399686583
  0
LINE
  8
_0-0_
  6
CONTINUOUS
 62
    7
 10
765.46448294645052
 20
847.40098319150218
 11
762.96448533063631
 21
847.40098319150218
  0
LINE
  8
_0-0_
  6
CONTINUOUS
 62
    7
 10
765.46448294645052
 20
848.76151695050009
 11
762.96448533063631
 21
848.76151695050009
  0
LINE
  8
_0-0_
  6
CONTINUOUS
 62
    7
 10
765.46448294645052
 20
848.76151695050009
 11
765.46448294645052
 21
847.40098319150218
  0
LINE
  8
_0-0_
  6
CONTINUOUS
 62
    7
 10
765.46448294645052
 20
849.13916266657122
 11
765.46448294645052
 21
848.76151695050009
  0
LINE
  8
_0-0_
  6
CONTINUOUS
 62
    7
 10
765.46448294645052
 20
846.0203719804407
 11
762.96448533063631
 21
846.0203719804407
  0
LINE
  8
_0-0_
  6
CONTINUOUS
 62
    7
 10
765.46448294645052
 20
846.0203719804407
 11
765.46448294645052
 21
847.40098319150218
  0
LINE
  8
_0-0_
  6
CONTINUOUS
 62
    7
 10
765.46448294645052
 20
846.0203719804407
 11
765.46448294645052
 21
845.93483186460742
  0
LINE
  8
_0-0_
  6
CONTINUOUS
 62
    7
 10
895.46448562865953
 20
830.80403015616992
 11
895.46448562865953
 21
852.80403061903723
  0
LINE
  8
_0-0_
  6
CONTINUOUS
 62
    7
 10
885.4644839895318
 20
830.80403015616992
 11
895.46448562865953
 21
830.80403015616992
  0
LINE
  8
_0-0_
  6
CONTINUOUS
 62
    7
 10
885.4644839895318
 20
852.80403061903723
 11
885.4644839895318
 21
830.80403015616992
  0
LINE
  8
_0-0_
  6
CONTINUOUS
 62
    7
 10
895.46448562865953
 20
852.80403061903723
 11
885.4644839895318
 21
852.80403061903723
  0
LINE
  8
_0-0_
  6
CONTINUOUS
 62
    7
 10
752.96448741679887
 20
830.80403015616992
 11
762.96448533063631
 21
830.80403015616992
  0
LINE
  8
_0-0_
  6
CONTINUOUS
 62
    7
 10
762.96448533063631
 20
852.80403061903723
 11
752.96448741679887
 21
852.80403061903723
  0
LINE
  8
_0-0_
  6
CONTINUOUS
 62
    7
 10
762.96448533063631
 20
830.80403015616992
 11
762.96448533063631
 21
852.80403061903723
  0
LINE
  8
_0-0_
  6
CONTINUOUS
 62
    7
 10
752.96448741679887
 20
852.80403061903723
 11
752.96448741679887
 21
830.80403015616992
  0
ARC
  8
_0-0_
  6
CONTINUOUS
 62
    7
 10
904.71448381124128
 20
831.80403015407671
 40
2
 50
270.0000000000008
 51
0.0000000000000127
  0
LINE
  8
_0-0_
  6
CONTINUOUS
 62
    7
 10
743.71448729758959
 20
829.80403016688012
 11
904.71448574786882
 21
829.80403016688012
  0
ARC
  8
_0-0_
  6
CONTINUOUS
 62
    7
 10
743.71448381124128
 20
831.80403015407671
 40
2
 50
180
 51
270
  0
LINE
  8
_0-0_
  6
CONTINUOUS
 62
    7
 10
741.71448324447374
 20
857.80402957595595
 11
741.71448324447374
 21
831.80403020366737
  0
ARC
  8
_0-0_
  6
CONTINUOUS
 62
    7
 10
743.71448381124128
 20
857.80403015407671
 40
2
 50
90
 51
180
  0
LINE
  8
_0-0_
  6
CONTINUOUS
 62
    7
 10
904.71448574786882
 20
859.8040299037815
 11
884.2144851816247
 21
859.8040299037815
  0
LINE
  8
_0-0_
  6
CONTINUOUS
 62
    7
 10
764.21448413854341
 20
859.8040299037815
 11
743.71448729758959
 21
859.8040299037815
  0
ARC
  8
_0-0_
  6
CONTINUOUS
 62
    7
 10
904.71448381124128
 20
857.80403015407671
 40
2
 50
0
 51
90
  0
LINE
  8
_0-0_
  6
CONTINUOUS
 62
    7
 10
906.71448235040407
 20
831.80403020366737
 11
906.71448235040407
 21
857.80402957595595
  0
LINE
  8
_0-0_
  6
CONTINUOUS
 62
    7
 10
884.21448381124026
 20
675.05217375639972
 11
884.41448381124133
 21
675.05217375639972
  0
LINE
  8
_0-0_
  6
CONTINUOUS
 62
    7
 10
884.41448381124133
 20
675.05217375639972
 11
884.91448381124133
 21
675.55217375639972
  0
LINE
  8
_0-0_
  6
CONTINUOUS
 62
    7
 10
764.01448381124135
 20
675.05217375639972
 11
764.21448381124026
 21
675.05217375639972
  0
LINE
  8
_0-0_
  6
CONTINUOUS
 62
    7
 10
763.51448381124135
 20
675.55217375639972
 11
764.01448381124135
 21
675.05217375639972
  0
LINE
  8
_0-0_
  6
CONTINUOUS
 62
    7
 10
884.21448381124048
 20
748.67717375639972
 11
764.21448381124048
 21
748.67717375639972
  0
LINE
  8
_0-0_
  6
CONTINUOUS
 62
    7
 10
885.46448381124128
 20
748.57717375639982
 11
884.66448381124133
 21
748.57717375639982
  0
LINE
  8
_0-0_
  6
CONTINUOUS
 62
    7
 10
884.66448381124133
 20
738.77717375639975
 11
885.46448381124128
 21
738.77717375639975
  0
LINE
  8
_0-0_
  6
CONTINUOUS
 62
    7
 10
884.66448381124133
 20
747.67717375639972
 11
884.21448381124048
 21
747.67717375639972
  0
LINE
  8
_0-0_
  6
CONTINUOUS
 62
    7
 10
884.21448381124048
 20
739.67717375639972
 11
884.66448381124133
 21
739.67717375639972
  0
LINE
  8
_0-0_
  6
CONTINUOUS
 62
    7
 10
762.96448381124128
 20
738.77717375639975
 11
763.76448381124123
 21
738.77717375639975
  0
LINE
  8
_0-0_
  6
CONTINUOUS
 62
    7
 10
763.76448381124123
 20
748.57717375639982
 11
762.96448381124128
 21
748.57717375639982
  0
LINE
  8
_0-0_
  6
CONTINUOUS
 62
    7
 10
763.76448381124123
 20
739.67717375639972
 11
764.21448381124048
 21
739.67717375639972
  0
LINE
  8
_0-0_
  6
CONTINUOUS
 62
    7
 10
764.21448381124048
 20
747.67717375639972
 11
763.76448381124123
 21
747.67717375639972
  0
LINE
  8
_0-0_
  6
CONTINUOUS
 62
    7
 10
885.46448381124128
 20
683.55217375639972
 11
884.21448381124026
 21
683.55217375639972
  0
LINE
  8
_0-0_
  6
CONTINUOUS
 62
    7
 10
884.21448381124026
 20
671.55217375639972
 11
885.46448381124128
 21
671.55217375639972
  0
LINE
  8
_0-0_
  6
CONTINUOUS
 62
    7
 10
884.21448381124026
 20
677.67018210522292
 11
885.46448381124128
 21
677.67018210522292
  0
LINE
  8
_0-0_
  6
CONTINUOUS
 62
    7
 10
885.46448381124128
 20
674.94891825562399
 11
884.21448381255095
 21
674.94891825562399
  0
LINE
  8
_0-0_
  6
CONTINUOUS
 62
    7
 10
762.96448381124128
 20
671.55217375639972
 11
764.21448381124026
 21
671.55217375639972
  0
LINE
  8
_0-0_
  6
CONTINUOUS
 62
    7
 10
764.21448381124026
 20
683.55217375639972
 11
762.96448381124128
 21
683.55217375639972
  0
LINE
  8
_0-0_
  6
CONTINUOUS
 62
    7
 10
762.96448381124117
 20
677.67018210522315
 11
764.21448381124026
 21
677.67018210522315
  0
LINE
  8
_0-0_
  6
CONTINUOUS
 62
    7
 10
764.21448381010214
 20
674.88768101205437
 11
762.96448381124128
 21
674.88768101205437
  0
LINE
  8
_0-0_
  6
CONTINUOUS
 62
    7
 10
884.41448381124133
 20
675.05217375639972
 11
884.41448381124133
 21
677.67018210522292
  0
LINE
  8
_0-0_
  6
CONTINUOUS
 62
    7
 10
884.91448381124133
 20
677.67018210522292
 11
884.91448381124133
 21
675.55217375639972
  0
LINE
  8
_0-0_
  6
CONTINUOUS
 62
    7
 10
764.01448381124135
 20
677.67018210522315
 11
764.01448381124135
 21
675.05217375639972
  0
LINE
  8
_0-0_
  6
CONTINUOUS
 62
    7
 10
763.51448381124135
 20
675.55217375639972
 11
763.51448381124135
 21
677.67018210522315
  0
LINE
  8
_0-0_
  6
CONTINUOUS
 62
    7
 10
766.21448381124014
 20
648.49052380847036
 11
882.21448381124003
 21
648.49052380847036
  0
LINE
  8
_0-0_
  6
CONTINUOUS
 62
    7
 10
764.21448381124003
 20
649.8064588013433
 11
764.21621513784055
 21
649.79909550138041
  0
ARC
  8
_0-0_
  6
CONTINUOUS
 62
    7
 10
775.2690887621651
 20
652.39794849055818
 40
11.354296641124293
 50
193.23156450174147
 51
193.52168477317838
  0
LINE
  8
_0-0_
  6
CONTINUOUS
 62
    7
 10
764.22951620916956
 20
649.74316223517087
 11
764.23057708431031
 21
649.7387507281943
  0
ARC
  8
_0-0_
  6
CONTINUOUS
 62
    7
 10
769.43723314046576
 20
650.99084258846278
 40
5.3550911582950942
 50
193.52168477321391
 51
194.03972759419855
  0
ARC
  8
_0-0_
  6
CONTINUOUS
 62
    7
 10
767.71629836005593
 20
650.56049770195716
 40
3.5811652185315994
 50
194.03972759418551
 51
194.81447802171951
  0
ARC
  8
_0-0_
  6
CONTINUOUS
 62
    7
 10
766.83947156236184
 20
650.32858808667106
 40
2.6741882051591124
 50
194.81437580203487
 51
195.85234671470826
  0
ARC
  8
_0-0_
  6
CONTINUOUS
 62
    7
 10
766.32310298660013
 20
650.18194796483715
 40
2.1374016263646256
 50
195.8520148478076
 51
197.15105672804668
  0
LINE
  8
_0-0_
  6
CONTINUOUS
 62
    7
 10
764.28075029892398
 20
649.55164548861785
 11
764.2807593291509
 21
649.55161622820901
  0
ARC
  8
_0-0_
  6
CONTINUOUS
 62
    7
 10
765.98658844513739
 20
650.0780621855115
 40
1.7852166027984968
 50
197.15105672804509
 51
198.70830813502209
  0
LINE
  8
_0-0_
  6
CONTINUOUS
 62
    7
 10
764.29569594393524
 20
649.50545335892423
 11
764.29571302444003
 21
649.50540292083065
  0
ARC
  8
_0-0_
  6
CONTINUOUS
 62
    7
 10
765.75372740126363
 20
649.99914921213235
 40
1.5393476940569784
 50
198.70830813498259
 51
200.51821289222298
  0
LINE
  8
_0-0_
  6
CONTINUOUS
 62
    7
 10
764.31203466299314
 20
649.45959998211106
 11
764.31206437590276
 21
649.4595205882697
  0
ARC
  8
_0-0_
  6
CONTINUOUS
 62
    7
 10
765.58697042191147
 20
649.93665039354255
 40
1.3612634856005486
 50
200.5182128922448
 51
202.5719807184212
  0
LINE
  8
_0-0_
  6
CONTINUOUS
 62
    7
 10
764.3299823898866
 20
649.41413784386032
 11
764.33003095629329
 21
649.41402100955258
  0
ARC
  8
_0-0_
  6
CONTINUOUS
 62
    7
 10
765.46567678357019
 20
649.88609328202381
 40
1.22985514409123
 50
202.57198071844121
 51
204.85692046673338
  0
LINE
  8
_0-0_
  6
CONTINUOUS
 62
    7
 10
764.34975501890494
 20
649.36911911381628
 11
764.34983042170882
 21
649.36895635204746
  0
ARC
  8
_0-0_
  6
CONTINUOUS
 62
    7
 10
765.37799855704611
 20
649.84527681050076
 40
1.1331420447870157
 50
204.85692046673316
 51
207.3549517667978
  0
LINE
  8
_0-0_
  6
CONTINUOUS
 62
    7
 10
764.37156792520443
 20
649.32459622035481
 11
764.37168059306225
 21
649.32437844311175
  0
ARC
  8
_0-0_
  6
CONTINUOUS
 62
    7
 10
765.31163479167435
 20
649.81066720595356
 40
1.0582961099591732
 50
207.35495176684216
 51
210.05612445681967
  0
LINE
  8
_0-0_
  6
CONTINUOUS
 62
    7
 10
764.39564224580079
 20
649.28062163031052
 11
764.39875708690056
 21
649.27523875125257
  0
ARC
  8
_0-0_
  6
CONTINUOUS
 62
    7
 10
765.14084311130625
 20
649.70465208627809
 40
0.8573724277792874
 50
210.05612445677178
 51
213.85859034544839
  0
LINE
  8
_0-0_
  6
CONTINUOUS
 62
    7
 10
764.42886804086038
 20
649.22697125247828
 11
764.43216287238181
 21
649.22206036274054
  0
ARC
  8
_0-0_
  6
CONTINUOUS
 62
    7
 10
765.34456280272059
 20
649.8342109528021
 40
1.0987274356248873
 50
213.85859034541389
 51
216.20976042403032
  0
ARC
  8
_0-0_
  6
CONTINUOUS
 62
    7
 10
765.36468484975956
 20
649.84894332959539
 40
1.1236661545778783
 50
216.20976042410246
 51
218.50876264274584
  0
LINE
  8
_0-0_
  6
CONTINUOUS
 62
    7
 10
764.48540154109048
 20
649.14931021857228
 11
764.48560410172274
 21
649.14905564488197
  0
ARC
  8
_0-0_
  6
CONTINUOUS
 62
    7
 10
765.39812365954776
 20
649.87513436241977
 40
1.1661398918973864
 50
218.50876264275777
 51
220.75600720082429
  0
LINE
  8
_0-0_
  6
CONTINUOUS
 62
    7
 10
764.51477672471526
 20
649.1138325561717
 11
764.51499448323841
 21
649.1135798885407
  0
ARC
  8
_0-0_
  6
CONTINUOUS
 62
    7
 10
765.43095258973142
 20
649.90298723623528
 40
1.2091911401613342
 50
220.75600720080647
 51
222.95486045159717
  0
LINE
  8
_0-0_
  6
CONTINUOUS
 62
    7
 10
764.54595674792927
 20
649.07901783544571
 11
764.54618908120358
 21
649.07876829464783
  0
ARC
  8
_0-0_
  6
CONTINUOUS
 62
    7
 10
765.46298765647589
 20
649.93234741562196
 40
1.2526439810992613
 50
222.95486045157298
 51
225.10863515506142
  0
LINE
  8
_0-0_
  6
CONTINUOUS
 62
    7
 10
764.57891561837857
 20
649.04491653108005
 11
764.57916191803167
 21
649.04467116364913
  0
ARC
  8
_0-0_
  6
CONTINUOUS
 62
    7
 10
765.49407401140149
 20
649.96305927378944
 40
1.2963413360073417
 50
225.10863515502106
 51
227.22054786366314
  0
LINE
  8
_0-0_
  6
CONTINUOUS
 62
    7
 10
764.61362733398084
 20
649.01157910707013
 11
764.61388702308795
 21
649.01133880525458
  0
ARC
  8
_0-0_
  6
CONTINUOUS
 62
    7
 10
765.52407439451406
 20
649.99495911312647
 40
1.3401305761609883
 50
227.22054786362915
 51
229.29371191475738
  0
LINE
  8
_0-0_
  6
CONTINUOUS
 62
    7
 10
764.65006588649169
 20
648.97905602273545
 11
764.65033843683409
 21
648.97882154041088
  0
ARC
  8
_0-0_
  6
CONTINUOUS
 62
    7
 10
765.55291622768209
 20
650.02793211384676
 40
1.383936293268931
 50
229.29371191470744
 51
231.3310284546192
  0
LINE
  8
_0-0_
  6
CONTINUOUS
 62
    7
 10
764.6882052586493
 20
648.94739770723982
 11
764.68849018405751
 21
648.94716969217211
  0
ARC
  8
_0-0_
  6
CONTINUOUS
 62
    7
 10
765.58039700916129
 20
650.06168777569837
 40
1.4274622037636262
 50
231.3310284545737
 51
233.3355223991914
  0
LINE
  8
_0-0_
  6
CONTINUOUS
 62
    7
 10
764.72801943683135
 20
648.91665466815834
 11
764.72831637702996
 21
648.91643362200352
  0
ARC
  8
_0-0_
  6
CONTINUOUS
 62
    7
 10
765.60445533474115
 20
650.09338635510187
 40
1.4672549911882664
 50
233.33552239920417
 51
235.31456644218107
  0
LINE
  8
_0-0_
  6
CONTINUOUS
 62
    7
 10
764.76948381882755
 20
648.88687909164264
 11
764.77378272270312
 21
648.88390400612559
  0
ARC
  8
_0-0_
  6
CONTINUOUS
 62
    7
 10
765.52538373075549
 20
649.96994353939749
 40
1.3207520369602901
 50
235.31456644216865
 51
237.96647015353341
  0
LINE
  8
_0-0_
  6
CONTINUOUS
 62
    7
 10
764.82483643616831
 20
648.85029206184686
 11
764.82895645838016
 21
648.8477142325205
  0
ARC
  8
_0-0_
  6
CONTINUOUS
 62
    7
 10
765.70324657952153
 20
650.24505062009723
 40
1.6483119231417829
 50
237.9664701535674
 51
239.80160788625358
  0
ARC
  8
_0-0_
  6
CONTINUOUS
 62
    7
 10
765.73732004156739
 20
650.30359846868635
 40
1.7160529844724892
 50
239.80160788624772
 51
241.564315357982
  0
LINE
  8
_0-0_
  6
CONTINUOUS
 62
    7
 10
764.92018370331232
 20
648.79458354158328
 11
764.92049096486357
 21
648.79441715848498
  0
ARC
  8
_0-0_
  6
CONTINUOUS
 62
    7
 10
765.78066448458014
 20
650.38290933584051
 40
1.806434577155059
 50
241.56431535797958
 51
243.26100254074197
  0
LINE
  8
_0-0_
  6
CONTINUOUS
 62
    7
 10
764.96790087859961
 20
648.76964519059504
 11
764.96819878839494
 21
648.7694951034315
  0
ARC
  8
_0-0_
  6
CONTINUOUS
 62
    7
 10
765.82076164245996
 20
650.46175724941054
 40
1.8948917095298123
 50
243.26100254072915
 51
244.89866482869462
  0
LINE
  8
_0-0_
  6
CONTINUOUS
 62
    7
 10
765.01690968620346
 20
648.74582117156046
 11
765.0171958473004
 21
648.74568711577558
  0
ARC
  8
_0-0_
  6
CONTINUOUS
 62
    7
 10
765.85732320664806
 20
650.53905818947987
 40
1.9804024308012877
 50
244.8986648286546
 51
246.48390586008873
  0
LINE
  8
_0-0_
  6
CONTINUOUS
 62
    7
 10
765.06712946420794
 20
648.72313207938282
 11
765.06740172913862
 21
648.72301360427343
  0
ARC
  8
_0-0_
  6
CONTINUOUS
 62
    7
 10
765.89013428596888
 20
650.61371641718574
 40
2.0619519846065542
 50
246.48390586012155
 51
248.02295710238667
  0
LINE
  8
_0-0_
  6
CONTINUOUS
 62
    7
 10
765.11847955698545
 20
648.70159849036736
 11
765.1187360155858
 21
648.70149499387844
  0
ARC
  8
_0-0_
  6
CONTINUOUS
 62
    7
 10
765.91905783922891
 20
650.68464840269291
 40
2.1385538254371173
 50
248.02295710237536
 51
249.52170294823503
  0
LINE
  8
_0-0_
  6
CONTINUOUS
 62
    7
 10
765.17087931715218
 20
648.68124096450299
 11
765.17111827988913
 21
648.68115172315152
  0
ARC
  8
_0-0_
  6
CONTINUOUS
 62
    7
 10
765.94004659367715
 20
650.74012115066262
 40
2.1978639300854939
 50
249.52170294821974
 51
250.99330630856389
  0
LINE
  8
_0-0_
  6
CONTINUOUS
 62
    7
 10
765.22424931452701
 20
648.66208358836218
 11
765.23807428934003
 21
648.65732146108633
  0
ARC
  8
_0-0_
  6
CONTINUOUS
 62
    7
 10
765.80056962019705
 20
650.29030674922149
 40
1.7271485021565431
 50
250.9933063085644
 51
253.8356396245826
  0
LINE
  8
_0-0_
  6
CONTINUOUS
 62
    7
 10
765.31974232061179
 20
648.63143753904387
 11
765.33882516840231
 21
648.62590632891875
  0
ARC
  8
_0-0_
  6
CONTINUOUS
 62
    7
 10
765.92471291150559
 20
650.64723735253676
 40
2.1045292952484971
 50
253.83563962457762
 51
255.95453974892786
  0
LINE
  8
_0-0_
  6
CONTINUOUS
 62
    7
 10
765.41396115673592
 20
648.60562617516757
 11
765.41907662410847
 21
648.60434643396809
  0
ARC
  8
_0-0_
  6
CONTINUOUS
 62
    7
 10
766.04923742264793
 20
651.12326745151495
 40
2.596548810374065
 50
255.95453974892894
 51
257.43932809791352
  0
ARC
  8
_0-0_
  6
CONTINUOUS
 62
    7
 10
766.11324503635126
 20
651.4105471677459
 40
2.8908727984717659
 50
257.43932809791005
 51
258.77296239657409
  0
LINE
  8
_0-0_
  6
CONTINUOUS
 62
    7
 10
765.55040008821538
 20
648.57499588072926
 11
765.55058948238388
 21
648.57495828678714
  0
ARC
  8
_0-0_
  6
CONTINUOUS
 62
    7
 10
766.18566360115369
 20
651.77439223531974
 40
3.2618547986313349
 50
258.77296239655885
 51
259.96171196649618
  0
LINE
  8
_0-0_
  6
CONTINUOUS
 62
    7
 10
765.617101959558
 20
648.56247156583549
 11
765.6172886567291
 21
648.56243851743204
  0
ARC
  8
_0-0_
  6
CONTINUOUS
 62
    7
 10
766.26598453008933
 20
652.22705380524997
 40
3.7215872344772412
 50
259.96171196651215
 51
261.00945992992081
  0
LINE
  8
_0-0_
  6
CONTINUOUS
 62
    7
 10
765.68440692469699
 20
648.55118941265744
 11
765.6845859049298
 21
648.55116109526477
  0
ARC
  8
_0-0_
  6
CONTINUOUS
 62
    7
 10
766.35752621439099
 20
652.8044839518351
 40
4.3062285102304063
 50
261.00945992990626
 51
261.91978699939642
  0
LINE
  8
_0-0_
  6
CONTINUOUS
 62
    7
 10
765.75224566079009
 20
648.54100656433161
 11
765.75241242560344
 21
648.54098288893954
  0
ARC
  8
_0-0_
  6
CONTINUOUS
 62
    7
 10
766.46565798717495
 20
653.56494459629585
 40
5.0743384266407894
 50
261.91978699939915
 51
262.69612466219985
  0
LINE
  8
_0-0_
  6
CONTINUOUS
 62
    7
 10
765.82054872942831
 20
648.53178013309252
 11
765.82069940737279
 21
648.53176082044388
  0
ARC
  8
_0-0_
  6
CONTINUOUS
 62
    7
 10
766.60003029430629
 20
654.61212701899501
 40
6.1301068293963716
 50
262.69612466217194
 51
263.34159891513832
  0
LINE
  8
_0-0_
  6
CONTINUOUS
 62
    7
 10
765.88924669552432
 20
648.52336717683374
 11
765.88937803150259
 21
648.52335184506478
  0
ARC
  8
_0-0_
  6
CONTINUOUS
 62
    7
 10
766.77942817894439
 20
656.14775624117146
 40
7.6761794963596257
 50
263.34159891511456
 51
263.85904293461306
  0
LINE
  8
_0-0_
  6
CONTINUOUS
 62
    7
 10
765.95827016439114
 20
648.51562474495972
 11
765.95837944700759
 21
648.51561298699983
  0
ARC
  8
_0-0_
  6
CONTINUOUS
 62
    7
 10
767.04736447869118
 20
658.63702301026603
 40
10.179824618248803
 50
263.85904293459043
 51
264.25046419790408
  0
LINE
  8
_0-0_
  6
CONTINUOUS
 62
    7
 10
766.02754964241922
 20
648.50840973114316
 11
766.02763486998253
 21
648.50840114987636
  0
ARC
  8
_0-0_
  6
CONTINUOUS
 62
    7
 10
767.51830539983973
 20
663.31346652696277
 40
14.879921352224605
 50
264.2504641979117
 51
264.51890807252448
  0
LINE
  8
_0-0_
  6
CONTINUOUS
 62
    7
 10
766.09701610590264
 20
648.50157953740847
 11
766.09707517790059
 21
648.50157386909632
  0
ARC
  8
_0-0_
  6
CONTINUOUS
 62
    7
 10
768.68720128236021
 20
675.49442839314952
 40
27.116838838509544
 50
264.51890807250891
 51
264.66646321733236
  0
LINE
  8
_0-0_
  6
CONTINUOUS
 62
    7
 10
766.16659901222476
 20
648.49499297702482
 11
766.21013187291589
 21
648.49092885398704
  0
LINE
  8
_0-0_
  6
CONTINUOUS
 62
    7
 10
766.21013187291589
 20
648.49092885398704
 11
766.21448381124003
 21
648.49052380847036
  0
LINE
  8
_0-0_
  6
CONTINUOUS
 62
    7
 10
764.21448381124037
 20
748.01595213025257
 11
764.21448381124026
 21
649.8064587830047
  0
LINE
  8
_0-0_
  6
CONTINUOUS
 62
    7
 10
764.21448381124048
 20
748.01595218365674
 11
884.21448381124048
 21
748.01595215169243
  0
LINE
  8
_0-0_
  6
CONTINUOUS
 62
    7
 10
884.21448381124026
 20
649.80645878300481
 11
884.21448381124026
 21
748.01595213025257
  0
LINE
  8
_0-0_
  6
CONTINUOUS
 62
    7
 10
882.21448381124003
 20
648.49052380847036
 11
882.26313216652875
 21
648.49546822140599
  0
ARC
  8
_0-0_
  6
CONTINUOUS
 62
    7
 10
879.47145928623331
 20
675.96289375801427
 40
27.608927959623824
 50
275.80337266738582
 51
275.95073695201938
  0
LINE
  8
_0-0_
  6
CONTINUOUS
 62
    7
 10
882.33376885281393
 20
648.50273922413078
 11
882.33382729692016
 21
648.50274531605305
  0
ARC
  8
_0-0_
  6
CONTINUOUS
 62
    7
 10
880.72101080965399
 20
663.97563144008757
 40
15.556715014068276
 50
275.95073695197789
 51
276.21183523933297
  0
LINE
  8
_0-0_
  6
CONTINUOUS
 62
    7
 10
882.40432063222408
 20
648.51025559369509
 11
882.40440454512157
 21
648.51026472709134
  0
ARC
  8
_0-0_
  6
CONTINUOUS
 62
    7
 10
881.25514108151481
 20
659.06910016719473
 40
10.621196371405839
 50
276.2118352393253
 51
276.59335075432182
  0
LINE
  8
_0-0_
  6
CONTINUOUS
 62
    7
 10
882.47468668489842
 20
648.51815135293009
 11
882.47479444352541
 21
648.51816380835589
  0
ARC
  8
_0-0_
  6
CONTINUOUS
 62
    7
 10
881.55450056785753
 20
656.48012402480538
 40
8.014970449472461
 50
276.59335075429908
 51
277.09737128780012
  0
LINE
  8
_0-0_
  6
CONTINUOUS
 62
    7
 10
882.54479784583077
 20
648.52656742368936
 11
882.54492740592298
 21
648.52658355521555
  0
ARC
  8
_0-0_
  6
CONTINUOUS
 62
    7
 10
881.75392052363577
 20
654.87954256063824
 40
6.402013746658624
 50
277.09737128779813
 51
277.72603820135936
  0
LINE
  8
_0-0_
  6
CONTINUOUS
 62
    7
 10
882.61458501245897
 20
648.53564496924503
 11
882.61473378542144
 21
648.53566515298905
  0
ARC
  8
_0-0_
  6
CONTINUOUS
 62
    7
 10
881.90202820406091
 20
653.78896801337351
 40
5.301428127271465
 50
277.72603820135811
 51
278.4819688808102
  0
LINE
  8
_0-0_
  6
CONTINUOUS
 62
    7
 10
882.68397908840791
 20
648.54552515556588
 11
882.68414392681643
 21
648.54554973779977
  0
ARC
  8
_0-0_
  6
CONTINUOUS
 62
    7
 10
882.02029117478219
 20
652.99707481561779
 40
4.5007528253421309
 50
278.48196888080304
 51
279.36813014509602
  0
LINE
  8
_0-0_
  6
CONTINUOUS
 62
    7
 10
882.75291099211347
 20
648.55634917693226
 11
882.75308817457346
 21
648.55637840805161
  0
ARC
  8
_0-0_
  6
CONTINUOUS
 62
    7
 10
882.11970844355892
 20
652.39556695306214
 40
3.8910844976432011
 50
279.36813014507777
 51
280.38784316384738
  0
LINE
  8
_0-0_
  6
CONTINUOUS
 62
    7
 10
882.82131164080056
 20
648.56825830057278
 11
882.82149682205147
 21
648.56829224707917
  0
ARC
  8
_0-0_
  6
CONTINUOUS
 62
    7
 10
882.20626429023127
 20
651.92444113805516
 40
3.4120736285445528
 50
280.38784316384982
 51
281.54437930024523
  0
LINE
  8
_0-0_
  6
CONTINUOUS
 62
    7
 10
882.88911197336745
 20
648.5813938024279
 11
882.88930024244519
 21
648.58143225809135
  0
ARC
  8
_0-0_
  6
CONTINUOUS
 62
    7
 10
882.28363269710519
 20
651.54662540984543
 40
3.0264176186850276
 50
281.54437930023448
 51
282.84100585877832
  0
ARC
  8
_0-0_
  6
CONTINUOUS
 62
    7
 10
882.35205245705367
 20
651.24646920382156
 40
2.7185621143229133
 50
282.84100585878349
 51
284.28445030497795
  0
LINE
  8
_0-0_
  6
CONTINUOUS
 62
    7
 10
883.02281965103282
 20
648.61195760944338
 11
883.03387975503074
 21
648.61477359816013
  0
ARC
  8
_0-0_
  6
CONTINUOUS
 62
    7
 10
882.55552607347443
 20
650.49356005579659
 40
1.938726591878482
 50
284.28445030496255
 51
286.67461246940411
  0
LINE
  8
_0-0_
  6
CONTINUOUS
 62
    7
 10
883.1118166903542
 20
648.63635744228657
 11
883.12293659041848
 21
648.63968820222703
  0
ARC
  8
_0-0_
  6
CONTINUOUS
 62
    7
 10
882.43476886634085
 20
650.93716879404633
 40
2.3983310626868253
 50
286.67461246937842
 51
288.05232163702158
  0
LINE
  8
_0-0_
  6
CONTINUOUS
 62
    7
 10
883.17797654102174
 20
648.65689814376287
 11
883.17818203152399
 21
648.65696511919782
  0
ARC
  8
_0-0_
  6
CONTINUOUS
 62
    7
 10
882.45594667193393
 20
650.87288961671845
 40
2.3306534048104854
 50
288.05232163701305
 51
289.45940791862557
  0
LINE
  8
_0-0_
  6
CONTINUOUS
 62
    7
 10
883.23237809203158
 20
648.67536838969022
 11
883.23260417949302
 21
648.67544827124334
  0
ARC
  8
_0-0_
  6
CONTINUOUS
 62
    7
 10
882.48223256956408
 20
650.79921284116824
 40
2.2524283565644523
 50
289.45940791860812
 51
290.90315901355632
  0
LINE
  8
_0-0_
  6
CONTINUOUS
 62
    7
 10
883.28587537091573
 20
648.69502849817661
 11
883.28612050819265
 21
648.69512212248696
  0
ARC
  8
_0-0_
  6
CONTINUOUS
 62
    7
 10
882.51247025633518
 20
650.72077673442959
 40
2.1683660482224054
 50
290.9031590135279
 51
292.3890094794283
  0
LINE
  8
_0-0_
  6
CONTINUOUS
 62
    7
 10
883.338385753696
 20
648.71586404049435
 11
883.33864818885525
 21
648.71597214957342
  0
ARC
  8
_0-0_
  6
CONTINUOUS
 62
    7
 10
882.54657658460383
 20
650.63872867726116
 40
2.079511983862397
 50
292.38900947943341
 51
293.9227026091566
  0
ARC
  8
_0-0_
  6
CONTINUOUS
 62
    7
 10
882.57145666378028
 20
650.58264359457439
 40
2.018156015613076
 50
293.92270260913642
 51
295.50301724452532
  0
LINE
  8
_0-0_
  6
CONTINUOUS
 62
    7
 10
883.44039114717816
 20
648.76113142966381
 11
883.44660991857722
 21
648.76409803346542
  0
ARC
  8
_0-0_
  6
CONTINUOUS
 62
    7
 10
882.77793098034465
 20
650.16582260957796
 40
1.5530496803752722
 50
295.5030172445189
 51
298.00426384404335
  0
LINE
  8
_0-0_
  6
CONTINUOUS
 62
    7
 10
883.50714568555304
 20
648.79461539568877
 11
883.51496691099476
 21
648.7987747616454
  0
ARC
  8
_0-0_
  6
CONTINUOUS
 62
    7
 10
882.74716004359948
 20
650.24255024769229
 40
1.6352415845157142
 50
298.00426384407388
 51
299.75926498530293
  0
LINE
  8
_0-0_
  6
CONTINUOUS
 62
    7
 10
883.55882346899318
 20
648.82296667367928
 11
883.55912168300131
 21
648.82313718100818
  0
ARC
  8
_0-0_
  6
CONTINUOUS
 62
    7
 10
882.67867896260043
 20
650.36301440676152
 40
1.7738098134526181
 50
299.75926498529827
 51
301.35499866209847
  0
ARC
  8
_0-0_
  6
CONTINUOUS
 62
    7
 10
882.829026024565
 20
650.11627080192522
 40
1.4848692562976857
 50
301.35499866211364
 51
303.26119337742023
  0
LINE
  8
_0-0_
  6
CONTINUOUS
 62
    7
 10
883.64341236386144
 20
648.87465427551081
 11
883.64480445656466
 21
648.87556736039369
  0
ARC
  8
_0-0_
  6
CONTINUOUS
 62
    7
 10
882.82397095281442
 20
650.12701325838498
 40
1.4966243605120997
 50
303.2611933773747
 51
305.20790225953317
  0
LINE
  8
_0-0_
  6
CONTINUOUS
 62
    7
 10
883.6868422622216
 20
648.9041732934345
 11
883.68714143686702
 21
648.90438439973241
  0
ARC
  8
_0-0_
  6
CONTINUOUS
 62
    7
 10
882.85067560362222
 20
650.08980317429996
 40
1.4508248554816203
 50
305.20790225954289
 51
307.18714054515726
  0
LINE
  8
_0-0_
  6
CONTINUOUS
 62
    7
 10
883.72758363661035
 20
648.9339809288989
 11
883.72787398944763
 21
648.93420121600309
  0
ARC
  8
_0-0_
  6
CONTINUOUS
 62
    7
 10
882.87962755853755
 20
650.05224559186343
 40
1.4034048717118528
 50
307.18714054512424
 51
309.2034920650089
  0
LINE
  8
_0-0_
  6
CONTINUOUS
 62
    7
 10
883.76668684400943
 20
648.96473878360757
 11
883.76696771113313
 21
648.96496788175045
  0
ARC
  8
_0-0_
  6
CONTINUOUS
 62
    7
 10
882.91042058956998
 20
650.01506773589506
 40
1.3551319770165455
 50
309.2034920650176
 51
311.26101556298204
  0
LINE
  8
_0-0_
  6
CONTINUOUS
 62
    7
 10
883.80411705140659
 20
648.99639737251277
 11
883.80438755122179
 21
648.99663468650215
  0
ARC
  8
_0-0_
  6
CONTINUOUS
 62
    7
 10
882.94281587188902
 20
649.9786879597815
 40
1.3064204492379321
 50
311.26101556301592
 51
313.36368631861001
  0
LINE
  8
_0-0_
  6
CONTINUOUS
 62
    7
 10
883.83983926196038
 20
649.02890723358621
 11
883.84009843878118
 21
649.02915201394876
  0
ARC
  8
_0-0_
  6
CONTINUOUS
 62
    7
 10
882.97667733367939
 20
649.94335417778723
 40
1.2574822468338369
 50
313.36368631857925
 51
315.51569339914226
  0
LINE
  8
_0-0_
  6
CONTINUOUS
 62
    7
 10
883.87381848894393
 20
649.06221891652888
 11
883.8740653126963
 21
649.06247022385492
  0
ARC
  8
_0-0_
  6
CONTINUOUS
 62
    7
 10
883.01181735276839
 20
649.90933481922309
 40
1.2085740305367709
 50
315.51569339910878
 51
317.72137969707387
  0
LINE
  8
_0-0_
  6
CONTINUOUS
 62
    7
 10
883.9060197357104
 20
649.09628298469545
 11
883.90625312040402
 21
649.09653966347071
  0
ARC
  8
_0-0_
  6
CONTINUOUS
 62
    7
 10
883.04801356506437
 20
649.87689236465189
 40
1.1599678756716556
 50
317.72137969714447
 51
319.98520862927012
  0
LINE
  8
_0-0_
  6
CONTINUOUS
 62
    7
 10
883.93640799476634
 20
649.13105001544886
 11
883.93662682119907
 21
649.13131066595247
  0
ARC
  8
_0-0_
  6
CONTINUOUS
 62
    7
 10
883.0850086434433
 20
649.84627789344268
 40
1.1119494849449096
 50
319.98520862925562
 51
322.31171378183916
  0
LINE
  8
_0-0_
  6
CONTINUOUS
 62
    7
 10
883.96494824435501
 20
649.16647060029527
 11
883.96515138953225
 21
649.16673355052831
  0
ARC
  8
_0-0_
  6
CONTINUOUS
 62
    7
 10
883.12251283171668
 20
649.81772350085726
 40
1.0648134364980364
 50
322.31171378185439
 51
324.70543290601336
  0
ARC
  8
_0-0_
  6
CONTINUOUS
 62
    7
 10
883.14774371826604
 20
649.79986262897467
 40
1.0339005204196607
 50
324.70543290601108
 51
327.16963748377526
  0
ARC
  8
_0-0_
  6
CONTINUOUS
 62
    7
 10
883.20135920046857
 20
649.76524814729964
 40
0.9700821693935194
 50
327.17070128735219
 51
329.79583017311728
  0
LINE
  8
_0-0_
  6
CONTINUOUS
 62
    7
 10
884.03974125993579
 20
649.27721644982614
 11
884.04038974529101
 21
649.2783304727277
  0
ARC
  8
_0-0_
  6
CONTINUOUS
 62
    7
 10
883.22177867938581
 20
649.75485325080217
 40
0.9472053817659175
 50
329.79583017307215
 51
332.64019113189278
  0
LINE
  8
_0-0_
  6
CONTINUOUS
 62
    7
 10
884.0630277556038
 20
649.3195395397745
 11
884.06360449654107
 21
649.3206540986971
  0
ARC
  8
_0-0_
  6
CONTINUOUS
 62
    7
 10
883.13200804231599
 20
649.80271906748351
 40
1.0489321177539421
 50
332.64019113190955
 51
335.28895392114561
  0
LINE
  8
_0-0_
  6
CONTINUOUS
 62
    7
 10
884.08488692846765
 20
649.36422115872881
 11
884.0849662676975
 21
649.36439356702431
  0
ARC
  8
_0-0_
  6
CONTINUOUS
 62
    7
 10
883.05562516585155
 20
649.83807802694298
 40
1.1331019687204396
 50
335.28895392114663
 51
337.72183731446989
  0
LINE
  8
_0-0_
  6
CONTINUOUS
 62
    7
 10
884.10414591600806
 20
649.4085151002264
 11
884.10419607093263
 21
649.40863752345228
  0
ARC
  8
_0-0_
  6
CONTINUOUS
 62
    7
 10
882.94902765368738
 20
649.88189236947119
 40
1.2483526030257937
 50
337.7218373144467
 51
339.91803026409247
  0
LINE
  8
_0-0_
  6
CONTINUOUS
 62
    7
 10
884.12148335332063
 20
649.45325283107229
 11
884.12355600979799
 21
649.45892215852029
  0
ARC
  8
_0-0_
  6
CONTINUOUS
 62
    7
 10
883.12826682377363
 20
649.82279117071812
 40
1.0597175198396598
 50
339.91803026407888
 51
341.85255771378348
  0
LINE
  8
_0-0_
  6
CONTINUOUS
 62
    7
 10
884.13527204242928
 20
649.49272797759386
 11
884.13713728645632
 21
649.49841873775267
  0
ARC
  8
_0-0_
  6
CONTINUOUS
 62
    7
 10
882.64517543198576
 20
649.98743476724474
 40
1.5700595059726723
 50
341.85255771383021
 51
342.72129736125328
  0
ARC
  8
_0-0_
  6
CONTINUOUS
 62
    7
 10
882.55878208365993
 20
650.01430807434076
 40
1.6605359408561813
 50
342.72129736125544
 51
343.54270428058902
  0
LINE
  8
_0-0_
  6
CONTINUOUS
 62
    7
 10
884.15128778289659
 20
649.54387719868123
 11
884.15296773960995
 21
649.54956419921382
  0
ARC
  8
_0-0_
  6
CONTINUOUS
 62
    7
 10
882.77215830901685
 20
649.95745937338154
 40
1.4397962205549533
 50
343.5427042805818
 51
344.96194404760928
  0
LINE
  8
_0-0_
  6
CONTINUOUS
 62
    7
 10
884.16264684374232
 20
649.58388904329456
 11
884.16418459829106
 21
649.58961281174481
  0
ARC
  8
_0-0_
  6
CONTINUOUS
 62
    7
 10
881.86691586376639
 20
650.20679980611817
 40
2.3787314738423988
 50
344.96194404755948
 51
346.10619783916064
  0
ARC
  8
_0-0_
  6
CONTINUOUS
 62
    7
 10
881.14324339127859
 20
650.38579075662926
 40
3.1242109219821312
 50
346.1064970485811
 51
346.97744488801317
  0
ARC
  8
_0-0_
  6
CONTINUOUS
 62
    7
 10
879.76962893411189
 20
650.70347972053878
 40
4.5340843044933994
 50
346.97750069363576
 51
347.57760591708495
  0
ARC
  8
_0-0_
  6
CONTINUOUS
 62
    7
 10
876.14246694213773
 20
651.5024509590985
 40
8.2482005057001633
 50
347.57759495008128
 51
347.90748445203849
  0
LINE
  8
_0-0_
  6
CONTINUOUS
 62
    7
 10
884.20764491446585
 20
649.77452854854153
 11
884.21386376107876
 21
649.80355537544574
  0
LINE
  8
_0-0_
  6
CONTINUOUS
 62
    7
 10
884.21386376107876
 20
649.80355537544574
 11
884.21448381124003
 21
649.8064588013433
  0
LINE
  8
_0-0_
  6
CONTINUOUS
 62
    7
 10
884.21448381124048
 20
748.01595218365696
 11
884.21448381124048
 21
748.67717375639972
  0
LINE
  8
_0-0_
  6
CONTINUOUS
 62
    7
 10
764.21448381124048
 20
748.67717375639972
 11
764.21448381124048
 21
748.01595218365674
  0
LINE
  8
_0-0_
  6
CONTINUOUS
 62
    7
 10
884.66448381124133
 20
748.57717375639982
 11
884.66448381124133
 21
738.77717375639975
  0
LINE
  8
_0-0_
  6
CONTINUOUS
 62
    7
 10
763.76448381124123
 20
738.77717375639975
 11
763.76448381124123
 21
748.57717375639982
  0
LINE
  8
_0-0_
  6
CONTINUOUS
 62
    7
 10
884.21448381124037
 20
673.62822892821464
 11
885.46448381124128
 21
673.62822892821464
  0
LINE
  8
_0-0_
  6
CONTINUOUS
 62
    7
 10
884.21448381255095
 20
674.42532517598363
 11
885.46448381124128
 21
674.42532517598352
  0
LINE
  8
_0-0_
  6
CONTINUOUS
 62
    7
 10
762.96448381124117
 20
673.62822892821464
 11
764.21448381124014
 21
673.62822892821464
  0
LINE
  8
_0-0_
  6
CONTINUOUS
 62
    7
 10
762.96448381124117
 20
674.44748863318978
 11
764.21448381010214
 21
674.44748863318978
  0
LINE
  8
_0-0_
  6
CONTINUOUS
 62
    7
 10
895.46448381124128
 20
667.17717375639972
 11
885.46448381124128
 21
667.17717375639972
  0
LINE
  8
_0-0_
  6
CONTINUOUS
 62
    7
 10
895.46448381124128
 20
667.17717375639972
 11
895.46448381124128
 21
752.17717375639972
  0
LINE
  8
_0-0_
  6
CONTINUOUS
 62
    7
 10
885.46448381124128
 20
667.17717375639972
 11
885.46448381124128
 21
752.17717375639972
  0
LINE
  8
_0-0_
  6
CONTINUOUS
 62
    7
 10
762.96448381124128
 20
667.17717375639972
 11
752.96448381124128
 21
667.17717375639972
  0
LINE
  8
_0-0_
  6
CONTINUOUS
 62
    7
 10
752.96448381124128
 20
667.17717375639972
 11
752.96448381124128
 21
752.17717375639972
  0
LINE
  8
_0-0_
  6
CONTINUOUS
 62
    7
 10
762.96448381124128
 20
667.17717375639972
 11
762.96448381124128
 21
752.17717375639972
  0
LINE
  8
_0-0_
  6
CONTINUOUS
 62
    7
 10
904.71448381124128
 20
761.17717375639972
 11
743.71448381124128
 21
761.17717375639972
  0
LINE
  8
_0-0_
  6
CONTINUOUS
 62
    7
 10
904.71448381124128
 20
752.17717375639972
 11
743.71448381124128
 21
752.17717375639972
  0
LINE
  8
_0-0_
  6
CONTINUOUS
 62
    7
 10
904.71448381124128
 20
761.17717375639972
 11
906.71448381124128
 21
761.17717375639972
  0
LINE
  8
_0-0_
  6
CONTINUOUS
 62
    7
 10
906.71448381124128
 20
761.17717375639972
 11
906.71448381124128
 21
752.17717375639972
  0
LINE
  8
_0-0_
  6
CONTINUOUS
 62
    7
 10
906.71448381124128
 20
752.17717375639972
 11
904.71448381124128
 21
752.17717375639972
  0
LINE
  8
_0-0_
  6
CONTINUOUS
 62
    7
 10
741.71448381124128
 20
752.17717375639972
 11
741.71448381124128
 21
761.17717375639972
  0
LINE
  8
_0-0_
  6
CONTINUOUS
 62
    7
 10
743.71448381124128
 20
752.17717375639972
 11
741.71448381124128
 21
752.17717375639972
  0
LINE
  8
_0-0_
  6
CONTINUOUS
 62
    7
 10
741.71448381124128
 20
761.17717375639972
 11
743.71448381124128
 21
761.17717375639972
  0
LINE
  8
_0-0_
  6
CONTINUOUS
 62
    8
 10
884.21448381124026
 20
677.99218254463472
 11
885.46448381124128
 21
677.99218254463472
  0
LINE
  8
_0-0_
  6
CONTINUOUS
 62
    8
 10
885.46448381124128
 20
672.15000821082162
 11
884.21448381124026
 21
672.15000821082162
  0
LINE
  8
_0-0_
  6
CONTINUOUS
 62
    8
 10
884.21448381124026
 20
672.63224852245651
 11
885.46448381124128
 21
672.63224852245651
  0
LINE
  8
_0-0_
  6
CONTINUOUS
 62
    8
 10
885.46448381124128
 20
675.34380897674941
 11
884.7061190315909
 21
675.34380897674941
  0
LINE
  8
_0-0_
  6
CONTINUOUS
 62
    8
 10
764.21448381124026
 20
672.15000821082162
 11
762.96448381124117
 21
672.15000821082162
  0
LINE
  8
_0-0_
  6
CONTINUOUS
 62
    8
 10
762.96448381124117
 20
677.99218254463483
 11
764.21448381124026
 21
677.99218254463483
  0
LINE
  8
_0-0_
  6
CONTINUOUS
 62
    8
 10
762.96448381124117
 20
672.63224852245662
 11
764.21448381124026
 21
672.63224852245662
  0
LINE
  8
_0-0_
  6
CONTINUOUS
 62
    8
 10
762.96448381124128
 20
675.34380897674941
 11
763.72284859089166
 21
675.34380897674941
  0
ARC
  8
_0-0_
  6
CONTINUOUS
 62
    7
 10
983.25268289221322
 20
818.97253326032228
 40
60.999999951055855
 50
33.684180625067647
 51
137.9222392377672
  0
LINE
  8
_0-0_
  6
CONTINUOUS
 62
    7
 10
938.71852236035693
 20
859.18084753591347
 11
937.97628633222951
 21
859.85098612453817
  0
ARC
  8
_0-0_
  6
CONTINUOUS
 62
    7
 10
983.25268292034855
 20
818.97253323654706
 40
59.999999963164463
 50
34.323045904174876
 51
137.92223923890157
  0
LINE
  8
_0-0_
  6
CONTINUOUS
 62
    7
 10
937.42416007229838
 20
857.69909374926851
 11
936.66035135769528
 21
858.34453642487676
  0
LINE
  8
_0-0_
  6
CONTINUOUS
 62
    7
 10
938.71852236035716
 20
859.18084753591347
 11
938.6951995325096
 21
859.15480880438531
  0
ARC
  8
_0-0_
  6
CONTINUOUS
 62
    7
 10
1114.9576934567308
 20
701.27692610754821
 40
236.63028675387775
 50
138.14927406621621
 51
138.1955422628626
  0
LINE
  8
_0-0_
  6
CONTINUOUS
 62
    7
 10
938.56776551664655
 20
859.01241967356282
 11
938.54695611468139
 21
858.9891492679609
  0
ARC
  8
_0-0_
  6
CONTINUOUS
 62
    7
 10
1032.9363703535798
 20
774.58205745576925
 40
126.62511073461744
 50
138.19554226285317
 51
138.2537548476966
  0
LINE
  8
_0-0_
  6
CONTINUOUS
 62
    7
 10
938.4612471339583
 20
858.89320595459731
 11
938.46070502575185
 21
858.89259849353789
  0
ARC
  8
_0-0_
  6
CONTINUOUS
 62
    7
 10
1006.647567608579
 20
798.04152467676602
 40
91.390926319539872
 50
138.25375484771706
 51
138.33338940793624
  0
LINE
  8
_0-0_
  6
CONTINUOUS
 62
    7
 10
938.37619490259965
 20
858.79776783238594
 11
938.37549772518253
 21
858.79698441891583
  0
ARC
  8
_0-0_
  6
CONTINUOUS
 62
    7
 10
989.01804476913333
 20
813.72903309074502
 40
67.792240028023471
 50
138.33338940795213
 51
138.4389723188705
  0
ARC
  8
_0-0_
  6
CONTINUOUS
 62
    7
 10
977.3184210409396
 20
824.10222264881224
 40
52.156247670999591
 50
138.43897231885683
 51
138.57620804734071
  0
LINE
  8
_0-0_
  6
CONTINUOUS
 62
    7
 10
938.20976822726061
 20
858.61001084535951
 11
938.19965570259296
 21
858.59855003500434
  0
ARC
  8
_0-0_
  6
CONTINUOUS
 62
    7
 10
965.85422119089583
 20
834.19735439465262
 40
36.880799083338097
 50
138.57620804736254
 51
138.81777428200138
  0
LINE
  8
_0-0_
  6
CONTINUOUS
 62
    7
 10
938.09702327774244
 20
858.48173836945398
 11
938.0699082259988
 21
858.45074570114275
  0
ARC
  8
_0-0_
  6
CONTINUOUS
 62
    7
 10
970.69624440967254
 20
829.90642080009764
 40
43.350389811702101
 50
138.81777428198794
 51
139.13214253062304
  0
LINE
  8
_0-0_
  6
CONTINUOUS
 62
    7
 10
937.91378422239086
 20
858.27130403440356
 11
937.85007640711456
 21
858.1976742965104
  0
ARC
  8
_0-0_
  6
CONTINUOUS
 62
    7
 10
970.81925355922351
 20
829.67123500828598
 40
43.597297858375278
 50
139.13214253061068
 51
139.52421391805393
  0
LINE
  8
_0-0_
  6
CONTINUOUS
 62
    7
 10
937.65564521541125
 20
857.9714021839427
 11
937.61066495561704
 21
857.91869197520941
  0
ARC
  8
_0-0_
  6
CONTINUOUS
 62
    7
 10
987.23867406044735
 20
815.56862741946009
 40
65.241606782675618
 50
139.52421391804748
 51
139.66450574770926
  0
LINE
  8
_0-0_
  6
CONTINUOUS
 62
    7
 10
937.50711739507847
 20
857.79704826637851
 11
937.48642784519984
 21
857.77268260217579
  0
ARC
  8
_0-0_
  6
CONTINUOUS
 62
    7
 10
958.741797737811
 20
839.72416843396422
 40
27.884397303005407
 50
139.66450574770852
 51
139.86138921845503
  0
LINE
  8
_0-0_
  6
CONTINUOUS
 62
    7
 10
937.42453398387909
 20
857.69953710882464
 11
937.42416007229849
 21
857.69909374926851
  0
LINE
  8
_0-0_
  6
CONTINUOUS
 62
    7
 10
937.97628635056833
 20
859.85098610798093
 11
937.9525969030135
 21
859.82453871510529
  0
ARC
  8
_0-0_
  6
CONTINUOUS
 62
    7
 10
1116.1467467682814
 20
700.21255020435592
 40
239.22613135391637
 50
138.14857359413006
 51
138.19507502921411
  0
LINE
  8
_0-0_
  6
CONTINUOUS
 62
    7
 10
937.82311401293327
 20
859.67986322961792
 11
937.8019853906917
 21
859.65623623922249
  0
ARC
  8
_0-0_
  6
CONTINUOUS
 62
    7
 10
1033.3065105634701
 20
774.25056243283598
 40
128.12198658622472
 50
138.1950750291829
 51
138.25355237490729
  0
LINE
  8
_0-0_
  6
CONTINUOUS
 62
    7
 10
937.71486821944427
 20
859.55871773332649
 11
937.7143345663344
 21
859.55811975090569
  0
ARC
  8
_0-0_
  6
CONTINUOUS
 62
    7
 10
1006.7820397024598
 20
797.9205291464516
 40
92.571812493291162
 50
138.25355237487156
 51
138.33349453245546
  0
LINE
  8
_0-0_
  6
CONTINUOUS
 62
    7
 10
937.62840173615587
 20
859.46169280394543
 11
937.62771543856809
 21
859.46092161321531
  0
ARC
  8
_0-0_
  6
CONTINUOUS
 62
    7
 10
989.07457717158184
 20
813.67736154774025
 40
68.868816996118113
 50
138.33349453245069
 51
138.43923311871634
  0
ARC
  8
_0-0_
  6
CONTINUOUS
 62
    7
 10
977.35529167343498
 20
824.06788846288509
 40
53.206610824527047
 50
138.43923311873911
 51
138.57609750154131
  0
LINE
  8
_0-0_
  6
CONTINUOUS
 62
    7
 10
937.4591062574068
 20
859.27069836042847
 11
937.45744541044087
 21
859.26881608288602
  0
ARC
  8
_0-0_
  6
CONTINUOUS
 62
    7
 10
969.52922272255319
 20
830.96995322117471
 40
42.771772692088255
 50
138.5760975015676
 51
138.75307734086914
  0
LINE
  8
_0-0_
  6
CONTINUOUS
 62
    7
 10
937.37018673356567
 20
859.16961533763765
 11
937.35753982801123
 21
859.1551927431683
  0
ARC
  8
_0-0_
  6
CONTINUOUS
 62
    7
 10
969.07896731536482
 20
831.33926140426593
 40
42.189749917319595
 50
138.75307734087812
 51
138.98459917709366
  0
LINE
  8
_0-0_
  6
CONTINUOUS
 62
    7
 10
937.245399985365
 20
859.02678547436528
 11
937.23729931015146
 21
859.01747177086565
  0
ARC
  8
_0-0_
  6
CONTINUOUS
 62
    7
 10
982.0461597081329
 20
820.0445728820398
 40
59.386200568519563
 50
138.9845991770965
 51
139.17289765478762
  0
LINE
  8
_0-0_
  6
CONTINUOUS
 62
    7
 10
937.10945987983052
 20
858.87000045863556
 11
937.0543380729722
 21
858.80620226648693
  0
ARC
  8
_0-0_
  6
CONTINUOUS
 62
    7
 10
967.38181833543274
 20
832.60317905807176
 40
40.079352344201872
 50
139.17289765479254
 51
139.55781591587234
  0
LINE
  8
_0-0_
  6
CONTINUOUS
 62
    7
 10
936.87898948122074
 20
858.6018697216673
 11
936.81840153110795
 21
858.53078522372743
  0
ARC
  8
_0-0_
  6
CONTINUOUS
 62
    7
 10
992.03026006840548
 20
811.47167349572362
 40
72.545911806050825
 50
139.5578159159285
 51
139.62293700166168
  0
LINE
  8
_0-0_
  6
CONTINUOUS
 62
    7
 10
936.76495088328068
 20
858.46800229323571
 11
936.76349064745068
 21
858.46628512964662
  0
ARC
  8
_0-0_
  6
CONTINUOUS
 62
    7
 10
974.84769157861695
 20
826.08036970922035
 40
49.99253822506369
 50
139.62293700163707
 51
139.71226969345454
  0
ARC
  8
_0-0_
  6
CONTINUOUS
 62
    7
 10
959.4758618791152
 20
839.11097101377504
 40
29.840870337051356
 50
139.71226969338508
 51
139.86192908079008
  0
LINE
  8
_0-0_
  6
CONTINUOUS
 62
    7
 10
936.66271835482689
 20
858.3473434631984
 11
936.66073233758209
 21
858.34498817003873
  0
LINE
  8
_0-0_
  6
CONTINUOUS
 62
    7
 10
936.66073233758209
 20
858.34498817003873
 11
936.66035135769539
 21
858.34453642487676
  0
LINE
  8
_0-0_
  6
CONTINUOUS
 62
    7
 10
955.34700130562476
 20
852.80403015407671
 11
955.34700130562476
 21
830.80403015407671
  0
LINE
  8
_0-0_
  6
CONTINUOUS
 62
    7
 10
955.34700130562476
 20
830.80403015407671
 11
1040.3470013056246
 21
830.80403015407671
  0
LINE
  8
_0-0_
  6
CONTINUOUS
 62
    7
 10
955.34700130562476
 20
852.80403015407671
 11
1040.3470013056246
 21
852.80403015407671
  0
LINE
  8
_0-0_
  6
CONTINUOUS
 62
    7
 10
1040.3470013056246
 20
857.80403015407671
 11
1049.3470013056246
 21
857.80403015407671
  0
LINE
  8
_0-0_
  6
CONTINUOUS
 62
    7
 10
1049.3470013056246
 20
857.80403015407671
 11
1049.3470013056246
 21
859.80403015407671
  0
LINE
  8
_0-0_
  6
CONTINUOUS
 62
    7
 10
1049.3470013056246
 20
859.80403015407671
 11
1040.3470013056246
 21
859.80403015407671
  0
LINE
  8
_0-0_
  6
CONTINUOUS
 62
    7
 10
1040.3470013056246
 20
859.80403015407671
 11
1040.3470013056246
 21
857.80403015407671
  0
LINE
  8
_0-0_
  6
CONTINUOUS
 62
    7
 10
1040.3470013056246
 20
829.80403015407671
 11
1049.3470013056246
 21
829.80403015407671
  0
LINE
  8
_0-0_
  6
CONTINUOUS
 62
    7
 10
1049.3470013056246
 20
831.80403015407671
 11
1040.3470013056246
 21
831.80403015407671
  0
LINE
  8
_0-0_
  6
CONTINUOUS
 62
    7
 10
1040.3470013056246
 20
831.80403015407671
 11
1040.3470013056246
 21
829.80403015407671
  0
LINE
  8
_0-0_
  6
CONTINUOUS
 62
    7
 10
1049.3470013056246
 20
829.80403015407671
 11
1049.3470013056246
 21
831.80403015407671
  0
LINE
  8
_0-0_
  6
CONTINUOUS
 62
    7
 10
1040.3470013056246
 20
857.80403015407671
 11
1040.3470013056246
 21
831.80403015407671
  0
LINE
  8
_0-0_
  6
CONTINUOUS
 62
    7
 10
1049.3470013056246
 20
857.80403015407671
 11
1049.3470013056246
 21
831.80403015407671
  0
LINE
  8
_0-1_
  6
CONTINUOUS
 62
    4
 10
715.42726765438204
 20
859.8040299037815
 11
715.42726765438204
 21
829.80403016688012
  0
POINT
  8
_0-1_
 62
    7
 10
715.42726765438204
 20
859.8040299037815
  0
POINT
  8
_0-1_
 62
    7
 10
715.42726765438204
 20
829.80403016688012
  0
LINE
  8
_0-1_
  6
CONTINUOUS
 62
    4
 10
713.00668867892193
 20
761.17717375639961
 11
713.00668867892193
 21
667.17717375639961
  0
POINT
  8
_0-1_
 62
    7
 10
713.00668867892193
 20
761.17717375639961
  0
POINT
  8
_0-1_
 62
    7
 10
713.00668867892193
 20
667.17717375639961
  0
LINE
  8
_0-1_
  6
CONTINUOUS
 62
    4
 10
715.42726765438204
 20
829.80403016688012
 11
737.71448729758959
 21
829.80403016688012
  0
LINE
  8
_0-1_
  6
CONTINUOUS
 62
    4
 10
715.42726765438204
 20
859.8040299037815
 11
737.71448729758959
 21
859.8040299037815
  0
LINE
  8
_0-1_
  6
CONTINUOUS
 62
    4
 10
713.00668867892193
 20
761.17717375639961
 11
735.71448381124128
 21
761.17717375639961
  0
LINE
  8
_0-1_
  6
CONTINUOUS
 62
    4
 10
713.00668867892193
 20
667.17717375639961
 11
746.96448381124128
 21
667.17717375639961
  0
TEXT
  8
_0-1_
 62
    4
 10
712.00668867892193
 20
711.67717375639961
 40
5
 41
1
 50
90
  1
94
  0
TEXT
  8
_0-1_
 62
    4
 10
714.42726765438204
 20
842.30403003533081
 40
5
 41
1
 50
90
  1
30
  0
LINE
  8
_0-1_
  6
CONTINUOUS
 62
    4
 10
764.21448381124014
 20
636.21377681273941
 11
884.21448381124014
 21
636.21377681273941
  0
POINT
  8
_0-1_
 62
    7
 10
764.21448381124014
 20
636.21377681273941
  0
POINT
  8
_0-1_
 62
    7
 10
884.21448381124014
 20
636.21377681273941
  0
LINE
  8
_0-1_
  6
CONTINUOUS
 62
    4
 10
764.21448381124014
 20
636.21377681273941
 11
764.21448381124014
 21
643.8064587830047
  0
LINE
  8
_0-1_
  6
CONTINUOUS
 62
    4
 10
884.21448381124014
 20
636.21377681273941
 11
884.21448381124014
 21
643.80645880134318
  0
TEXT
  8
_0-1_
 62
    4
 10
820.46448381124014
 20
637.21377681273941
 40
5
 41
1
 50
0
  1
120
  0
LINE
  8
_0-1_
  6
CONTINUOUS
 62
    4
 10
752.96448381124128
 20
629.39317929398408
 11
895.46448381124128
 21
629.39317929398408
  0
POINT
  8
_0-1_
 62
    7
 10
752.96448381124128
 20
629.39317929398408
  0
POINT
  8
_0-1_
 62
    7
 10
895.46448381124128
 20
629.39317929398408
  0
TEXT
  8
_0-1_
 62
    4
 10
817.96448381124128
 20
630.39317929398408
 40
5
 41
1
 50
0
  1
142.5
  0
LINE
  8
_0-1_
  6
CONTINUOUS
 62
    4
 10
895.46448381124128
 20
629.39317929398408
 11
895.46448381124128
 21
661.17717375639961
  0
LINE
  8
_0-1_
  6
CONTINUOUS
 62
    4
 10
752.96448381124128
 20
629.39317929398408
 11
752.96448381124128
 21
661.17717375639961
  0
LINE
  8
_0-1_
  6
CONTINUOUS
 62
    4
 10
931.71448381124128
 20
761.17717375639972
 11
931.71448381124128
 21
752.17717375639972
  0
POINT
  8
_0-1_
 62
    7
 10
931.71448381124128
 20
761.17717375639972
  0
POINT
  8
_0-1_
 62
    7
 10
931.71448381124128
 20
752.17717375639972
  0
LINE
  8
_0-1_
  6
CONTINUOUS
 62
    4
 10
931.71448381124128
 20
761.17717375639972
 11
912.71448381124128
 21
761.17717375639972
  0
LINE
  8
_0-1_
  6
CONTINUOUS
 62
    4
 10
931.71448381124128
 20
752.17717375639972
 11
912.71448381124128
 21
752.17717375639972
  0
TEXT
  8
_0-1_
 62
    4
 10
930.71448381124128
 20
755.42717375639972
 40
5
 41
1
 50
90
  1
9
  0
LINE
  8
_0-1_
  6
CONTINUOUS
 62
    4
 10
930.34700130562476
 20
852.80403015407671
 11
930.34700130562476
 21
830.80403015407671
  0
POINT
  8
_0-1_
 62
    7
 10
930.34700130562476
 20
852.80403015407671
  0
POINT
  8
_0-1_
 62
    7
 10
930.34700130562476
 20
830.80403015407671
  0
POINT
  8
_0-1_
 62
    7
 10
936.66035135769528
 20
905.78682239909574
  0
LINE
  8
_0-1_
  6
CONTINUOUS
 62
    4
 10
1049.3470013056246
 20
905.78682239909574
 11
936.66035135769528
 21
905.78682239909574
  0
TEXT
  8
_0-1_
 62
    4
 10
989.2536763316599
 20
906.78682239909574
 40
5
 41
1
 50
0
  1
113
  0
POINT
  8
_0-1_
 62
    7
 10
1049.3470013056246
 20
905.78682239909574
  0
LINE
  8
_0-1_
  6
CONTINUOUS
 62
    4
 10
1049.3470013056246
 20
905.78682239909574
 11
1049.3470013056246
 21
863.80403015407671
  0
LINE
  8
_0-1_
  6
CONTINUOUS
 62
    4
 10
936.66035135769528
 20
905.78682239909574
 11
936.66035135769528
 21
864.34453642487676
  0
LINE
  8
_0-1_
  6
CONTINUOUS
 62
    4
 10
930.34700130562476
 20
852.80403015407671
 11
949.34700130562476
 21
852.80403015407671
  0
LINE
  8
_0-1_
  6
CONTINUOUS
 62
    4
 10
930.34700130562476
 20
830.80403015407671
 11
949.34700130562476
 21
830.80403015407671
  0
LINE
  8
_0-1_
  6
CONTINUOUS
 62
    4
 10
741.71448381124128
 20
814.25697851259281
 11
906.71448381124128
 21
814.25697851259281
  0
POINT
  8
_0-1_
 62
    7
 10
741.71448381124128
 20
814.25697851259281
  0
POINT
  8
_0-1_
 62
    7
 10
906.71448381124128
 20
814.25697851259281
  0
LINE
  8
_0-1_
  6
CONTINUOUS
 62
    4
 10
741.71448381124128
 20
814.25697851259281
 11
741.71448381124128
 21
825.80403015407671
  0
LINE
  8
_0-1_
  6
CONTINUOUS
 62
    4
 10
906.71448381124128
 20
814.25697851259281
 11
906.71448381124128
 21
825.80403015407671
  0
TEXT
  8
_0-1_
 62
    4
 10
820.46448381124128
 20
815.25697851259281
 40
5
 41
1
 50
0
  1
165
  0
TEXT
  8
_0-1_
 62
    4
 10
929.34700130562476
 20
839.30403015407671
 40
5
 41
1
 50
90
  1
22
  0
ENDSEC
  0
EOF
