  0
SECTION
  2
HEADER
  9
$ACADVER
  1
AC1009
  9
$INSBASE
 10
0
 20
0
 30
0
  9
$EXTMIN
 10
0
 20
0
  9
$EXTMAX
 10
1682
 20
1188
  9
$LIMMIN
 10
0
 20
0
  9
$LIMMAX
 10
1682
 20
1188
  9
$LTSCALE
 40
2
  0
ENDSEC
  0
SECTION
  2
TABLES
  0
TABLE
  2
LTYPE
 70
     9
  0
LTYPE
  2
CONTINUOUS
 70
    64
  3
実線
 72
    65
 73
     0
 40
0.0
  0
LTYPE
  2
DASHED1
 70
    64
  3
--  --  --  --  --  --  --  --  
 72
    65
 73
     2
 40
2.5
 49
1.25
 49
-1.25
  0
LTYPE
  2
DASHED2
 70
    64
  3
----    ----    ----    ----    
 72
    65
 73
     2
 40
5.0
 49
2.5
 49
-2.5
  0
LTYPE
  2
DASHED3
 70
    64
  3
------  ------  ------  ------  
 72
    65
 73
     2
 40
5.0
 49
3.75
 49
-1.25
  0
LTYPE
  2
CENTER1
 70
    64
  3
----- - ----- - ----- - ----- - 
 72
    65
 73
     4
 40
10.0
 49
6.25
 49
-1.25
 49
1.25
 49
-1.25
  0
LTYPE
  2
CENTER2
 70
    64
  3
----------  --  ----------  --  
 72
    65
 73
     4
 40
20.0
 49
12.5
 49
-2.5
 49
2.5
 49
-2.5
  0
LTYPE
  2
PHANTOM1
 70
    64
  3
--- - - --- - - --- - - --- - - 
 72
    65
 73
     6
 40
10.0
 49
3.25
 49
-1.25
 49
1.25
 49
-1.25
 49
1.25
 49
-1.25
  0
LTYPE
  2
PHANTOM2
 70
    64
  3
--------  -  -  --------  -  -  
 72
    65
 73
     6
 40
20.0
 49
10.0
 49
-2.5
 49
1.25
 49
-2.5
 49
1.25
 49
-2.5
  0
LTYPE
  2
DOT
 70
    64
  3
-   -   -   -   -   -   -   -   
 72
    65
 73
     2
 40
2.5
 49
0.625
 49
-1.875
  0
LTYPE
  2
DUMMY
 70
    64
  3
ダミー
 72
    65
 73
     0
 40
0.0
  0
LTYPE
  2
RAND1
 70
    64
  3
ランダム線1
 72
    65
 73
     4
 40
10.0
 49
1.0
 49
-2.0
 49
3.0
 49
-4.0
  0
LTYPE
  2
RAND2
 70
    64
  3
ランダム線2
 72
    65
 73
     4
 40
14.0
 49
2.0
 49
-3.0
 49
4.0
 49
-5.0
  0
LTYPE
  2
RAND3
 70
    64
  3
ランダム線3
 72
    65
 73
     4
 40
18.0
 49
3.0
 49
-4.0
 49
5.0
 49
-6.0
  0
LTYPE
  2
RAND4
 70
    64
  3
ランダム線4
 72
    65
 73
     4
 40
22.0
 49
4.0
 49
-5.0
 49
6.0
 49
-7.0
  0
LTYPE
  2
RAND5
 70
    64
  3
ランダム線5
 72
    65
 73
     4
 40
26.0
 49
5.0
 49
-6.0
 49
7.0
 49
-8.0
  0
LTYPE
  2
LONG1
 70
    64
  3
----------  --  ----------  --  
 72
    65
 73
     4
 40
40.0
 49
32.5
 49
-2.5
 49
2.5
 49
-2.5
  0
LTYPE
  2
LONG2
 70
    64
  3
--------  -  -  --------  -  -  
 72
    65
 73
     6
 40
40.0
 49
30.0
 49
-2.5
 49
1.25
 49
-2.5
 49
1.25
 49
-2.5
  0
LTYPE
  2
LONG3
 70
    64
  3
+++++++++++++++..+++++++++++++++
 72
    65
 73
     2
 40
40.0
 49
37.5
 49
-2.5
  0
LTYPE
  2
LONG4
 70
    64
  3
+++++++++++++++..+++++++++++++++
 72
    65
 73
     2
 40
80.0
 49
75.0
 49
-5.0
  0
LTYPE
  2
LONG5
 70
    64
  3
----------  --  ----------  --  
 72
    65
 73
     4
 40
60.0
 49
37.5
 49
-7.5
 49
7.5
 49
-7.5
  0
LTYPE
  2
dashed
 70
   64
  3
-------   -------------   ------
 72
   65
 73
    2
 40
7.5
 49
6
 49
-1.5
  0
LTYPE
  2
dashed_spaced
 70
   64
  3
----        --------        ----
 72
   65
 73
    2
 40
12
 49
6
 49
-6
  0
LTYPE
  2
long_dashed_dotted
 70
   64
  3
------------- --- --------------
 72
   65
 73
    4
 40
15.25
 49
12
 49
-1.5
 49
0.25
 49
-1.5
  0
LTYPE
  2
long_dashed_double-dotted
 70
   64
  3
----------- --- --- ------------
 72
   65
 73
    6
 40
17
 49
12
 49
-1.5
 49
0.25
 49
-1.5
 49
0.25
 49
-1.5
  0
LTYPE
  2
long_dashed_triplicate-dotted
 70
   64
  3
--------- --- --- --- ----------
 72
   65
 73
    8
 40
18.75
 49
12
 49
-1.5
 49
0.25
 49
-1.5
 49
0.25
 49
-1.5
 49
0.25
 49
-1.5
  0
LTYPE
  2
dotted
 70
   64
  3
   -       -       -       -    
 72
   65
 73
    2
 40
1.75
 49
0.25
 49
-1.5
  0
LTYPE
  2
chain
 70
   64
  3
-------------- -- --------------
 72
   65
 73
    4
 40
18.5
 49
12
 49
-1.5
 49
3.5
 49
-1.5
  0
LTYPE
  2
chain_double_dash
 70
   64
  3
------------ -- -- -------------
 72
   65
 73
    6
 40
23.5
 49
12
 49
-1.5
 49
3.5
 49
-1.5
 49
3.5
 49
-1.5
  0
LTYPE
  2
dashed_dotted
 70
   64
  3
-----------     -     ----------
 72
   65
 73
    4
 40
9.25
 49
6
 49
-1.5
 49
0.25
 49
-1.5
  0
LTYPE
  2
double-dashed_dotted
 70
   64
  3
------   -----------   -   -----
 72
   65
 73
    6
 40
16.75
 49
6
 49
-1.5
 49
6
 49
-1.5
 49
0.25
 49
-1.5
  0
LTYPE
  2
dashed_double-dotted
 70
   64
  3
---------    -    -    ---------
 72
   65
 73
    6
 40
11
 49
6
 49
-1.5
 49
0.25
 49
-1.5
 49
0.25
 49
-1.5
  0
LTYPE
  2
double-dashed_double-dotted
 70
   64
  3
-----   ---------   -   -   ----
 72
   65
 73
    8
 40
18.5
 49
6
 49
-1.5
 49
6
 49
-1.5
 49
0.25
 49
-1.5
 49
0.25
 49
-1.5
  0
LTYPE
  2
dashed_triplicate-dotted
 70
   64
  3
-------    -    -    -    ------
 72
   65
 73
    8
 40
12.75
 49
6
 49
-1.5
 49
0.25
 49
-1.5
 49
0.25
 49
-1.5
 49
0.25
 49
-1.5
  0
LTYPE
  2
double-dashed_triplicate-dotted
 70
   64
  3
-----  ---------  -  -  -  -----
 72
   65
 73
   10
 40
20.25
 49
6
 49
-1.5
 49
6
 49
-1.5
 49
0.25
 49
-1.5
 49
0.25
 49
-1.5
 49
0.25
 49
-1.5
  0
LTYPE
  2
undefined
 70
   64
  3
--------------------------------
 72
   65
 73
    0
 40
0
  0
ENDTAB
  0
TABLE
  2
STYLE
  5
3
100
AcDbSymbolTable
 70
     1
  0
STYLE
  5
10
100
AcDbSymbolTableRecord
100
AcDbTextStyleTableRecord
  2
STANDARD
 70
     0
 40
0.0
 41
1.0
 50
0.0
 71
     0
 42
0.2
  3
txt
  4
bigfont.shx
  0
STYLE
  5
26
100
AcDbSymbolTableRecord
100
AcDbTextStyleTableRecord
  2
TATEGAKI
 70
    68
 40
0.0
 41
1.0
 50
0.0
 71
     0
 42
1.0
  3
txt
  4
bigfont.shx
  0
ENDTAB
  0
TABLE
  2
LAYER
 70
    4
  0
LAYER
  2
_0-0_FRF74-1309
 70
   64
 62
    7
  6
CONTINUOUS
  0
LAYER
  2
_0-1_
 70
   64
 62
    7
  6
CONTINUOUS
  0
LAYER
  2
_0-2_
 70
   64
 62
    7
  6
CONTINUOUS
  0
LAYER
  2
ADD_LINE
 70
   64
 62
    7
  6
CONTINUOUS
  0
ENDTAB
  0
ENDSEC
  0
SECTION
  2
BLOCKS
  0
ENDSEC
  0
SECTION
  2
ENTITIES
  0
LINE
  8
_0-2_
  6
CONTINUOUS
 62
    7
 10
1079.8988725370491
 20
503.2673488237719
 11
689.8988725370491
 21
503.2673488237719
  0
LINE
  8
_0-2_
  6
CONTINUOUS
 62
    7
 10
1079.8988725371457
 20
1029.267348823772
 11
689.89887253714551
 21
1029.267348823772
  0
LINE
  8
_0-2_
  6
CONTINUOUS
 62
    7
 10
689.89887253714551
 20
1029.267348823772
 11
689.89887253714551
 21
469.2673488237719
  0
LINE
  8
_0-2_
  6
CONTINUOUS
 62
    7
 10
689.89887253714551
 20
469.2673488237719
 11
1079.8988725371457
 21
469.2673488237719
  0
LINE
  8
_0-2_
  6
CONTINUOUS
 62
    7
 10
1079.8988725371457
 20
469.2673488237719
 11
1079.8988725371457
 21
1029.267348823772
  0
LINE
  8
_0-2_
  6
CONTINUOUS
 62
    7
 10
1079.8988725370491
 20
520.26734882377195
 11
689.8988725370491
 21
520.26734882377195
  0
LINE
  8
_0-2_
  6
CONTINUOUS
 62
    7
 10
1079.8988725371457
 20
486.2673488237719
 11
929.29887253714571
 21
486.2673488237719
  0
LINE
  8
_0-2_
  6
CONTINUOUS
 62
    7
 10
1029.6988725371975
 20
486.2673488237719
 11
1029.6988725371975
 21
503.2673488237719
  0
LINE
  8
_0-2_
  6
CONTINUOUS
 62
    7
 10
979.49887253719749
 20
486.2673488237719
 11
979.49887253719749
 21
503.2673488237719
  0
LINE
  8
_0-2_
  6
CONTINUOUS
 62
    7
 10
929.29887253719744
 20
469.2673488237719
 11
929.29887253719744
 21
520.26734882377195
  0
TEXT
  8
_0-2_
 62
    7
 10
936.36516934588531
 20
473.92519932464324
 40
6
 41
1
 50
0
  1
大洋金物株式会社 ティーフォルム事業部
  0
TEXT
  8
_0-2_
 62
    7
 10
692.03092613020874
 20
496.95829989926438
 40
4.4000000000000004
 41
1
 50
0
  1
仕様
  0
TEXT
  8
_0-2_
 62
    7
 10
692.11008412622641
 20
513.7277384202182
 40
4.4000000000000004
 41
1
 50
0
  1
品名
  0
TEXT
  8
_0-2_
 62
    7
 10
931.58014201817321
 20
514.02354576782386
 40
4.4000000000000004
 41
1
 50
0
  1
品番
  0
TEXT
  8
_0-2_
 62
    7
 10
931.40046929208268
 20
496.85593532261146
 40
4.4000000000000004
 41
1
 50
0
  1
重量
  0
TEXT
  8
_0-2_
 62
    7
 10
981.63419090952073
 20
497.28379304790997
 40
4.4000000000000004
 41
1
 50
0
  1
容量
  0
TEXT
  8
_0-2_
 62
    7
 10
1031.8476186341097
 20
497.19837872271296
 40
4.4000000000000004
 41
1
 50
0
  1
縮尺
  0
TEXT
  8
_0-2_
 62
    7
 10
942.89541103866486
 20
507.16508785728229
 40
6
 41
1
 50
0
  1
FRF74-1309
  0
TEXT
  8
_0-2_
 62
    4
 10
690.59866426069993
 20
460.90948008418826
 40
5
 41
1
 50
0
  1
120910S
  0
LINE
  8
_0-1_
  6
CONTINUOUS
 62
    4
 10
942.15954217819785
 20
768.20276050491884
 11
996.1595421781974
 21
768.20276050491884
  0
POINT
  8
_0-1_
 62
    7
 10
942.15954217819785
 20
768.20276050491884
  0
POINT
  8
_0-1_
 62
    7
 10
996.1595421781974
 20
768.20276050491884
  0
LINE
  8
_0-1_
  6
CONTINUOUS
 62
    4
 10
942.15954217819785
 20
768.20276050491884
 11
942.15954217819785
 21
792.20276050491884
  0
LINE
  8
_0-1_
  6
CONTINUOUS
 62
    4
 10
996.1595421781974
 20
768.20276050491884
 11
996.1595421781974
 21
822.70276050491896
  0
TEXT
  8
_0-1_
 62
    4
 10
966.65954217819763
 20
769.20276050491884
 40
5
 41
1
 50
0
  1
54
  0
LINE
  8
_0-1_
  6
CONTINUOUS
 62
    4
 10
912.15954217819785
 20
797.70275674937739
 11
912.15954217819785
 21
862.70275674937739
  0
POINT
  8
_0-1_
 62
    7
 10
912.15954217819785
 20
797.70275674937739
  0
POINT
  8
_0-1_
 62
    7
 10
912.15954217819785
 20
862.70275674937739
  0
TEXT
  8
_0-1_
 62
    4
 10
911.13298516911721
 20
825.91599586322923
 40
5
 41
1
 50
90
  1
φ65
  0
LINE
  8
_0-1_
  6
CONTINUOUS
 62
    4
 10
912.15954217819785
 20
797.70275674937739
 11
936.76096033885619
 21
797.70275674937739
  0
LINE
  8
_0-1_
  6
CONTINUOUS
 62
    4
 10
912.15954217819785
 20
862.70275674937739
 11
936.76096033885619
 21
862.70275674937739
  0
LINE
  8
_0-1_
  6
CONTINUOUS
 62
    4
 10
868.29549900572511
 20
678.14365616755731
 11
868.29549900572511
 21
660.14365616755731
  0
POINT
  8
_0-1_
 62
    7
 10
868.29549900572511
 20
678.14365616755731
  0
POINT
  8
_0-1_
 62
    7
 10
868.29549900572511
 20
660.14365616755731
  0
LINE
  8
_0-1_
  6
CONTINUOUS
 62
    4
 10
868.29549900572511
 20
678.14365616755731
 11
844.72959716216678
 21
678.14365616755731
  0
LINE
  8
_0-1_
  6
CONTINUOUS
 62
    4
 10
868.29549900572511
 20
660.14365616755731
 11
844.72959716216678
 21
660.14365616755731
  0
TEXT
  8
_0-1_
 62
    4
 10
867.29549900572511
 20
666.64365616755731
 40
5
 41
1
 50
90
  1
18
  0
LINE
  8
_0-1_
  6
CONTINUOUS
 62
    4
 10
795.22959716216678
 20
630.15145000983443
 11
838.22959716216678
 21
630.15145000983443
  0
POINT
  8
_0-1_
 62
    7
 10
795.22959716216678
 20
630.15145000983443
  0
POINT
  8
_0-1_
 62
    7
 10
838.22959716216678
 20
630.15145000983443
  0
LINE
  8
_0-1_
  6
CONTINUOUS
 62
    4
 10
795.22959716216678
 20
630.15145000983443
 11
795.22959716216678
 21
653.64365616755731
  0
LINE
  8
_0-1_
  6
CONTINUOUS
 62
    4
 10
838.22959716216678
 20
630.15145000983443
 11
838.22959716216678
 21
653.64365616755731
  0
TEXT
  8
_0-1_
 62
    4
 10
814.22959716216678
 20
631.15145000983443
 40
5
 41
1
 50
0
  1
43
  0
CIRCLE
  8
_0-0_FRF74-1309
  6
CONTINUOUS
 62
    7
 10
815.82115837319816
 20
830.20276050491884
 40
32.500000000000007
  0
ARC
  8
_0-0_FRF74-1309
  6
CONTINUOUS
 62
    7
 10
796.22959716216678
 20
838.20276050491907
 40
1.0000000000000251
 50
78.289292093309456
 51
180
  0
ARC
  8
_0-0_FRF74-1309
  6
CONTINUOUS
 62
    7
 10
796.22959716216667
 20
822.20276050491907
 40
1.0000000000000284
 50
180
 51
281.7107079066941
  0
LINE
  8
_0-0_FRF74-1309
  6
CONTINUOUS
 62
    7
 10
795.22959716216678
 20
838.20276050491907
 11
795.22959716216678
 21
822.20276050491907
  0
ARC
  8
_0-0_FRF74-1309
  6
CONTINUOUS
 62
    7
 10
837.22959716216678
 20
838.20276050491896
 40
1.0000000000000071
 50
0
 51
101.71070790669347
  0
ARC
  8
_0-0_FRF74-1309
  6
CONTINUOUS
 62
    7
 10
837.22959716216678
 20
822.20276050491884
 40
0.9999999999999877
 50
258.28929209330784
 51
0.0000000000000381
  0
LINE
  8
_0-0_FRF74-1309
  6
CONTINUOUS
 62
    7
 10
838.22959716216678
 20
822.20276050491884
 11
838.22959716216678
 21
838.20276050491896
  0
ARC
  8
_0-0_FRF74-1309
  6
CONTINUOUS
 62
    7
 10
816.7295971621669
 20
937.10043489618045
 40
99.999999999999886
 50
258.28929209330977
 51
281.71070790669171
  0
ARC
  8
_0-0_FRF74-1309
  6
CONTINUOUS
 62
    7
 10
816.72959716216656
 20
723.30508611365747
 40
99.999999999999886
 50
78.289292093308973
 51
101.71070790669091
  0
ARC
  8
_0-0_FRF74-1309
  6
CONTINUOUS
 62
    7
 10
815.82115837319816
 20
830.20276050491896
 40
10.5
 50
270.0000000000008
 51
317.23694610076075
  0
ARC
  8
_0-0_FRF74-1309
  6
CONTINUOUS
 62
    7
 10
815.82115837319816
 20
830.20276050491896
 40
10.499999999999975
 50
42.763053899239694
 51
136.26314651340249
  0
ARC
  8
_0-0_FRF74-1309
  6
CONTINUOUS
 62
    7
 10
815.82115837319816
 20
830.20276050491896
 40
10.500000000000012
 50
223.73685348659831
 51
270.0000000000008
  0
ARC
  8
_0-0_FRF74-1309
  6
CONTINUOUS
 62
    7
 10
815.82115837319816
 20
830.20276050491896
 40
10.04999999999994
 50
270.0000000000008
 51
315.12503976871915
  0
ARC
  8
_0-0_FRF74-1309
  6
CONTINUOUS
 62
    7
 10
815.82115837319816
 20
830.20276050491896
 40
10.049999999999992
 50
44.874960231281143
 51
134.15124018136092
  0
ARC
  8
_0-0_FRF74-1309
  6
CONTINUOUS
 62
    7
 10
815.82115837319816
 20
830.20276050491896
 40
10.049999999999969
 50
225.84875981863985
 51
270.00000000000085
  0
CIRCLE
  8
_0-0_FRF74-1309
  6
CONTINUOUS
 62
    7
 10
815.82115837319816
 20
830.20276050491896
 40
26.194773482303141
  0
CIRCLE
  8
_0-0_FRF74-1309
  6
CONTINUOUS
 62
    7
 10
815.82115837319816
 20
830.20276050491896
 40
29.299155413931949
  0
CIRCLE
  8
_0-0_FRF74-1309
  6
CONTINUOUS
 62
    7
 10
815.82115837319816
 20
830.20276050491896
 40
27.433974596215599
  0
CIRCLE
  8
_0-0_FRF74-1309
  6
CONTINUOUS
 62
    7
 10
815.82115837319816
 20
830.20276050491884
 40
32.376484541849528
  0
ARC
  8
_0-0_FRF74-1309
  6
CONTINUOUS
 62
    7
 10
815.82115837319816
 20
830.20276050491896
 40
9.9999999999999414
 50
226.1012087665483
 51
314.87259082081073
  0
ARC
  8
_0-0_FRF74-1309
  6
CONTINUOUS
 62
    7
 10
815.82115837319816
 20
830.20276050491896
 40
9.9999999999999787
 50
45.127409179190089
 51
133.89879123345202
  0
ARC
  8
_0-0_FRF74-1309
  6
CONTINUOUS
 62
    8
 10
815.82115837319816
 20
830.20276050491896
 40
14.671399380619917
 50
270.0000000000008
 51
328.89646077396054
  0
ARC
  8
_0-0_FRF74-1309
  6
CONTINUOUS
 62
    8
 10
815.82115837319816
 20
830.20276050491896
 40
14.671399380619949
 50
31.103539226040155
 51
147.92266118660194
  0
ARC
  8
_0-0_FRF74-1309
  6
CONTINUOUS
 62
    8
 10
815.82115837319816
 20
830.20276050491896
 40
14.671399380619906
 50
212.0773388133984
 51
270.0000000000008
  0
ARC
  8
_0-0_FRF74-1309
  6
CONTINUOUS
 62
    8
 10
815.82115837319816
 20
830.20276050491896
 40
16.769848738597801
 50
270.0000000000008
 51
332.01709254805672
  0
ARC
  8
_0-0_FRF74-1309
  6
CONTINUOUS
 62
    8
 10
815.82115837319816
 20
830.20276050491896
 40
16.769848738597851
 50
27.982907451943987
 51
151.04329296069804
  0
ARC
  8
_0-0_FRF74-1309
  6
CONTINUOUS
 62
    8
 10
815.82115837319816
 20
830.20276050491896
 40
16.769848738597837
 50
208.95670703930244
 51
270.0000000000008
  0
ARC
  8
_0-0_FRF74-1309
  6
CONTINUOUS
 62
    8
 10
815.82115837319816
 20
830.20276050491896
 40
15.596492097094725
 50
270.00000000000068
 51
330.40949822726492
  0
ARC
  8
_0-0_FRF74-1309
  6
CONTINUOUS
 62
    8
 10
815.82115837319816
 20
830.20276050491896
 40
15.596492097094771
 50
29.590501772736033
 51
149.43569863990624
  0
ARC
  8
_0-0_FRF74-1309
  6
CONTINUOUS
 62
    8
 10
815.82115837319816
 20
830.20276050491896
 40
15.596492097094739
 50
210.56430136009419
 51
270.00000000000074
  0
ARC
  8
_0-0_FRF74-1309
  6
CONTINUOUS
 62
    8
 10
815.82115837319816
 20
830.20276050491896
 40
20.998575340375041
 50
270.0000000000008
 51
335.88745158007453
  0
ARC
  8
_0-0_FRF74-1309
  6
CONTINUOUS
 62
    8
 10
815.82115837319816
 20
830.20276050491896
 40
20.998575340375076
 50
24.112548419926178
 51
154.91365199271596
  0
ARC
  8
_0-0_FRF74-1309
  6
CONTINUOUS
 62
    8
 10
815.82115837319816
 20
830.20276050491896
 40
20.998575340375073
 50
168.70070217247203
 51
191.29929782752845
  0
ARC
  8
_0-0_FRF74-1309
  6
CONTINUOUS
 62
    8
 10
815.82115837319816
 20
830.20276050491896
 40
20.998575340375048
 50
205.08634800728458
 51
270.0000000000008
  0
ARC
  8
_0-0_FRF74-1309
  6
CONTINUOUS
 62
    8
 10
815.82115837319816
 20
830.20276050491896
 40
22.779881782596007
 50
270.0000000000008
 51
336.92543722443395
  0
ARC
  8
_0-0_FRF74-1309
  6
CONTINUOUS
 62
    8
 10
815.82115837319816
 20
830.20276050491896
 40
22.779881782596036
 50
349.63904280582079
 51
10.360957194179912
  0
ARC
  8
_0-0_FRF74-1309
  6
CONTINUOUS
 62
    8
 10
815.82115837319816
 20
830.20276050491896
 40
22.779881782596014
 50
23.074562775566843
 51
270.0000000000008
  0
ARC
  8
_0-0_FRF74-1309
  6
CONTINUOUS
 62
    8
 10
815.82115837319816
 20
830.20276050491896
 40
21.850480947161685
 50
270.00000000000068
 51
336.41666676998784
  0
ARC
  8
_0-0_FRF74-1309
  6
CONTINUOUS
 62
    8
 10
815.82115837319816
 20
830.20276050491896
 40
21.850480947161703
 50
23.583333230012943
 51
155.85542107685879
  0
ARC
  8
_0-0_FRF74-1309
  6
CONTINUOUS
 62
    8
 10
815.82115837319816
 20
830.20276050491896
 40
21.850480947161685
 50
160.45598910612128
 51
199.54401089387932
  0
ARC
  8
_0-0_FRF74-1309
  6
CONTINUOUS
 62
    8
 10
815.82115837319816
 20
830.20276050491896
 40
21.850480947161692
 50
204.14457892314218
 51
270.0000000000008
  0
ARC
  8
_0-0_FRF74-1309
  6
CONTINUOUS
 62
    7
 10
847.82115837319816
 20
713.64365616755731
 40
0.4999999999999993
 50
318.84822781470552
 51
90.000000000000028
  0
ARC
  8
_0-0_FRF74-1309
  6
CONTINUOUS
 62
    7
 10
783.82115837319816
 20
713.64365616755731
 40
0.5000000000000142
 50
90
 51
221.15177218529641
  0
ARC
  8
_0-0_FRF74-1309
  6
CONTINUOUS
 62
    7
 10
857.6097564612794
 20
705.08892955181966
 40
12.500000000000011
 50
138.84822781466724
 51
177.64500408483383
  0
ARC
  8
_0-0_FRF74-1309
  6
CONTINUOUS
 62
    7
 10
774.0325602851168
 20
705.08892955181966
 40
12.500000000000014
 50
2.3549959151661839
 51
41.151772185332739
  0
ARC
  8
_0-0_FRF74-1309
  6
CONTINUOUS
 62
    7
 10
844.12115837319823
 20
705.64365616755731
 40
0.9999999999999857
 50
270
 51
357.64500408483889
  0
ARC
  8
_0-0_FRF74-1309
  6
CONTINUOUS
 62
    7
 10
787.52115837319798
 20
705.64365616755731
 40
0.9999999999999831
 50
182.35499591516367
 51
270.00000000000119
  0
LINE
  8
_0-0_FRF74-1309
  6
CONTINUOUS
 62
    7
 10
787.52115837319798
 20
704.64365616755731
 11
844.12115837319823
 21
704.64365616755731
  0
LINE
  8
_0-0_FRF74-1309
  6
CONTINUOUS
 62
    7
 10
791.93291199330247
 20
704.64365616755708
 11
793.04127659060214
 21
704.19783565350872
  0
LINE
  8
_0-0_FRF74-1309
  6
CONTINUOUS
 62
    7
 10
838.60104015579418
 20
704.19783565350872
 11
839.70940475309374
 21
704.64365616755708
  0
ARC
  8
_0-0_FRF74-1309
  6
CONTINUOUS
 62
    7
 10
838.32115837319816
 20
704.89365616755731
 40
0.7499999999999786
 50
270
 51
291.91160538189894
  0
ARC
  8
_0-0_FRF74-1309
  6
CONTINUOUS
 62
    7
 10
793.32115837319816
 20
704.89365616755731
 40
0.749999999999982
 50
248.08839461810106
 51
270
  0
LINE
  8
_0-0_FRF74-1309
  6
CONTINUOUS
 62
    7
 10
793.32115837319816
 20
704.14365616755731
 11
838.32115837319816
 21
704.14365616755731
  0
LINE
  8
_0-0_FRF74-1309
  6
CONTINUOUS
 62
    7
 10
797.39953131622633
 20
704.1436561675572
 11
799.05130963460033
 21
703.68075344231602
  0
LINE
  8
_0-0_FRF74-1309
  6
CONTINUOUS
 62
    7
 10
832.59100711179599
 20
703.68075344231602
 11
834.24278543016987
 21
704.1436561675572
  0
ARC
  8
_0-0_FRF74-1309
  6
CONTINUOUS
 62
    7
 10
832.32115837319816
 20
704.64365616755731
 40
1.0000000000000071
 50
270.00000000000125
 51
285.65526611793877
  0
ARC
  8
_0-0_FRF74-1309
  6
CONTINUOUS
 62
    7
 10
799.32115837319816
 20
704.64365616755731
 40
1.0000000000000155
 50
254.34473388206268
 51
270.00000000000114
  0
LINE
  8
_0-0_FRF74-1309
  6
CONTINUOUS
 62
    7
 10
799.32115837319816
 20
703.64365616755731
 11
832.32115837319816
 21
703.64365616755731
  0
LINE
  8
_0-0_FRF74-1309
  6
CONTINUOUS
 62
    7
 10
803.89063639707661
 20
703.6436561675572
 11
805.32115837319816
 21
703.14365616755731
  0
LINE
  8
_0-0_FRF74-1309
  6
CONTINUOUS
 62
    7
 10
826.32115837319816
 20
703.14365616755731
 11
827.75168034931971
 21
703.6436561675572
  0
ARC
  8
_0-0_FRF74-1309
  6
CONTINUOUS
 62
    7
 10
796.22959716216678
 20
677.14365616755731
 40
1.0000000000000087
 50
78.289292093308006
 51
180
  0
ARC
  8
_0-0_FRF74-1309
  6
CONTINUOUS
 62
    7
 10
796.22959716216678
 20
661.14365616755731
 40
1.0000000000000071
 50
180
 51
281.71070790669319
  0
LINE
  8
_0-0_FRF74-1309
  6
CONTINUOUS
 62
    7
 10
795.22959716216678
 20
677.14365616755731
 11
795.22959716216678
 21
661.14365616755731
  0
ARC
  8
_0-0_FRF74-1309
  6
CONTINUOUS
 62
    7
 10
837.22959716216678
 20
677.14365616755731
 40
1.0000000000000071
 50
0
 51
101.71070790669319
  0
ARC
  8
_0-0_FRF74-1309
  6
CONTINUOUS
 62
    7
 10
837.22959716216678
 20
661.14365616755731
 40
1.0000000000000087
 50
258.28929209330795
 51
0
  0
LINE
  8
_0-0_FRF74-1309
  6
CONTINUOUS
 62
    7
 10
838.22959716216678
 20
661.14365616755731
 11
838.22959716216678
 21
677.14365616755731
  0
ARC
  8
_0-0_FRF74-1309
  6
CONTINUOUS
 62
    7
 10
816.72959716216678
 20
776.04133055881891
 40
99.999999999999972
 50
258.28929209330994
 51
267.18847034289456
  0
ARC
  8
_0-0_FRF74-1309
  6
CONTINUOUS
 62
    7
 10
816.72959716216678
 20
776.04133055881891
 40
99.999999999999943
 50
271.76586840360346
 51
281.71070790669177
  0
ARC
  8
_0-0_FRF74-1309
  6
CONTINUOUS
 62
    7
 10
816.72959716216678
 20
562.24598177629582
 40
99.999999999999915
 50
78.289292093309044
 51
101.71070790669098
  0
ARC
  8
_0-0_FRF74-1309
  6
CONTINUOUS
 62
    7
 10
804.80380966628775
 20
697.23053502821415
 40
5.9999999999999369
 50
6.814709115034729
 51
80.237871905051904
  0
ARC
  8
_0-0_FRF74-1309
  6
CONTINUOUS
 62
    7
 10
826.83850708010846
 20
697.23053502821415
 40
5.9999999999999369
 50
99.762128094948082
 51
173.1852908849653
  0
ARC
  8
_0-0_FRF74-1309
  6
CONTINUOUS
 62
    7
 10
661.82115837319816
 20
680.14365616755731
 40
149.99999999999991
 50
0
 51
6.8147091150192409
  0
ARC
  8
_0-0_FRF74-1309
  6
CONTINUOUS
 62
    7
 10
969.82115837319793
 20
680.14365616755731
 40
149.99999999999989
 50
173.18529088498079
 51
180
  0
LINE
  8
_0-0_FRF74-1309
  6
CONTINUOUS
 62
    7
 10
811.82115837319816
 20
680.14365616755731
 11
811.82115837319816
 21
676.14853906178621
  0
LINE
  8
_0-0_FRF74-1309
  6
CONTINUOUS
 62
    7
 10
819.82115837319816
 20
676.0891307367117
 11
819.82115837319816
 21
680.14365616755731
  0
LINE
  8
_0-0_FRF74-1309
  6
CONTINUOUS
 62
    7
 10
847.82115837319816
 20
714.14365616755731
 11
783.82115837319793
 21
714.14365616755731
  0
LINE
  8
_0-0_FRF74-1309
  6
CONTINUOUS
 62
    7
 10
826.32115837319816
 20
703.14365616755731
 11
805.32115837319816
 21
703.14365616755731
  0
LINE
  8
_0-0_FRF74-1309
  6
CONTINUOUS
 62
    8
 10
838.60104015579418
 20
704.19783565350872
 11
793.04127659060214
 21
704.19783565350872
  0
LINE
  8
_0-0_FRF74-1309
  6
CONTINUOUS
 62
    8
 10
832.59100711179599
 20
703.68075344231602
 11
799.05130963460033
 21
703.68075344231602
  0
ARC
  8
_0-0_FRF74-1309
  6
CONTINUOUS
 62
    7
 10
942.65954217819694
 20
862.20276050491884
 40
0.5000000000000313
 50
48.848227814708636
 51
180
  0
ARC
  8
_0-0_FRF74-1309
  6
CONTINUOUS
 62
    7
 10
951.21426879393448
 20
871.99135859300031
 40
12.500000000000018
 50
228.84822781466869
 51
267.64500408483553
  0
ARC
  8
_0-0_FRF74-1309
  6
CONTINUOUS
 62
    7
 10
950.65954217819706
 20
858.50276050491902
 40
0.9999999999999857
 50
0.0000000000024443
 51
87.645004084838831
  0
LINE
  8
_0-0_FRF74-1309
  6
CONTINUOUS
 62
    7
 10
951.65954217819785
 20
801.90276050491889
 11
951.65954217819706
 21
858.50276050491902
  0
LINE
  8
_0-0_FRF74-1309
  6
CONTINUOUS
 62
    7
 10
951.65954217819763
 20
806.31451412502281
 11
952.10536269224633
 21
807.42287872232293
  0
LINE
  8
_0-0_FRF74-1309
  6
CONTINUOUS
 62
    7
 10
952.10536269224565
 20
852.98264228751509
 11
951.65954217819706
 21
854.0910068848151
  0
ARC
  8
_0-0_FRF74-1309
  6
CONTINUOUS
 62
    7
 10
951.40954217819706
 20
852.70276050491896
 40
0.75
 50
0.0000000000032401
 51
21.911605381898937
  0
ARC
  8
_0-0_FRF74-1309
  6
CONTINUOUS
 62
    7
 10
951.40954217819774
 20
807.70276050491896
 40
0.7500000000000056
 50
338.08839461810533
 51
0.0000000000032473
  0
LINE
  8
_0-0_FRF74-1309
  6
CONTINUOUS
 62
    7
 10
952.15954217819774
 20
807.70276050491896
 11
952.15954217819706
 21
852.70276050491896
  0
LINE
  8
_0-0_FRF74-1309
  6
CONTINUOUS
 62
    7
 10
952.15954217819763
 20
811.78113344794656
 11
952.62244490343892
 21
813.43291176632124
  0
LINE
  8
_0-0_FRF74-1309
  6
CONTINUOUS
 62
    7
 10
952.62244490343846
 20
846.97260924351679
 11
952.15954217819706
 21
848.62438756189135
  0
ARC
  8
_0-0_FRF74-1309
  6
CONTINUOUS
 62
    7
 10
951.65954217819717
 20
846.70276050491896
 40
0.9999999999999431
 50
0
 51
15.655266117937115
  0
ARC
  8
_0-0_FRF74-1309
  6
CONTINUOUS
 62
    7
 10
951.65954217819763
 20
813.70276050491896
 40
0.9999999999999778
 50
344.3447338820659
 51
0.0000000000024426
  0
LINE
  8
_0-0_FRF74-1309
  6
CONTINUOUS
 62
    7
 10
952.65954217819763
 20
813.70276050491896
 11
952.65954217819717
 21
846.70276050491896
  0
LINE
  8
_0-0_FRF74-1309
  6
CONTINUOUS
 62
    7
 10
952.65954217819751
 20
818.27223852879695
 11
953.15954217819751
 21
819.70276050491896
  0
LINE
  8
_0-0_FRF74-1309
  6
CONTINUOUS
 62
    7
 10
953.15954217819728
 20
840.70276050491896
 11
952.65954217819717
 21
842.13328248104108
  0
CIRCLE
  8
_0-0_FRF74-1309
  6
CONTINUOUS
 62
    7
 10
987.1595421781974
 20
830.20276050491896
 40
9
  0
ARC
  8
_0-0_FRF74-1309
  6
CONTINUOUS
 62
    7
 10
959.07266331754067
 20
819.18541179800854
 40
5.9999999999999396
 50
96.81470911503493
 51
170.23787190505169
  0
ARC
  8
_0-0_FRF74-1309
  6
CONTINUOUS
 62
    7
 10
959.07266331754067
 20
841.22010921182937
 40
5.9999999999999263
 50
189.76212809494874
 51
263.18529088496587
  0
ARC
  8
_0-0_FRF74-1309
  6
CONTINUOUS
 62
    7
 10
976.1595421781974
 20
676.20276050491907
 40
149.99999999999989
 50
90
 51
96.814709115019198
  0
ARC
  8
_0-0_FRF74-1309
  6
CONTINUOUS
 62
    7
 10
976.1595421781974
 20
984.20276050491884
 40
149.99999999999991
 50
263.18529088498161
 51
270.0000000000008
  0
LINE
  8
_0-0_FRF74-1309
  6
CONTINUOUS
 62
    7
 10
976.1595421781974
 20
826.20276050491896
 11
979.09728442989876
 21
826.20276050491896
  0
LINE
  8
_0-0_FRF74-1309
  6
CONTINUOUS
 62
    7
 10
979.09728442989876
 20
834.20276050491907
 11
976.1595421781974
 21
834.20276050491907
  0
LINE
  8
_0-0_FRF74-1309
  6
CONTINUOUS
 62
    7
 10
942.15954217819785
 20
798.20276050491884
 11
942.15954217819694
 21
862.20276050491907
  0
LINE
  8
_0-0_FRF74-1309
  6
CONTINUOUS
 62
    7
 10
953.15954217819728
 20
840.70276050491896
 11
953.15954217819751
 21
819.70276050491896
  0
CIRCLE
  8
_0-0_FRF74-1309
  6
CONTINUOUS
 62
    7
 10
987.1595421781974
 20
830.20276050491896
 40
7.1759062493225372
  0
CIRCLE
  8
_0-0_FRF74-1309
  6
CONTINUOUS
 62
    7
 10
987.1595421781974
 20
830.20276050491896
 40
6.6685937489981342
  0
LINE
  8
_0-0_FRF74-1309
  6
CONTINUOUS
 62
    8
 10
952.10536269224565
 20
852.98264228751509
 11
952.10536269224633
 21
807.42287872232293
  0
LINE
  8
_0-0_FRF74-1309
  6
CONTINUOUS
 62
    8
 10
952.62244490343846
 20
846.97260924351679
 11
952.62244490343892
 21
813.43291176632124
  0
ARC
  8
_0-0_FRF74-1309
  6
CONTINUOUS
 62
    7
 10
942.65954217819944
 20
798.20276050491884
 40
0.5000000000000313
 50
180.00000000000003
 51
311.15177218529141
  0
ARC
  8
_0-0_FRF74-1309
  6
CONTINUOUS
 62
    7
 10
951.21426879393698
 20
788.41416241683737
 40
12.500000000000018
 50
92.354995915164466
 51
131.15177218533131
  0
ARC
  8
_0-0_FRF74-1309
  6
CONTINUOUS
 62
    7
 10
950.65954217819956
 20
801.90276050491866
 40
0.9999999999999857
 50
272.35499591516117
 51
359.99999999999756
  0
ARC
  8
_0-0_FRF74-1309
  6
CONTINUOUS
 62
    7
 10
942.65954217819774
 20
798.20276050491907
 40
0.5000000000000313
 50
180.00000000000003
 51
311.15177218529141
  0
ARC
  8
_0-0_FRF74-1309
  6
CONTINUOUS
 62
    7
 10
951.21426879393528
 20
788.4141624168376
 40
12.500000000000018
 50
92.354995915164466
 51
131.15177218533131
  0
ARC
  8
_0-0_FRF74-1309
  6
CONTINUOUS
 62
    7
 10
950.65954217819785
 20
801.90276050491889
 40
0.9999999999999857
 50
272.35499591516117
 51
359.99999999999756
  0
LINE
  8
_0-2_
  6
CONTINUOUS
 62
    7
 10
811.82115837319816
 20
676.14853906178621
 11
811.82115837319816
 21
676.14853906178621
  0
LINE
  8
_0-2_
  6
CONTINUOUS
 62
    7
 10
811.82115837319816
 20
676.14853906178621
 11
811.88192736114934
 21
675.87070197751916
  0
LINE
  8
_0-2_
  6
CONTINUOUS
 62
    7
 10
811.88192736114934
 20
675.87070197751916
 11
812.06238789005454
 21
675.60130683246518
  0
LINE
  8
_0-2_
  6
CONTINUOUS
 62
    7
 10
812.06238789005454
 20
675.60130683246518
 11
812.35705675806037
 21
675.34853906178625
  0
LINE
  8
_0-2_
  6
CONTINUOUS
 62
    7
 10
812.35705675806037
 20
675.34853906178625
 11
812.75698060072227
 21
675.12007888628773
  0
LINE
  8
_0-2_
  6
CONTINUOUS
 62
    7
 10
812.75698060072227
 20
675.12007888628773
 11
813.25000793445201
 21
674.92286795279585
  0
LINE
  8
_0-2_
  6
CONTINUOUS
 62
    7
 10
813.25000793445201
 20
674.92286795279585
 11
813.82115837319816
 21
674.76289841573112
  0
LINE
  8
_0-2_
  6
CONTINUOUS
 62
    7
 10
813.82115837319816
 20
674.76289841573112
 11
814.45307779989548
 21
674.64503086852881
  0
LINE
  8
_0-2_
  6
CONTINUOUS
 62
    7
 10
814.45307779989548
 20
674.64503086852881
 11
815.12656566253042
 21
674.5728466569667
  0
LINE
  8
_0-2_
  6
CONTINUOUS
 62
    7
 10
815.12656566253042
 20
674.5728466569667
 11
815.82115837319816
 21
674.54853906178619
  0
LINE
  8
_0-2_
  6
CONTINUOUS
 62
    7
 10
815.82115837319816
 20
674.54853906178619
 11
816.51575108386589
 21
674.5728466569667
  0
LINE
  8
_0-2_
  6
CONTINUOUS
 62
    7
 10
816.51575108386589
 20
674.5728466569667
 11
817.18923894650084
 21
674.64503086852881
  0
LINE
  8
_0-2_
  6
CONTINUOUS
 62
    7
 10
817.18923894650084
 20
674.64503086852881
 11
817.82115837319816
 21
674.76289841573112
  0
LINE
  8
_0-2_
  6
CONTINUOUS
 62
    7
 10
817.82115837319816
 20
674.76289841573112
 11
818.3923088119443
 21
674.92286795279585
  0
LINE
  8
_0-2_
  6
CONTINUOUS
 62
    7
 10
818.3923088119443
 20
674.92286795279585
 11
818.88533614567405
 21
675.12007888628773
  0
LINE
  8
_0-2_
  6
CONTINUOUS
 62
    7
 10
818.88533614567405
 20
675.12007888628773
 11
819.28525998833595
 21
675.34853906178625
  0
LINE
  8
_0-2_
  6
CONTINUOUS
 62
    7
 10
819.28525998833595
 20
675.34853906178625
 11
819.57992885634178
 21
675.60130683246518
  0
LINE
  8
_0-2_
  6
CONTINUOUS
 62
    7
 10
819.57992885634178
 20
675.60130683246518
 11
819.76038938524698
 21
675.87070197751916
  0
LINE
  8
_0-2_
  6
CONTINUOUS
 62
    7
 10
819.76038938524698
 20
675.87070197751916
 11
819.82115837319816
 21
676.14853906178621
  0
LINE
  8
_0-2_
  6
CONTINUOUS
 62
    7
 10
819.82115837319816
 20
676.14853906178621
 11
819.82115837319816
 21
676.14853906178621
  0
TEXT
  8
_0-2_
 62
    7
 10
704.52645968509307
 20
506.99149662678974
 40
6
 41
1
 50
0
  1
フック　-LANGBERGER,Runua-
  0
TEXT
  8
_0-2_
 62
    7
 10
703.67474214665845
 20
487.32699100456836
 40
6
 41
1
 50
0
  1
クローム
  0
ENDSEC
  0
EOF
