  0
SECTION
  2
HEADER
  9
$ACADVER
  1
AC1009
  9
$INSBASE
 10
0
 20
0
 30
0
  9
$EXTMIN
 10
0
 20
0
  9
$EXTMAX
 10
4205
 20
2970
  9
$LIMMIN
 10
0
 20
0
  9
$LIMMAX
 10
4205
 20
2970
  9
$LTSCALE
 40
5
  0
ENDSEC
  0
SECTION
  2
TABLES
  0
TABLE
  2
LTYPE
 70
     9
  0
LTYPE
  2
CONTINUOUS
 70
    64
  3
実線
 72
    65
 73
     0
 40
0.0
  0
LTYPE
  2
DASHED1
 70
    64
  3
--  --  --  --  --  --  --  --  
 72
    65
 73
     2
 40
2.5
 49
1.25
 49
-1.25
  0
LTYPE
  2
DASHED2
 70
    64
  3
----    ----    ----    ----    
 72
    65
 73
     2
 40
5.0
 49
2.5
 49
-2.5
  0
LTYPE
  2
DASHED3
 70
    64
  3
------  ------  ------  ------  
 72
    65
 73
     2
 40
5.0
 49
3.75
 49
-1.25
  0
LTYPE
  2
CENTER1
 70
    64
  3
----- - ----- - ----- - ----- - 
 72
    65
 73
     4
 40
10.0
 49
6.25
 49
-1.25
 49
1.25
 49
-1.25
  0
LTYPE
  2
CENTER2
 70
    64
  3
----------  --  ----------  --  
 72
    65
 73
     4
 40
20.0
 49
12.5
 49
-2.5
 49
2.5
 49
-2.5
  0
LTYPE
  2
PHANTOM1
 70
    64
  3
--- - - --- - - --- - - --- - - 
 72
    65
 73
     6
 40
10.0
 49
3.25
 49
-1.25
 49
1.25
 49
-1.25
 49
1.25
 49
-1.25
  0
LTYPE
  2
PHANTOM2
 70
    64
  3
--------  -  -  --------  -  -  
 72
    65
 73
     6
 40
20.0
 49
10.0
 49
-2.5
 49
1.25
 49
-2.5
 49
1.25
 49
-2.5
  0
LTYPE
  2
DOT
 70
    64
  3
-   -   -   -   -   -   -   -   
 72
    65
 73
     2
 40
2.5
 49
0.625
 49
-1.875
  0
LTYPE
  2
DUMMY
 70
    64
  3
ダミー
 72
    65
 73
     0
 40
0.0
  0
LTYPE
  2
RAND1
 70
    64
  3
ランダム線1
 72
    65
 73
     4
 40
10.0
 49
1.0
 49
-2.0
 49
3.0
 49
-4.0
  0
LTYPE
  2
RAND2
 70
    64
  3
ランダム線2
 72
    65
 73
     4
 40
14.0
 49
2.0
 49
-3.0
 49
4.0
 49
-5.0
  0
LTYPE
  2
RAND3
 70
    64
  3
ランダム線3
 72
    65
 73
     4
 40
18.0
 49
3.0
 49
-4.0
 49
5.0
 49
-6.0
  0
LTYPE
  2
RAND4
 70
    64
  3
ランダム線4
 72
    65
 73
     4
 40
22.0
 49
4.0
 49
-5.0
 49
6.0
 49
-7.0
  0
LTYPE
  2
RAND5
 70
    64
  3
ランダム線5
 72
    65
 73
     4
 40
26.0
 49
5.0
 49
-6.0
 49
7.0
 49
-8.0
  0
LTYPE
  2
LONG1
 70
    64
  3
----------  --  ----------  --  
 72
    65
 73
     4
 40
40.0
 49
32.5
 49
-2.5
 49
2.5
 49
-2.5
  0
LTYPE
  2
LONG2
 70
    64
  3
--------  -  -  --------  -  -  
 72
    65
 73
     6
 40
40.0
 49
30.0
 49
-2.5
 49
1.25
 49
-2.5
 49
1.25
 49
-2.5
  0
LTYPE
  2
LONG3
 70
    64
  3
+++++++++++++++..+++++++++++++++
 72
    65
 73
     2
 40
40.0
 49
37.5
 49
-2.5
  0
LTYPE
  2
LONG4
 70
    64
  3
+++++++++++++++..+++++++++++++++
 72
    65
 73
     2
 40
80.0
 49
75.0
 49
-5.0
  0
LTYPE
  2
LONG5
 70
    64
  3
----------  --  ----------  --  
 72
    65
 73
     4
 40
60.0
 49
37.5
 49
-7.5
 49
7.5
 49
-7.5
  0
LTYPE
  2
dashed
 70
   64
  3
-------   -------------   ------
 72
   65
 73
    2
 40
7.5
 49
6
 49
-1.5
  0
LTYPE
  2
dashed_spaced
 70
   64
  3
----        --------        ----
 72
   65
 73
    2
 40
12
 49
6
 49
-6
  0
LTYPE
  2
long_dashed_dotted
 70
   64
  3
------------- --- --------------
 72
   65
 73
    4
 40
15.25
 49
12
 49
-1.5
 49
0.25
 49
-1.5
  0
LTYPE
  2
long_dashed_double-dotted
 70
   64
  3
----------- --- --- ------------
 72
   65
 73
    6
 40
17
 49
12
 49
-1.5
 49
0.25
 49
-1.5
 49
0.25
 49
-1.5
  0
LTYPE
  2
long_dashed_triplicate-dotted
 70
   64
  3
--------- --- --- --- ----------
 72
   65
 73
    8
 40
18.75
 49
12
 49
-1.5
 49
0.25
 49
-1.5
 49
0.25
 49
-1.5
 49
0.25
 49
-1.5
  0
LTYPE
  2
dotted
 70
   64
  3
   -       -       -       -    
 72
   65
 73
    2
 40
1.75
 49
0.25
 49
-1.5
  0
LTYPE
  2
chain
 70
   64
  3
-------------- -- --------------
 72
   65
 73
    4
 40
18.5
 49
12
 49
-1.5
 49
3.5
 49
-1.5
  0
LTYPE
  2
chain_double_dash
 70
   64
  3
------------ -- -- -------------
 72
   65
 73
    6
 40
23.5
 49
12
 49
-1.5
 49
3.5
 49
-1.5
 49
3.5
 49
-1.5
  0
LTYPE
  2
dashed_dotted
 70
   64
  3
-----------     -     ----------
 72
   65
 73
    4
 40
9.25
 49
6
 49
-1.5
 49
0.25
 49
-1.5
  0
LTYPE
  2
double-dashed_dotted
 70
   64
  3
------   -----------   -   -----
 72
   65
 73
    6
 40
16.75
 49
6
 49
-1.5
 49
6
 49
-1.5
 49
0.25
 49
-1.5
  0
LTYPE
  2
dashed_double-dotted
 70
   64
  3
---------    -    -    ---------
 72
   65
 73
    6
 40
11
 49
6
 49
-1.5
 49
0.25
 49
-1.5
 49
0.25
 49
-1.5
  0
LTYPE
  2
double-dashed_double-dotted
 70
   64
  3
-----   ---------   -   -   ----
 72
   65
 73
    8
 40
18.5
 49
6
 49
-1.5
 49
6
 49
-1.5
 49
0.25
 49
-1.5
 49
0.25
 49
-1.5
  0
LTYPE
  2
dashed_triplicate-dotted
 70
   64
  3
-------    -    -    -    ------
 72
   65
 73
    8
 40
12.75
 49
6
 49
-1.5
 49
0.25
 49
-1.5
 49
0.25
 49
-1.5
 49
0.25
 49
-1.5
  0
LTYPE
  2
double-dashed_triplicate-dotted
 70
   64
  3
-----  ---------  -  -  -  -----
 72
   65
 73
   10
 40
20.25
 49
6
 49
-1.5
 49
6
 49
-1.5
 49
0.25
 49
-1.5
 49
0.25
 49
-1.5
 49
0.25
 49
-1.5
  0
LTYPE
  2
undefined
 70
   64
  3
--------------------------------
 72
   65
 73
    0
 40
0
  0
ENDTAB
  0
TABLE
  2
STYLE
  5
3
100
AcDbSymbolTable
 70
     1
  0
STYLE
  5
10
100
AcDbSymbolTableRecord
100
AcDbTextStyleTableRecord
  2
STANDARD
 70
     0
 40
0.0
 41
1.0
 50
0.0
 71
     0
 42
0.2
  3
txt
  4
bigfont.shx
  0
STYLE
  5
26
100
AcDbSymbolTableRecord
100
AcDbTextStyleTableRecord
  2
TATEGAKI
 70
    68
 40
0.0
 41
1.0
 50
0.0
 71
     0
 42
1.0
  3
txt
  4
bigfont.shx
  0
ENDTAB
  0
TABLE
  2
LAYER
 70
    4
  0
LAYER
  2
_0-0_
 70
   64
 62
    7
  6
CONTINUOUS
  0
LAYER
  2
_0-1_
 70
   64
 62
    7
  6
CONTINUOUS
  0
LAYER
  2
_0-2_FRF74-1701
 70
   64
 62
    7
  6
CONTINUOUS
  0
LAYER
  2
ADD_LINE
 70
   64
 62
    7
  6
CONTINUOUS
  0
ENDTAB
  0
ENDSEC
  0
SECTION
  2
BLOCKS
  0
ENDSEC
  0
SECTION
  2
ENTITIES
  0
LINE
  8
_0-2_FRF74-1701
  6
CONTINUOUS
 62
    7
 10
2552.566283385414
 20
1056.1979530071658
 11
1577.5662833854144
 21
1056.1979530071658
  0
LINE
  8
_0-2_FRF74-1701
  6
CONTINUOUS
 62
    7
 10
2552.5662833856559
 20
2371.1979530071658
 11
1577.5662833856554
 21
2371.1979530071658
  0
LINE
  8
_0-2_FRF74-1701
  6
CONTINUOUS
 62
    7
 10
1577.5662833856554
 20
2371.1979530071658
 11
1577.5662833856554
 21
971.19795300716578
  0
LINE
  8
_0-2_FRF74-1701
  6
CONTINUOUS
 62
    7
 10
1577.5662833856554
 20
971.19795300716578
 11
2552.5662833856559
 21
971.19795300716578
  0
LINE
  8
_0-2_FRF74-1701
  6
CONTINUOUS
 62
    7
 10
2552.5662833856559
 20
971.19795300716578
 11
2552.5662833856559
 21
2371.1979530071658
  0
LINE
  8
_0-2_FRF74-1701
  6
CONTINUOUS
 62
    7
 10
2552.566283385414
 20
1098.6979530071658
 11
1577.5662833854144
 21
1098.6979530071658
  0
LINE
  8
_0-2_FRF74-1701
  6
CONTINUOUS
 62
    7
 10
2552.5662833856559
 20
1013.6979530071658
 11
2176.0662833856559
 21
1013.6979530071658
  0
LINE
  8
_0-2_FRF74-1701
  6
CONTINUOUS
 62
    7
 10
2427.066283385785
 20
1013.6979530071658
 11
2427.066283385785
 21
1056.1979530071658
  0
LINE
  8
_0-2_FRF74-1701
  6
CONTINUOUS
 62
    7
 10
2301.566283385785
 20
1013.6979530071658
 11
2301.566283385785
 21
1056.1979530071658
  0
LINE
  8
_0-2_FRF74-1701
  6
CONTINUOUS
 62
    7
 10
2176.066283385785
 20
971.19795300716578
 11
2176.066283385785
 21
1098.6979530071658
  0
TEXT
  8
_0-2_FRF74-1701
 62
    7
 10
2196.3388549397118
 20
983.13221232091132
 40
15
 41
1
 50
0
  1
大洋金物株式会社 ティーフォルム事業部
  0
TEXT
  8
_0-2_FRF74-1701
 62
    7
 10
1582.8750828572131
 20
1080.7343511503877
 40
11
 41
1
 50
0
  1
品名
  0
TEXT
  8
_0-2_FRF74-1701
 62
    7
 10
1584.6653190366922
 20
1037.1766457401898
 40
11
 41
1
 50
0
  1
仕様
  0
TEXT
  8
_0-2_FRF74-1701
 62
    7
 10
2183.0590642652819
 20
1080.1315954814579
 40
11
 41
1
 50
0
  1
品番
  0
TEXT
  8
_0-2_FRF74-1701
 62
    7
 10
2183.0568574992371
 20
1037.182349606808
 40
11
 41
1
 50
0
  1
重量
  0
TEXT
  8
_0-2_FRF74-1701
 62
    7
 10
2308.1776163454042
 20
1037.5114084130682
 40
11
 41
1
 50
0
  1
容量
  0
TEXT
  8
_0-2_FRF74-1701
 62
    7
 10
2433.6646030852935
 20
1037.4114153200876
 40
11
 41
1
 50
0
  1
縮尺
  0
TEXT
  8
_0-2_FRF74-1701
 62
    7
 10
2211.5256034060785
 20
1065.334252852228
 40
15
 41
1
 50
0
  1
FRF74-1701
  0
TEXT
  8
_0-2_FRF74-1701
 62
    7
 10
1578.1476923649509
 20
947.26970852156592
 40
15
 41
1
 50
0
  1
120910S
  0
TEXT
  8
_0-2_FRF74-1701
 62
    7
 10
1614.6943364596746
 20
1066.3317848654224
 40
15
 41
1
 50
0
  1
タオルバー　-LANGBERGER,Viola-
  0
TEXT
  8
_0-2_FRF74-1701
 62
    7
 10
1614.1492157603068
 20
1016.1471437593724
 40
15
 41
1
 50
0
  1
クローム
  0
LINE
  8
_0-1_
  6
CONTINUOUS
 62
    4
 10
2355.2010373489434
 20
1547.9983122113158
 11
2320.2010373489434
 21
1547.9983122113158
  0
LINE
  8
_0-1_
  6
CONTINUOUS
 62
    4
 10
2355.2010373489434
 20
1547.9983122113158
 11
2355.2010373489434
 21
1619.9983122113156
  0
POINT
  8
_0-1_
 62
    7
 10
2355.2010373489434
 20
1547.9983122113158
  0
POINT
  8
_0-1_
 62
    7
 10
2355.2010373489434
 20
1619.9983122113156
  0
LINE
  8
_0-1_
  6
CONTINUOUS
 62
    4
 10
2355.2010373489434
 20
1619.9983122113156
 11
2312.2010373489434
 21
1619.9983122113156
  0
TEXT
  8
_0-1_
 62
    4
 10
2352.7010373489434
 20
1577.7483122113156
 40
12.5
 41
1
 50
90
  1
72
  0
LINE
  8
_0-1_
  6
CONTINUOUS
 62
    4
 10
2278.2010373489434
 20
1670.9983122113158
 11
1678.2010373489434
 21
1670.9983122113158
  0
POINT
  8
_0-1_
 62
    7
 10
2278.2010373489434
 20
1670.9983122113158
  0
POINT
  8
_0-1_
 62
    7
 10
1678.2010373489434
 20
1670.9983122113158
  0
LINE
  8
_0-1_
  6
CONTINUOUS
 62
    4
 10
2278.2010373489434
 20
1670.9983122113158
 11
2278.2010373489434
 21
1640.9983122113156
  0
LINE
  8
_0-1_
  6
CONTINUOUS
 62
    4
 10
1678.2010373489434
 20
1670.9983122113158
 11
1678.2010373489434
 21
1644.6172726697118
  0
TEXT
  8
_0-1_
 62
    4
 10
1968.8260373489434
 20
1673.4983122113158
 40
12.5
 41
1
 50
0
  1
600
  0
LINE
  8
_0-1_
  6
CONTINUOUS
 62
    4
 10
2493.7466346490323
 20
1855.600006919773
 11
2493.7466346490323
 21
1837.600006919773
  0
POINT
  8
_0-1_
 62
    7
 10
2493.7466346490323
 20
1855.600006919773
  0
POINT
  8
_0-1_
 62
    7
 10
2493.7466346490323
 20
1837.600006919773
  0
LINE
  8
_0-1_
  6
CONTINUOUS
 62
    4
 10
2493.7466346490323
 20
1855.600006919773
 11
2477.4813434543121
 21
1855.600006919773
  0
LINE
  8
_0-1_
  6
CONTINUOUS
 62
    4
 10
2493.7466346490323
 20
1837.600006919773
 11
2477.4813434543121
 21
1837.600006919773
  0
TEXT
  8
_0-1_
 62
    4
 10
2491.2466346490323
 20
1840.350006919773
 40
12.5
 41
1
 50
90
  1
18
  0
LINE
  8
_0-1_
  6
CONTINUOUS
 62
    4
 10
2355.2010373489434
 20
1835.600006919773
 11
2355.2010373489434
 21
1857.6000068005637
  0
POINT
  8
_0-1_
 62
    7
 10
2355.2010373489434
 20
1835.600006919773
  0
POINT
  8
_0-1_
 62
    7
 10
2355.2010373489434
 20
1857.6000068005637
  0
LINE
  8
_0-1_
  6
CONTINUOUS
 62
    4
 10
2355.2010373489434
 20
1835.600006919773
 11
2320.201044625695
 21
1835.600006919773
  0
LINE
  8
_0-1_
  6
CONTINUOUS
 62
    4
 10
2355.2010373489434
 20
1857.6000068005637
 11
2320.201044625695
 21
1857.6000068005637
  0
TEXT
  8
_0-1_
 62
    4
 10
2352.7010373489434
 20
1840.3500068601684
 40
12.5
 41
1
 50
90
  1
22
  0
LINE
  8
_0-0_
  6
CONTINUOUS
 62
    7
 10
2305.201044625695
 20
1857.6000068005637
 11
2303.2010405725791
 21
1857.6000068005637
  0
LINE
  8
_0-0_
  6
CONTINUOUS
 62
    7
 10
2303.2010405725791
 20
1835.600006919773
 11
2305.201044625695
 21
1835.600006919773
  0
LINE
  8
_0-0_
  6
CONTINUOUS
 62
    7
 10
1651.2010305589988
 20
1835.600006919773
 11
1653.2010346121147
 21
1835.600006919773
  0
LINE
  8
_0-0_
  6
CONTINUOUS
 62
    7
 10
1653.2010346121147
 20
1857.6000068005637
 11
1651.2010305589988
 21
1857.6000068005637
  0
LINE
  8
_0-0_
  6
CONTINUOUS
 62
    7
 10
1653.2010346121147
 20
1835.600006919773
 11
2303.2010405725791
 21
1835.600006919773
  0
LINE
  8
_0-0_
  6
CONTINUOUS
 62
    7
 10
2303.2010405725791
 20
1857.6000068005637
 11
1653.2010346121147
 21
1857.6000068005637
  0
LINE
  8
_0-0_
  6
CONTINUOUS
 62
    7
 10
2305.201044625695
 20
1857.6000068005637
 11
2305.201044625695
 21
1835.600006919773
  0
LINE
  8
_0-0_
  6
CONTINUOUS
 62
    7
 10
2303.2010405725791
 20
1857.6000068005637
 11
2303.2010405725791
 21
1835.600006919773
  0
LINE
  8
_0-0_
  6
CONTINUOUS
 62
    7
 10
1651.2010305589988
 20
1846.6000068601684
 11
1651.2010305589988
 21
1857.6000068005637
  0
LINE
  8
_0-0_
  6
CONTINUOUS
 62
    7
 10
1651.2010305589988
 20
1835.600006919773
 11
1651.2010305589988
 21
1846.6000068601684
  0
LINE
  8
_0-0_
  6
CONTINUOUS
 62
    7
 10
1653.2010346121147
 20
1846.6000068601684
 11
1653.2010346121147
 21
1857.6000068005637
  0
LINE
  8
_0-0_
  6
CONTINUOUS
 62
    7
 10
1653.2010346121147
 20
1835.600006919773
 11
1653.2010346121147
 21
1846.6000068601684
  0
LINE
  8
_0-0_
  6
CONTINUOUS
 62
    7
 10
1653.2010346121147
 20
1857.6000068005637
 11
1653.2010346121147
 21
1835.600006919773
  0
LINE
  8
_0-0_
  6
CONTINUOUS
 62
    7
 10
2462.4813434543121
 20
1851.850006919773
 11
2463.4813434543121
 21
1851.850006919773
  0
LINE
  8
_0-0_
  6
CONTINUOUS
 62
    7
 10
2463.4813434543121
 20
1841.350006919773
 11
2462.4813434543121
 21
1841.350006919773
  0
LINE
  8
_0-0_
  6
CONTINUOUS
 62
    7
 10
2463.4813434543121
 20
1851.850006919773
 11
2463.4813434543121
 21
1841.350006919773
  0
LINE
  8
_0-0_
  6
CONTINUOUS
 62
    7
 10
2462.4813434543121
 20
1840.350006919773
 11
2463.4813434543121
 21
1840.350006919773
  0
LINE
  8
_0-0_
  6
CONTINUOUS
 62
    7
 10
2463.4813434543121
 20
1840.350006919773
 11
2463.4813434543121
 21
1841.350006919773
  0
LINE
  8
_0-0_
  6
CONTINUOUS
 62
    7
 10
2463.4813434543121
 20
1852.850006919773
 11
2462.4813434543121
 21
1852.850006919773
  0
LINE
  8
_0-0_
  6
CONTINUOUS
 62
    7
 10
2463.4813434543121
 20
1851.850006919773
 11
2463.4813434543121
 21
1852.850006919773
  0
CIRCLE
  8
_0-0_
  6
CONTINUOUS
 62
    7
 10
2401.4813434543121
 20
1846.600006919773
 40
11
  0
LINE
  8
_0-0_
  6
CONTINUOUS
 62
    7
 10
2408.2813434543123
 20
1837.600006919773
 11
2462.4813434543121
 21
1837.600006919773
  0
LINE
  8
_0-0_
  6
CONTINUOUS
 62
    7
 10
2462.4813434543121
 20
1837.600006919773
 11
2462.4813434543121
 21
1837.900006919773
  0
LINE
  8
_0-0_
  6
CONTINUOUS
 62
    7
 10
2408.2813434543123
 20
1837.900006919773
 11
2408.2813434543123
 21
1837.600006919773
  0
LINE
  8
_0-0_
  6
CONTINUOUS
 62
    7
 10
2462.4813434543121
 20
1855.3000069197731
 11
2462.4813434543121
 21
1837.900006919773
  0
LINE
  8
_0-0_
  6
CONTINUOUS
 62
    7
 10
2408.2813434543123
 20
1837.953620391286
 11
2408.2813434543123
 21
1837.900006919773
  0
LINE
  8
_0-0_
  6
CONTINUOUS
 62
    7
 10
2462.4813434543121
 20
1855.600006919773
 11
2408.2813434543123
 21
1855.600006919773
  0
LINE
  8
_0-0_
  6
CONTINUOUS
 62
    7
 10
2462.4813434543121
 20
1855.3000069197731
 11
2462.4813434543121
 21
1855.600006919773
  0
LINE
  8
_0-0_
  6
CONTINUOUS
 62
    7
 10
2303.2010373489434
 20
1547.9983122113158
 11
2305.2010373489434
 21
1547.9983122113158
  0
LINE
  8
_0-0_
  6
CONTINUOUS
 62
    7
 10
2305.2010373489434
 20
1569.9983122113158
 11
2303.2010373489434
 21
1569.9983122113158
  0
LINE
  8
_0-0_
  6
CONTINUOUS
 62
    7
 10
1651.2010373489431
 20
1547.9983122113158
 11
1653.2010373489429
 21
1547.9983122113158
  0
LINE
  8
_0-0_
  6
CONTINUOUS
 62
    7
 10
1653.2010373489429
 20
1569.9983122113156
 11
1651.2010373489431
 21
1569.9983122113156
  0
LINE
  8
_0-0_
  6
CONTINUOUS
 62
    7
 10
1653.2010373489429
 20
1547.9983122113158
 11
2303.2010373489434
 21
1547.9983122113158
  0
LINE
  8
_0-0_
  6
CONTINUOUS
 62
    7
 10
1659.2010373489434
 20
1569.9983122113158
 11
1653.2010373489429
 21
1569.9983122113156
  0
LINE
  8
_0-0_
  6
CONTINUOUS
 62
    7
 10
2259.2010373489434
 20
1569.9983122113158
 11
1697.2010373489434
 21
1569.9983122113158
  0
LINE
  8
_0-0_
  6
CONTINUOUS
 62
    7
 10
2303.2010373489434
 20
1569.9983122113158
 11
2297.2010373489434
 21
1569.9983122113158
  0
LINE
  8
_0-0_
  6
CONTINUOUS
 62
    7
 10
2272.2010373489434
 20
1619.9983122113158
 11
2272.2010373489434
 21
1620.9983122113158
  0
LINE
  8
_0-0_
  6
CONTINUOUS
 62
    7
 10
2272.2010373489434
 20
1620.9983122113158
 11
2273.2010373489434
 21
1620.9983122113158
  0
LINE
  8
_0-0_
  6
CONTINUOUS
 62
    7
 10
2273.2010373489434
 20
1619.9983122113158
 11
2273.2010373489434
 21
1620.9983122113158
  0
LINE
  8
_0-0_
  6
CONTINUOUS
 62
    7
 10
2262.9510373489434
 20
1620.9983122113158
 11
2262.9510373489434
 21
1619.9983122113158
  0
LINE
  8
_0-0_
  6
CONTINUOUS
 62
    7
 10
2272.2010373489434
 20
1620.9983122113158
 11
2262.9510373489434
 21
1620.9983122113158
  0
LINE
  8
_0-0_
  6
CONTINUOUS
 62
    7
 10
2284.2010373489434
 20
1620.9983122113158
 11
2284.2010373489434
 21
1619.9983122113158
  0
LINE
  8
_0-0_
  6
CONTINUOUS
 62
    7
 10
2293.4510373489434
 20
1620.9983122113158
 11
2284.2010373489434
 21
1620.9983122113158
  0
LINE
  8
_0-0_
  6
CONTINUOUS
 62
    7
 10
2283.2010373489434
 20
1620.9983122113158
 11
2283.2010373489434
 21
1619.9983122113158
  0
LINE
  8
_0-0_
  6
CONTINUOUS
 62
    7
 10
2283.2010373489434
 20
1620.9983122113158
 11
2284.2010373489434
 21
1620.9983122113158
  0
LINE
  8
_0-0_
  6
CONTINUOUS
 62
    7
 10
2261.9510373489434
 20
1619.9983122113158
 11
2261.9510373489434
 21
1620.9983122113158
  0
LINE
  8
_0-0_
  6
CONTINUOUS
 62
    7
 10
2261.9510373489434
 20
1620.9983122113158
 11
2262.9510373489434
 21
1620.9983122113158
  0
LINE
  8
_0-0_
  6
CONTINUOUS
 62
    7
 10
2282.2010373489434
 20
1619.9983122113158
 11
2282.2010373489434
 21
1620.9983122113158
  0
LINE
  8
_0-0_
  6
CONTINUOUS
 62
    7
 10
2282.2010373489434
 20
1620.9983122113158
 11
2283.2010373489434
 21
1620.9983122113158
  0
LINE
  8
_0-0_
  6
CONTINUOUS
 62
    7
 10
2274.2010373489434
 20
1620.9983122113158
 11
2274.2010373489434
 21
1619.9983122113158
  0
LINE
  8
_0-0_
  6
CONTINUOUS
 62
    7
 10
2273.2010373489434
 20
1620.9983122113158
 11
2274.2010373489434
 21
1620.9983122113158
  0
LINE
  8
_0-0_
  6
CONTINUOUS
 62
    7
 10
2282.2010373489434
 20
1620.9983122113158
 11
2274.2010373489434
 21
1620.9983122113158
  0
LINE
  8
_0-0_
  6
CONTINUOUS
 62
    7
 10
1693.4510373489434
 20
1619.9983122113156
 11
1693.4510373489434
 21
1620.9983122113158
  0
LINE
  8
_0-0_
  6
CONTINUOUS
 62
    7
 10
1693.4510373489434
 20
1620.9983122113158
 11
1694.4510373489434
 21
1620.9983122113158
  0
LINE
  8
_0-0_
  6
CONTINUOUS
 62
    7
 10
1694.4510373489434
 20
1620.9983122113158
 11
1694.4510373489434
 21
1619.9983122113156
  0
LINE
  8
_0-0_
  6
CONTINUOUS
 62
    7
 10
1662.9510373489434
 20
1620.9983122113158
 11
1662.9510373489434
 21
1619.9983122113156
  0
LINE
  8
_0-0_
  6
CONTINUOUS
 62
    7
 10
1672.2010373489434
 20
1619.9983122113156
 11
1672.2010373489434
 21
1620.9983122113158
  0
LINE
  8
_0-0_
  6
CONTINUOUS
 62
    7
 10
1672.2010373489434
 20
1620.9983122113158
 11
1662.9510373489434
 21
1620.9983122113158
  0
LINE
  8
_0-0_
  6
CONTINUOUS
 62
    7
 10
1673.2010373489434
 20
1619.9983122113156
 11
1673.2010373489434
 21
1620.9983122113158
  0
LINE
  8
_0-0_
  6
CONTINUOUS
 62
    7
 10
1672.2010373489434
 20
1620.9983122113158
 11
1673.2010373489434
 21
1620.9983122113158
  0
LINE
  8
_0-0_
  6
CONTINUOUS
 62
    7
 10
1684.2010373489434
 20
1620.9983122113158
 11
1684.2010373489434
 21
1619.9983122113156
  0
LINE
  8
_0-0_
  6
CONTINUOUS
 62
    7
 10
1693.4510373489434
 20
1620.9983122113158
 11
1684.2010373489434
 21
1620.9983122113158
  0
LINE
  8
_0-0_
  6
CONTINUOUS
 62
    7
 10
1683.2010373489434
 20
1620.9983122113158
 11
1683.2010373489434
 21
1619.9983122113156
  0
LINE
  8
_0-0_
  6
CONTINUOUS
 62
    7
 10
1683.2010373489434
 20
1620.9983122113158
 11
1684.2010373489434
 21
1620.9983122113158
  0
LINE
  8
_0-0_
  6
CONTINUOUS
 62
    7
 10
1661.9510373489434
 20
1619.9983122113156
 11
1661.9510373489434
 21
1620.9983122113158
  0
LINE
  8
_0-0_
  6
CONTINUOUS
 62
    7
 10
1661.9510373489434
 20
1620.9983122113158
 11
1662.9510373489434
 21
1620.9983122113158
  0
LINE
  8
_0-0_
  6
CONTINUOUS
 62
    7
 10
1682.2010373489434
 20
1619.9983122113156
 11
1682.2010373489434
 21
1620.9983122113158
  0
LINE
  8
_0-0_
  6
CONTINUOUS
 62
    7
 10
1682.2010373489434
 20
1620.9983122113158
 11
1683.2010373489434
 21
1620.9983122113158
  0
LINE
  8
_0-0_
  6
CONTINUOUS
 62
    7
 10
1674.2010373489434
 20
1620.9983122113158
 11
1674.2010373489434
 21
1619.9983122113156
  0
LINE
  8
_0-0_
  6
CONTINUOUS
 62
    7
 10
1673.2010373489434
 20
1620.9983122113158
 11
1674.2010373489434
 21
1620.9983122113158
  0
LINE
  8
_0-0_
  6
CONTINUOUS
 62
    7
 10
1682.2010373489434
 20
1620.9983122113158
 11
1674.2010373489434
 21
1620.9983122113158
  0
LINE
  8
_0-0_
  6
CONTINUOUS
 62
    7
 10
2305.2010373489434
 20
1569.9983122113158
 11
2305.2010373489434
 21
1547.9983122113158
  0
LINE
  8
_0-0_
  6
CONTINUOUS
 62
    7
 10
2303.2010373489434
 20
1569.9983122113158
 11
2303.2010373489434
 21
1547.9983122113158
  0
LINE
  8
_0-0_
  6
CONTINUOUS
 62
    7
 10
2296.9010373489432
 20
1619.9983122113156
 11
2297.2010373489434
 21
1619.9983122113156
  0
LINE
  8
_0-0_
  6
CONTINUOUS
 62
    7
 10
2297.2010373489434
 20
1619.9983122113156
 11
2297.2010373489434
 21
1565.7983122113158
  0
LINE
  8
_0-0_
  6
CONTINUOUS
 62
    7
 10
2297.2010373489434
 20
1565.7983122113158
 11
2296.9010373489432
 21
1565.7983122113158
  0
LINE
  8
_0-0_
  6
CONTINUOUS
 62
    7
 10
2259.5010373489431
 20
1619.9983122113158
 11
2296.9010373489432
 21
1619.9983122113156
  0
LINE
  8
_0-0_
  6
CONTINUOUS
 62
    7
 10
2259.5010373489431
 20
1565.798312211316
 11
2296.9010373489432
 21
1565.7983122113158
  0
LINE
  8
_0-0_
  6
CONTINUOUS
 62
    7
 10
2259.2010373489434
 20
1565.798312211316
 11
2259.2010373489434
 21
1619.9983122113158
  0
LINE
  8
_0-0_
  6
CONTINUOUS
 62
    7
 10
2259.2010373489434
 20
1619.9983122113158
 11
2259.5010373489431
 21
1619.9983122113158
  0
LINE
  8
_0-0_
  6
CONTINUOUS
 62
    7
 10
2259.5010373489431
 20
1565.798312211316
 11
2259.2010373489434
 21
1565.798312211316
  0
LINE
  8
_0-0_
  6
CONTINUOUS
 62
    7
 10
1659.2010373489434
 20
1565.7983122113158
 11
1659.2010373489434
 21
1619.9983122113158
  0
LINE
  8
_0-0_
  6
CONTINUOUS
 62
    7
 10
1659.2010373489434
 20
1619.9983122113158
 11
1659.5010373489433
 21
1619.9983122113158
  0
LINE
  8
_0-0_
  6
CONTINUOUS
 62
    7
 10
1659.5010373489433
 20
1565.7983122113158
 11
1659.2010373489434
 21
1565.7983122113158
  0
LINE
  8
_0-0_
  6
CONTINUOUS
 62
    7
 10
1659.5010373489433
 20
1619.9983122113158
 11
1696.9010373489432
 21
1619.9983122113156
  0
LINE
  8
_0-0_
  6
CONTINUOUS
 62
    7
 10
1659.5010373489433
 20
1565.7983122113158
 11
1696.9010373489432
 21
1565.7983122113158
  0
LINE
  8
_0-0_
  6
CONTINUOUS
 62
    7
 10
1697.2010373489434
 20
1619.9983122113156
 11
1697.2010373489434
 21
1565.7983122113158
  0
LINE
  8
_0-0_
  6
CONTINUOUS
 62
    7
 10
1697.2010373489434
 20
1565.7983122113158
 11
1696.9010373489432
 21
1565.7983122113158
  0
LINE
  8
_0-0_
  6
CONTINUOUS
 62
    7
 10
1696.9010373489432
 20
1619.9983122113156
 11
1697.2010373489434
 21
1619.9983122113156
  0
LINE
  8
_0-0_
  6
CONTINUOUS
 62
    7
 10
2293.4510373489434
 20
1620.9983122113158
 11
2293.4510373489434
 21
1619.9983122113156
  0
LINE
  8
_0-0_
  6
CONTINUOUS
 62
    7
 10
1651.2010373489431
 20
1547.9983122113158
 11
1651.2010373489431
 21
1569.9983122113158
  0
LINE
  8
_0-0_
  6
CONTINUOUS
 62
    7
 10
1653.2010373489429
 20
1547.9983122113158
 11
1653.2010373489429
 21
1569.9983122113158
  0
LINE
  8
_0-0_
  6
CONTINUOUS
 62
    7
 10
2408.2813434543123
 20
1855.600006919773
 11
2408.2813434543123
 21
1855.2463934482601
  0
LINE
  8
_0-1_
  6
CONTINUOUS
 62
    4
 10
1651.2010305589988
 20
1907.6000068005637
 11
2305.201044625695
 21
1907.6000068005637
  0
POINT
  8
_0-1_
 62
    7
 10
1651.2010305589988
 20
1907.6000068005637
  0
POINT
  8
_0-1_
 62
    7
 10
2305.201044625695
 20
1907.6000068005637
  0
LINE
  8
_0-1_
  6
CONTINUOUS
 62
    4
 10
1651.2010305589988
 20
1907.6000068005637
 11
1651.2010305589988
 21
1872.6000068005637
  0
LINE
  8
_0-1_
  6
CONTINUOUS
 62
    4
 10
2305.201044625695
 20
1907.6000068005637
 11
2305.201044625695
 21
1872.6000068005637
  0
TEXT
  8
_0-1_
 62
    4
 10
1968.8260375923469
 20
1910.1000068005637
 40
12.5
 41
1
 50
0
  1
654
  0
ENDSEC
  0
EOF
