  0
SECTION
  2
HEADER
  9
$ACADVER
  1
AC1009
  9
$INSBASE
 10
0
 20
0
 30
0
  9
$EXTMIN
 10
0
 20
0
  9
$EXTMAX
 10
297
 20
210
  9
$LIMMIN
 10
0
 20
0
  9
$LIMMAX
 10
297
 20
210
  9
$LTSCALE
 40
1
  0
ENDSEC
  0
SECTION
  2
TABLES
  0
TABLE
  2
LTYPE
 70
     9
  0
LTYPE
  2
CONTINUOUS
 70
    64
  3
実線
 72
    65
 73
     0
 40
0.0
  0
LTYPE
  2
DASHED1
 70
    64
  3
--  --  --  --  --  --  --  --  
 72
    65
 73
     2
 40
2.5
 49
1.25
 49
-1.25
  0
LTYPE
  2
DASHED2
 70
    64
  3
----    ----    ----    ----    
 72
    65
 73
     2
 40
5.0
 49
2.5
 49
-2.5
  0
LTYPE
  2
DASHED3
 70
    64
  3
------  ------  ------  ------  
 72
    65
 73
     2
 40
5.0
 49
3.75
 49
-1.25
  0
LTYPE
  2
CENTER1
 70
    64
  3
----- - ----- - ----- - ----- - 
 72
    65
 73
     4
 40
10.0
 49
6.25
 49
-1.25
 49
1.25
 49
-1.25
  0
LTYPE
  2
CENTER2
 70
    64
  3
----------  --  ----------  --  
 72
    65
 73
     4
 40
20.0
 49
12.5
 49
-2.5
 49
2.5
 49
-2.5
  0
LTYPE
  2
PHANTOM1
 70
    64
  3
--- - - --- - - --- - - --- - - 
 72
    65
 73
     6
 40
10.0
 49
3.25
 49
-1.25
 49
1.25
 49
-1.25
 49
1.25
 49
-1.25
  0
LTYPE
  2
PHANTOM2
 70
    64
  3
--------  -  -  --------  -  -  
 72
    65
 73
     6
 40
20.0
 49
10.0
 49
-2.5
 49
1.25
 49
-2.5
 49
1.25
 49
-2.5
  0
LTYPE
  2
DOT
 70
    64
  3
-   -   -   -   -   -   -   -   
 72
    65
 73
     2
 40
2.5
 49
0.625
 49
-1.875
  0
LTYPE
  2
DUMMY
 70
    64
  3
ダミー
 72
    65
 73
     0
 40
0.0
  0
LTYPE
  2
RAND1
 70
    64
  3
ランダム線1
 72
    65
 73
     4
 40
10.0
 49
1.0
 49
-2.0
 49
3.0
 49
-4.0
  0
LTYPE
  2
RAND2
 70
    64
  3
ランダム線2
 72
    65
 73
     4
 40
14.0
 49
2.0
 49
-3.0
 49
4.0
 49
-5.0
  0
LTYPE
  2
RAND3
 70
    64
  3
ランダム線3
 72
    65
 73
     4
 40
18.0
 49
3.0
 49
-4.0
 49
5.0
 49
-6.0
  0
LTYPE
  2
RAND4
 70
    64
  3
ランダム線4
 72
    65
 73
     4
 40
22.0
 49
4.0
 49
-5.0
 49
6.0
 49
-7.0
  0
LTYPE
  2
RAND5
 70
    64
  3
ランダム線5
 72
    65
 73
     4
 40
26.0
 49
5.0
 49
-6.0
 49
7.0
 49
-8.0
  0
LTYPE
  2
LONG1
 70
    64
  3
----------  --  ----------  --  
 72
    65
 73
     4
 40
40.0
 49
32.5
 49
-2.5
 49
2.5
 49
-2.5
  0
LTYPE
  2
LONG2
 70
    64
  3
--------  -  -  --------  -  -  
 72
    65
 73
     6
 40
40.0
 49
30.0
 49
-2.5
 49
1.25
 49
-2.5
 49
1.25
 49
-2.5
  0
LTYPE
  2
LONG3
 70
    64
  3
+++++++++++++++..+++++++++++++++
 72
    65
 73
     2
 40
40.0
 49
37.5
 49
-2.5
  0
LTYPE
  2
LONG4
 70
    64
  3
+++++++++++++++..+++++++++++++++
 72
    65
 73
     2
 40
80.0
 49
75.0
 49
-5.0
  0
LTYPE
  2
LONG5
 70
    64
  3
----------  --  ----------  --  
 72
    65
 73
     4
 40
60.0
 49
37.5
 49
-7.5
 49
7.5
 49
-7.5
  0
LTYPE
  2
dashed
 70
   64
  3
-------   -------------   ------
 72
   65
 73
    2
 40
7.5
 49
6
 49
-1.5
  0
LTYPE
  2
dashed_spaced
 70
   64
  3
----        --------        ----
 72
   65
 73
    2
 40
12
 49
6
 49
-6
  0
LTYPE
  2
long_dashed_dotted
 70
   64
  3
------------- --- --------------
 72
   65
 73
    4
 40
15.25
 49
12
 49
-1.5
 49
0.25
 49
-1.5
  0
LTYPE
  2
long_dashed_double-dotted
 70
   64
  3
----------- --- --- ------------
 72
   65
 73
    6
 40
17
 49
12
 49
-1.5
 49
0.25
 49
-1.5
 49
0.25
 49
-1.5
  0
LTYPE
  2
long_dashed_triplicate-dotted
 70
   64
  3
--------- --- --- --- ----------
 72
   65
 73
    8
 40
18.75
 49
12
 49
-1.5
 49
0.25
 49
-1.5
 49
0.25
 49
-1.5
 49
0.25
 49
-1.5
  0
LTYPE
  2
dotted
 70
   64
  3
   -       -       -       -    
 72
   65
 73
    2
 40
1.75
 49
0.25
 49
-1.5
  0
LTYPE
  2
chain
 70
   64
  3
-------------- -- --------------
 72
   65
 73
    4
 40
18.5
 49
12
 49
-1.5
 49
3.5
 49
-1.5
  0
LTYPE
  2
chain_double_dash
 70
   64
  3
------------ -- -- -------------
 72
   65
 73
    6
 40
23.5
 49
12
 49
-1.5
 49
3.5
 49
-1.5
 49
3.5
 49
-1.5
  0
LTYPE
  2
dashed_dotted
 70
   64
  3
-----------     -     ----------
 72
   65
 73
    4
 40
9.25
 49
6
 49
-1.5
 49
0.25
 49
-1.5
  0
LTYPE
  2
double-dashed_dotted
 70
   64
  3
------   -----------   -   -----
 72
   65
 73
    6
 40
16.75
 49
6
 49
-1.5
 49
6
 49
-1.5
 49
0.25
 49
-1.5
  0
LTYPE
  2
dashed_double-dotted
 70
   64
  3
---------    -    -    ---------
 72
   65
 73
    6
 40
11
 49
6
 49
-1.5
 49
0.25
 49
-1.5
 49
0.25
 49
-1.5
  0
LTYPE
  2
double-dashed_double-dotted
 70
   64
  3
-----   ---------   -   -   ----
 72
   65
 73
    8
 40
18.5
 49
6
 49
-1.5
 49
6
 49
-1.5
 49
0.25
 49
-1.5
 49
0.25
 49
-1.5
  0
LTYPE
  2
dashed_triplicate-dotted
 70
   64
  3
-------    -    -    -    ------
 72
   65
 73
    8
 40
12.75
 49
6
 49
-1.5
 49
0.25
 49
-1.5
 49
0.25
 49
-1.5
 49
0.25
 49
-1.5
  0
LTYPE
  2
double-dashed_triplicate-dotted
 70
   64
  3
-----  ---------  -  -  -  -----
 72
   65
 73
   10
 40
20.25
 49
6
 49
-1.5
 49
6
 49
-1.5
 49
0.25
 49
-1.5
 49
0.25
 49
-1.5
 49
0.25
 49
-1.5
  0
LTYPE
  2
undefined
 70
   64
  3
--------------------------------
 72
   65
 73
    0
 40
0
  0
LTYPE
  2
STYLE_01
 70
   64
  3
----        --------        ----
 72
   65
 73
    2
 40
0.4166399999999997
 49
0.2082799999999999
 49
-0.2083599999999999
  0
LTYPE
  2
STYLE_02
 70
   64
  3
------     -----------     -----
 72
   65
 73
    2
 40
0.694425
 49
0.48607
 49
-0.2083550000000001
  0
LTYPE
  2
STYLE_03
 70
   64
  3
-------   -------------   ------
 72
   65
 73
    2
 40
1.25
 49
1.0416400000000001
 49
-0.2083599999999999
  0
LTYPE
  2
STYLE_04
 70
   64
  3
-------  --------------  -------
 72
   65
 73
    2
 40
1.5277099999999999
 49
1.3194249999999998
 49
-0.208285
  0
LTYPE
  2
STYLE_05
 70
   64
  3
---           -----           --
 72
   65
 73
    2
 40
0.20828
 49
0.069425
 49
-0.138855
  0
LTYPE
  2
STYLE_06
 70
   64
  3
----------      --    ----------
 72
   65
 73
    4
 40
1.0416399999999999
 49
0.625
 49
-0.2082799999999999
 49
0.06943
 49
-0.13893
  0
LTYPE
  2
STYLE_07
 70
   64
  3
-----    -----------    -  -----
 72
   65
 73
    6
 40
1.8749999999999998
 49
0.625
 49
-0.2082799999999999
 49
0.6250000000000001
 49
-0.2083599999999999
 49
0.06943
 49
-0.1389299999999998
  0
LTYPE
  2
STYLE_08
 70
   64
  3
--------     --    --    -------
 72
   65
 73
    6
 40
1.2499999999999996
 49
0.625
 49
-0.2082799999999999
 49
0.06943
 49
-0.13893
 49
0.0694299999999997
 49
-0.13893
  0
LTYPE
  2
STYLE_09
 70
   64
  3
------------  ----  ------------
 72
   65
 73
    4
 40
5
 49
3.75
 49
-0.2777849999999997
 49
0.6944300000000003
 49
-0.2777849999999997
  0
LTYPE
  2
STYLE_10
 70
   64
  3
----------- ---- ---  ----------
 72
   65
 73
    6
 40
5.9375
 49
3.75
 49
-0.2777849999999997
 49
0.6944300000000003
 49
-0.2777849999999997
 49
0.625
 49
-0.3125
  0
ENDTAB
  0
TABLE
  2
STYLE
  5
3
100
AcDbSymbolTable
 70
     1
  0
STYLE
  5
10
100
AcDbSymbolTableRecord
100
AcDbTextStyleTableRecord
  2
STANDARD
 70
     0
 40
0.0
 41
1.0
 50
0.0
 71
     0
 42
0.2
  3
txt
  4
bigfont.shx
  0
STYLE
  5
26
100
AcDbSymbolTableRecord
100
AcDbTextStyleTableRecord
  2
TATEGAKI
 70
    68
 40
0.0
 41
1.0
 50
0.0
 71
     0
 42
1.0
  3
txt
  4
bigfont.shx
  0
ENDTAB
  0
TABLE
  2
LAYER
 70
    5
  0
LAYER
  2
_0-0_0
 70
   64
 62
    7
  6
CONTINUOUS
  0
LAYER
  2
_0-1_1_5
 70
   64
 62
    7
  6
CONTINUOUS
  0
LAYER
  2
_0-2_ADD_LINE
 70
   64
 62
    7
  6
CONTINUOUS
  0
LAYER
  2
_0-3_
 70
   64
 62
    7
  6
CONTINUOUS
  0
LAYER
  2
ADD_LINE
 70
   64
 62
    7
  6
CONTINUOUS
  0
ENDTAB
  0
ENDSEC
  0
SECTION
  2
BLOCKS
  0
ENDSEC
  0
SECTION
  2
ENTITIES
  0
LINE
  8
_0-0_0
  6
CONTINUOUS
 62
    7
 10
-1432.1695483810656
 20
47.001481275140193
 11
-1135.1695483810656
 21
47.001481275140165
  0
LINE
  8
_0-0_0
  6
CONTINUOUS
 62
    7
 10
-1432.1695483810656
 20
257.00148127514018
 11
-1432.1695483810656
 21
47.001481275140193
  0
LINE
  8
_0-0_0
  6
CONTINUOUS
 62
    7
 10
-1135.1695483810656
 20
257.00148127514018
 11
-1432.1695483810656
 21
257.00148127514018
  0
LINE
  8
_0-0_0
  6
CONTINUOUS
 62
    7
 10
-1135.1695483810656
 20
47.001481275140165
 11
-1135.1695483810656
 21
257.00148127514018
  0
LINE
  8
_0-3_
  6
CONTINUOUS
 62
    7
 10
-1142.6595950116382
 20
66.721525497480826
 11
-1329.5068075692798
 21
66.721525497480826
  0
LINE
  8
_0-3_
  6
CONTINUOUS
 62
    7
 10
-1142.6595950116382
 20
60.721525497480819
 11
-1329.5068075692798
 21
60.721525497480819
  0
LINE
  8
_0-3_
  6
CONTINUOUS
 62
    7
 10
-1329.5068075692798
 20
54.721525497480812
 11
-1329.5068075692798
 21
72.721525497480826
  0
TEXT
  8
_0-3_
 62
    4
 10
-1328.1128348460911
 20
69.567584301259956
 40
2
 41
1
 50
0
  1
品名
  0
TEXT
  8
_0-3_
 62
    4
 10
-1328.1128348460911
 20
63.638285853294605
 40
2
 41
1
 50
0
  1
仕上げ
  0
TEXT
  8
_0-3_
 62
    4
 10
-1328.1128348460911
 20
57.396919065962642
 40
2
 41
1
 50
0
  1
材質
  0
TEXT
  8
_0-3_
 62
    7
 10
-1319.3271924471421
 20
62.004358131352184
 40
3.1000000000000001
 41
1
 50
0
  1
ポリッシュ
  0
TEXT
  8
_0-3_
 62
    7
 10
-1319.3271924471421
 20
55.95371272710431
 40
3.1000000000000001
 41
1
 50
0
  1
ステンレススチール
  0
TEXT
  8
_0-3_
 62
    4
 10
-1234.9373494599215
 20
69.605404419443602
 40
2
 41
1
 50
0
  1
品番
  0
LINE
  8
_0-3_
  6
CONTINUOUS
 62
    7
 10
-1235.9929283516381
 20
54.721525497480798
 11
-1235.9929283516381
 21
72.721525497480826
  0
LINE
  8
_0-3_
  6
CONTINUOUS
 62
    7
 10
-1142.6595950116382
 20
72.721525497480826
 11
-1329.5068075692798
 21
72.721525497480826
  0
TEXT
  8
_0-3_
 62
    4
 10
-1234.9495659077759
 20
63.653101904497994
 40
2
 41
1
 50
0
  1
縮尺
  0
TEXT
  8
_0-3_
 62
    7
 10
-1422.6296029200719
 20
50.082502612839804
 40
2.5
 41
1
 50
0
  1
120718SH
  0
LINE
  8
_0-3_
  6
CONTINUOUS
 62
    7
 10
-1422.6595950116382
 20
249.72152549748085
 11
-1422.6595950116382
 21
54.721525497480812
  0
LINE
  8
_0-3_
  6
CONTINUOUS
 62
    7
 10
-1422.6595950116382
 20
54.721525497480812
 11
-1142.6595950116382
 21
54.721525497480798
  0
LINE
  8
_0-3_
  6
CONTINUOUS
 62
    7
 10
-1142.6595950116382
 20
54.721525497480798
 11
-1142.6595950116382
 21
249.72152549748085
  0
LINE
  8
_0-3_
  6
CONTINUOUS
 62
    7
 10
-1142.6595950116382
 20
249.72152549748085
 11
-1422.6595950116382
 21
249.72152549748085
  0
TEXT
  8
_0-3_
 62
    7
 10
-1225.4861405795525
 20
61.758886734988231
 40
3.1000000000000001
 41
1
 50
0
  1
1/1
  0
TEXT
  8
_0-3_
 62
    7
 10
-1319.3271924471421
 20
68.157959999712602
 40
3.1000000000000001
 41
1
 50
0
  1
ファニチャーハンドル
  0
TEXT
  8
_0-3_
 62
    7
 10
-1225.4861405795525
 20
55.919591009252102
 40
3.1000000000000001
 41
1
 50
0
  1
大洋金物株式会社  ティーエフプラス事業部
  0
POINT
  8
_0-2_ADD_LINE
 62
    7
 10
-1293.8946771669503
 20
198.58292646726534
  0
LINE
  8
_0-2_ADD_LINE
  6
CONTINUOUS
 62
    7
 10
-1293.8946771669503
 20
198.58292646726534
 11
-1293.8946771669503
 21
192.59991348636896
  0
POINT
  8
_0-2_ADD_LINE
 62
    7
 10
-1288.8946771669503
 20
203.66634298305036
  0
LINE
  8
_0-2_ADD_LINE
  6
CONTINUOUS
 62
    7
 10
-1288.8946771669503
 20
203.66634298305036
 11
-1288.8946771669503
 21
190.09991348636896
  0
LINE
  8
_0-1_1_5
  6
CONTINUOUS
 62
    7
 10
-1196.0137493862153
 20
180.59991348636896
 11
-1223.0137493862153
 21
180.59991348636896
  0
LINE
  8
_0-1_1_5
  6
CONTINUOUS
 62
    7
 10
-1196.0137493862153
 20
190.59991348636896
 11
-1196.0137493862153
 21
180.59991348636896
  0
LINE
  8
_0-1_1_5
  6
CONTINUOUS
 62
    7
 10
-1196.0137493862153
 20
190.59991348636896
 11
-1223.0137493862153
 21
190.59991348636896
  0
ARC
  8
_0-1_1_5
  6
CONTINUOUS
 62
    7
 10
-1223.0137493862153
 20
185.59991348636896
 40
5
 50
90
 51
270
  0
ARC
  8
_0-1_1_5
  6
DASHED2
 62
    7
 10
-1223.0137493862153
 20
185.59991348636896
 40
5
 50
270
 51
90
  0
LINE
  8
_0-1_1_5
  6
CONTINUOUS
 62
    7
 10
-1296.3946771669503
 20
185.59991348636896
 11
-1291.3946771669503
 21
185.59991348636896
  0
LINE
  8
_0-1_1_5
  6
CONTINUOUS
 62
    7
 10
-1293.8946771669503
 20
188.09991348636896
 11
-1293.8946771669503
 21
183.09991348636896
  0
ARC
  8
_0-1_1_5
  6
CONTINUOUS
 62
    7
 10
-1293.8946771669503
 20
185.59991348636896
 40
5
 50
270
 51
90
  0
ARC
  8
_0-1_1_5
  6
DASHED2
 62
    7
 10
-1293.8946771669503
 20
185.59991348636896
 40
5
 50
90
 51
270
  0
POINT
  8
_0-2_ADD_LINE
 62
    7
 10
-1238.0534530432469
 20
190.59991348636896
  0
POINT
  8
_0-2_ADD_LINE
 62
    7
 10
-1238.0534530432469
 20
180.59991348636896
  0
LINE
  8
_0-2_ADD_LINE
  6
CONTINUOUS
 62
    7
 10
-1238.0534530432469
 20
190.59991348636896
 11
-1225.0137493862153
 21
190.59991348636896
  0
LINE
  8
_0-2_ADD_LINE
  6
CONTINUOUS
 62
    7
 10
-1238.0534530432469
 20
180.59991348636896
 11
-1225.0137493862153
 21
180.59991348636896
  0
LINE
  8
_0-2_ADD_LINE
  6
CONTINUOUS
 62
    7
 10
-1238.0534530432469
 20
190.59991348636896
 11
-1238.0534530432469
 21
180.59991348636896
  0
TEXT
  8
_0-2_ADD_LINE
 62
    4
 10
-1238.5534530432469
 20
184.34991348636896
 40
2.5
 41
1
 50
90
  1
10
  0
LINE
  8
_0-2_ADD_LINE
  6
CONTINUOUS
 62
    7
 10
-1196.0137493862153
 20
185.59991348636896
 11
-1184.6590450083875
 21
174.24520910854102
  0
LINE
  8
_0-2_ADD_LINE
  6
CONTINUOUS
 62
    7
 10
-1184.6590450083875
 20
174.24520910854102
 11
-1176.9565625032897
 21
174.24520910854102
  0
LINE
  8
_0-1_1_5
  6
CENTER2
 62
    7
 10
-1206.0137493862153
 20
185.59991348636896
 11
-1194.0137493862153
 21
185.59991348636896
  0
POINT
  8
_0-2_ADD_LINE
 62
    7
 10
-1278.9310551149401
 20
150.26636503390216
  0
POINT
  8
_0-2_ADD_LINE
 62
    7
 10
-1278.9310551149401
 20
117.77933893057504
  0
LINE
  8
_0-0_0
  6
CONTINUOUS
 62
    7
 10
-1278.9310551149401
 20
150.26636503390216
 11
-1278.9310551149401
 21
117.77933893057504
  0
TEXT
  8
_0-2_ADD_LINE
 62
    4
 10
-1279.4310551149401
 20
132.77285198223859
 40
2.5
 41
1
 50
90
  1
32
  0
LINE
  8
_0-2_ADD_LINE
  6
CONTINUOUS
 62
    7
 10
-1278.9310551149401
 20
150.26636503390216
 11
-1286.8946771669503
 21
150.26636503390216
  0
LINE
  8
_0-2_ADD_LINE
  6
CONTINUOUS
 62
    7
 10
-1278.9310551149401
 20
117.77933893057504
 11
-1286.8946771669503
 21
117.77933893057504
  0
POINT
  8
_0-2_ADD_LINE
 62
    7
 10
-1357.8946771669503
 20
198.58292646726534
  0
LINE
  8
_0-2_ADD_LINE
  6
CONTINUOUS
 62
    7
 10
-1357.8946771669503
 20
198.58292646726534
 11
-1357.8946771669503
 21
192.59991348636896
  0
POINT
  8
_0-2_ADD_LINE
 62
    7
 10
-1362.8946771669503
 20
203.66634298305036
  0
LINE
  8
_0-2_ADD_LINE
  6
CONTINUOUS
 62
    7
 10
-1362.8946771669503
 20
203.66634298305036
 11
-1362.8946771669503
 21
190.09991348636896
  0
LINE
  8
_0-1_1_5
  6
CONTINUOUS
 62
    7
 10
-1360.3946771669503
 20
185.59991348636896
 11
-1355.3946771669503
 21
185.59991348636896
  0
LINE
  8
_0-1_1_5
  6
CONTINUOUS
 62
    7
 10
-1357.8946771669503
 20
188.09991348636896
 11
-1357.8946771669503
 21
183.09991348636896
  0
ARC
  8
_0-1_1_5
  6
CONTINUOUS
 62
    7
 10
-1357.8946771669503
 20
185.59991348636896
 40
5
 50
90
 51
270
  0
ARC
  8
_0-1_1_5
  6
DASHED2
 62
    7
 10
-1357.8946771669503
 20
185.59991348636896
 40
5
 50
270
 51
90
  0
LINE
  8
_0-1_1_5
  6
CONTINUOUS
 62
    7
 10
-1357.8946771669503
 20
190.59991348636896
 11
-1293.8946771669503
 21
190.59991348636896
  0
LINE
  8
_0-1_1_5
  6
CONTINUOUS
 62
    7
 10
-1357.8946771669503
 20
180.59991348636896
 11
-1293.8946771669503
 21
180.59991348636896
  0
LINE
  8
_0-0_0
  6
CONTINUOUS
 62
    7
 10
-1357.8946771669503
 20
198.58292646726534
 11
-1293.8946771669503
 21
198.58292646726534
  0
TEXT
  8
_0-2_ADD_LINE
 62
    4
 10
-1327.1446771669503
 20
199.08292646726534
 40
2.5
 41
1
 50
0
  1
64
  0
LINE
  8
_0-0_0
  6
CONTINUOUS
 62
    7
 10
-1362.8946771669503
 20
203.66634298305036
 11
-1288.8946771669503
 21
203.66634298305036
  0
TEXT
  8
_0-2_ADD_LINE
 62
    4
 10
-1327.1446771669503
 20
204.16634298305036
 40
2.5
 41
1
 50
0
  1
74
  0
TEXT
  8
_0-2_ADD_LINE
 62
    7
 10
-1182.3918277066825
 20
174.84927799914755
 40
3.1000000000000001
 41
1
 50
0
  1
M4
  0
TEXT
  8
_0-2_ADD_LINE
 62
    7
 10
-1238.4136579417866
 20
181.53533467909637
 40
3.1000000000000001
 41
1
 50
90
  1
φ
  0
TEXT
  8
_0-2_ADD_LINE
 62
    7
 10
-1226.1332490438574
 20
117.92835098906201
 40
3.1000000000000001
 41
1
 50
0
  1
対応ドア厚  10-22mm
  0
LINE
  8
_0-1_1_5
  6
CONTINUOUS
 62
    7
 10
-1298.8946771669503
 20
127.77933893057504
 11
-1288.8946771669503
 21
117.77933893057504
  0
LINE
  8
_0-1_1_5
  6
CONTINUOUS
 62
    7
 10
-1298.8946771669503
 20
150.26636503390216
 11
-1288.8946771669503
 21
150.26636503390216
  0
LINE
  8
_0-1_1_5
  6
CONTINUOUS
 62
    7
 10
-1298.8946771669503
 20
127.77933893057504
 11
-1298.8946771669503
 21
150.26636503390216
  0
LINE
  8
_0-1_1_5
  6
CONTINUOUS
 62
    7
 10
-1288.8946771669503
 20
117.77933893057504
 11
-1288.8946771669503
 21
150.26636503390216
  0
LINE
  8
_0-1_1_5
  6
CENTER2
 62
    7
 10
-1293.8946771669503
 20
140.26636503390216
 11
-1293.8946771669503
 21
152.26636503390216
  0
LINE
  8
_0-1_1_5
  6
CONTINUOUS
 62
    7
 10
-1362.8946771669503
 20
150.26636503390216
 11
-1352.8946771669503
 21
150.26636503390216
  0
LINE
  8
_0-1_1_5
  6
CONTINUOUS
 62
    7
 10
-1362.8946771669503
 20
117.77933893057504
 11
-1352.8946771669503
 21
127.77933893057504
  0
LINE
  8
_0-1_1_5
  6
CONTINUOUS
 62
    7
 10
-1362.8946771669503
 20
117.77933893057504
 11
-1362.8946771669503
 21
150.26636503390216
  0
LINE
  8
_0-1_1_5
  6
CONTINUOUS
 62
    7
 10
-1352.8946771669503
 20
127.77933893057504
 11
-1352.8946771669503
 21
150.26636503390216
  0
LINE
  8
_0-1_1_5
  6
CENTER2
 62
    7
 10
-1357.8946771669503
 20
140.26636503390216
 11
-1357.8946771669503
 21
152.26636503390216
  0
LINE
  8
_0-2_ADD_LINE
  6
CONTINUOUS
 62
    7
 10
-1362.8946771669503
 20
158.15347634390304
 11
-1362.8946771669503
 21
152.26636503390216
  0
LINE
  8
_0-2_ADD_LINE
  6
CONTINUOUS
 62
    7
 10
-1352.8946771669503
 20
158.15347634390304
 11
-1352.8946771669503
 21
152.26636503390216
  0
LINE
  8
_0-1_1_5
  6
CONTINUOUS
 62
    7
 10
-1362.8946771669503
 20
117.77933893057504
 11
-1288.8946771669503
 21
117.77933893057504
  0
LINE
  8
_0-1_1_5
  6
CONTINUOUS
 62
    7
 10
-1352.8946771669503
 20
127.77933893057504
 11
-1298.8946771669503
 21
127.77933893057504
  0
LINE
  8
_0-2_ADD_LINE
  6
CONTINUOUS
 62
    7
 10
-1362.8946771669503
 20
158.15347634390304
 11
-1352.8946771669503
 21
158.15347634390304
  0
TEXT
  8
_0-2_ADD_LINE
 62
    4
 10
-1359.1446771669503
 20
158.65347634390304
 40
2.5
 41
1
 50
0
  1
10
  0
POINT
  8
_0-2_ADD_LINE
 62
    7
 10
-1352.8946771669503
 20
158.15347634390304
  0
POINT
  8
_0-2_ADD_LINE
 62
    7
 10
-1362.8946771669503
 20
158.15347634390304
  0
TEXT
  8
_0-3_
 62
    7
 10
-1225.4861405795525
 20
67.856250307300627
 40
3.1000000000000001
 41
1
 50
0
  1
TFP21-1006-003
  0
ENDSEC
  0
EOF
