  0
SECTION
  2
HEADER
  9
$ACADVER
  1
AC1009
  9
$INSBASE
 10
0
 20
0
 30
0
  9
$EXTMIN
 10
0
 20
0
  9
$EXTMAX
 10
1188
 20
840
  9
$LIMMIN
 10
0
 20
0
  9
$LIMMAX
 10
1188
 20
840
  9
$LTSCALE
 40
4
  0
ENDSEC
  0
SECTION
  2
TABLES
  0
TABLE
  2
LTYPE
 70
     9
  0
LTYPE
  2
CONTINUOUS
 70
    64
  3
実線
 72
    65
 73
     0
 40
0.0
  0
LTYPE
  2
DASHED1
 70
    64
  3
--  --  --  --  --  --  --  --  
 72
    65
 73
     2
 40
2.5
 49
1.25
 49
-1.25
  0
LTYPE
  2
DASHED2
 70
    64
  3
----    ----    ----    ----    
 72
    65
 73
     2
 40
5.0
 49
2.5
 49
-2.5
  0
LTYPE
  2
DASHED3
 70
    64
  3
------  ------  ------  ------  
 72
    65
 73
     2
 40
5.0
 49
3.75
 49
-1.25
  0
LTYPE
  2
CENTER1
 70
    64
  3
----- - ----- - ----- - ----- - 
 72
    65
 73
     4
 40
10.0
 49
6.25
 49
-1.25
 49
1.25
 49
-1.25
  0
LTYPE
  2
CENTER2
 70
    64
  3
----------  --  ----------  --  
 72
    65
 73
     4
 40
20.0
 49
12.5
 49
-2.5
 49
2.5
 49
-2.5
  0
LTYPE
  2
PHANTOM1
 70
    64
  3
--- - - --- - - --- - - --- - - 
 72
    65
 73
     6
 40
10.0
 49
3.25
 49
-1.25
 49
1.25
 49
-1.25
 49
1.25
 49
-1.25
  0
LTYPE
  2
PHANTOM2
 70
    64
  3
--------  -  -  --------  -  -  
 72
    65
 73
     6
 40
20.0
 49
10.0
 49
-2.5
 49
1.25
 49
-2.5
 49
1.25
 49
-2.5
  0
LTYPE
  2
DOT
 70
    64
  3
-   -   -   -   -   -   -   -   
 72
    65
 73
     2
 40
2.5
 49
0.625
 49
-1.875
  0
LTYPE
  2
DUMMY
 70
    64
  3
ダミー
 72
    65
 73
     0
 40
0.0
  0
LTYPE
  2
RAND1
 70
    64
  3
ランダム線1
 72
    65
 73
     4
 40
10.0
 49
1.0
 49
-2.0
 49
3.0
 49
-4.0
  0
LTYPE
  2
RAND2
 70
    64
  3
ランダム線2
 72
    65
 73
     4
 40
14.0
 49
2.0
 49
-3.0
 49
4.0
 49
-5.0
  0
LTYPE
  2
RAND3
 70
    64
  3
ランダム線3
 72
    65
 73
     4
 40
18.0
 49
3.0
 49
-4.0
 49
5.0
 49
-6.0
  0
LTYPE
  2
RAND4
 70
    64
  3
ランダム線4
 72
    65
 73
     4
 40
22.0
 49
4.0
 49
-5.0
 49
6.0
 49
-7.0
  0
LTYPE
  2
RAND5
 70
    64
  3
ランダム線5
 72
    65
 73
     4
 40
26.0
 49
5.0
 49
-6.0
 49
7.0
 49
-8.0
  0
LTYPE
  2
LONG1
 70
    64
  3
----------  --  ----------  --  
 72
    65
 73
     4
 40
40.0
 49
32.5
 49
-2.5
 49
2.5
 49
-2.5
  0
LTYPE
  2
LONG2
 70
    64
  3
--------  -  -  --------  -  -  
 72
    65
 73
     6
 40
40.0
 49
30.0
 49
-2.5
 49
1.25
 49
-2.5
 49
1.25
 49
-2.5
  0
LTYPE
  2
LONG3
 70
    64
  3
+++++++++++++++..+++++++++++++++
 72
    65
 73
     2
 40
40.0
 49
37.5
 49
-2.5
  0
LTYPE
  2
LONG4
 70
    64
  3
+++++++++++++++..+++++++++++++++
 72
    65
 73
     2
 40
80.0
 49
75.0
 49
-5.0
  0
LTYPE
  2
LONG5
 70
    64
  3
----------  --  ----------  --  
 72
    65
 73
     4
 40
60.0
 49
37.5
 49
-7.5
 49
7.5
 49
-7.5
  0
LTYPE
  2
dashed
 70
   64
  3
-------   -------------   ------
 72
   65
 73
    2
 40
7.5
 49
6
 49
-1.5
  0
LTYPE
  2
dashed_spaced
 70
   64
  3
----        --------        ----
 72
   65
 73
    2
 40
12
 49
6
 49
-6
  0
LTYPE
  2
long_dashed_dotted
 70
   64
  3
------------- --- --------------
 72
   65
 73
    4
 40
15.25
 49
12
 49
-1.5
 49
0.25
 49
-1.5
  0
LTYPE
  2
long_dashed_double-dotted
 70
   64
  3
----------- --- --- ------------
 72
   65
 73
    6
 40
17
 49
12
 49
-1.5
 49
0.25
 49
-1.5
 49
0.25
 49
-1.5
  0
LTYPE
  2
long_dashed_triplicate-dotted
 70
   64
  3
--------- --- --- --- ----------
 72
   65
 73
    8
 40
18.75
 49
12
 49
-1.5
 49
0.25
 49
-1.5
 49
0.25
 49
-1.5
 49
0.25
 49
-1.5
  0
LTYPE
  2
dotted
 70
   64
  3
   -       -       -       -    
 72
   65
 73
    2
 40
1.75
 49
0.25
 49
-1.5
  0
LTYPE
  2
chain
 70
   64
  3
-------------- -- --------------
 72
   65
 73
    4
 40
18.5
 49
12
 49
-1.5
 49
3.5
 49
-1.5
  0
LTYPE
  2
chain_double_dash
 70
   64
  3
------------ -- -- -------------
 72
   65
 73
    6
 40
23.5
 49
12
 49
-1.5
 49
3.5
 49
-1.5
 49
3.5
 49
-1.5
  0
LTYPE
  2
dashed_dotted
 70
   64
  3
-----------     -     ----------
 72
   65
 73
    4
 40
9.25
 49
6
 49
-1.5
 49
0.25
 49
-1.5
  0
LTYPE
  2
double-dashed_dotted
 70
   64
  3
------   -----------   -   -----
 72
   65
 73
    6
 40
16.75
 49
6
 49
-1.5
 49
6
 49
-1.5
 49
0.25
 49
-1.5
  0
LTYPE
  2
dashed_double-dotted
 70
   64
  3
---------    -    -    ---------
 72
   65
 73
    6
 40
11
 49
6
 49
-1.5
 49
0.25
 49
-1.5
 49
0.25
 49
-1.5
  0
LTYPE
  2
double-dashed_double-dotted
 70
   64
  3
-----   ---------   -   -   ----
 72
   65
 73
    8
 40
18.5
 49
6
 49
-1.5
 49
6
 49
-1.5
 49
0.25
 49
-1.5
 49
0.25
 49
-1.5
  0
LTYPE
  2
dashed_triplicate-dotted
 70
   64
  3
-------    -    -    -    ------
 72
   65
 73
    8
 40
12.75
 49
6
 49
-1.5
 49
0.25
 49
-1.5
 49
0.25
 49
-1.5
 49
0.25
 49
-1.5
  0
LTYPE
  2
double-dashed_triplicate-dotted
 70
   64
  3
-----  ---------  -  -  -  -----
 72
   65
 73
   10
 40
20.25
 49
6
 49
-1.5
 49
6
 49
-1.5
 49
0.25
 49
-1.5
 49
0.25
 49
-1.5
 49
0.25
 49
-1.5
  0
LTYPE
  2
undefined
 70
   64
  3
--------------------------------
 72
   65
 73
    0
 40
0
  0
LTYPE
  2
STYLE_01
 70
   64
  3
----        --------        ----
 72
   65
 73
    2
 40
0.4166399999999997
 49
0.2082799999999999
 49
-0.2083599999999999
  0
LTYPE
  2
STYLE_02
 70
   64
  3
------     -----------     -----
 72
   65
 73
    2
 40
0.694425
 49
0.48607
 49
-0.2083550000000001
  0
LTYPE
  2
STYLE_03
 70
   64
  3
-------   -------------   ------
 72
   65
 73
    2
 40
1.25
 49
1.0416400000000001
 49
-0.2083599999999999
  0
LTYPE
  2
STYLE_04
 70
   64
  3
-------  --------------  -------
 72
   65
 73
    2
 40
1.5277099999999999
 49
1.3194249999999998
 49
-0.208285
  0
LTYPE
  2
STYLE_05
 70
   64
  3
---           -----           --
 72
   65
 73
    2
 40
0.20828
 49
0.069425
 49
-0.138855
  0
LTYPE
  2
STYLE_06
 70
   64
  3
----------      --    ----------
 72
   65
 73
    4
 40
1.0416399999999999
 49
0.625
 49
-0.2082799999999999
 49
0.06943
 49
-0.13893
  0
LTYPE
  2
STYLE_07
 70
   64
  3
-----    -----------    -  -----
 72
   65
 73
    6
 40
1.8749999999999998
 49
0.625
 49
-0.2082799999999999
 49
0.6250000000000001
 49
-0.2083599999999999
 49
0.06943
 49
-0.1389299999999998
  0
LTYPE
  2
STYLE_08
 70
   64
  3
--------     --    --    -------
 72
   65
 73
    6
 40
1.2499999999999996
 49
0.625
 49
-0.2082799999999999
 49
0.06943
 49
-0.13893
 49
0.0694299999999997
 49
-0.13893
  0
LTYPE
  2
STYLE_09
 70
   64
  3
------------  ----  ------------
 72
   65
 73
    4
 40
5
 49
3.75
 49
-0.2777849999999997
 49
0.6944300000000003
 49
-0.2777849999999997
  0
LTYPE
  2
STYLE_10
 70
   64
  3
----------- ---- ---  ----------
 72
   65
 73
    6
 40
5.9375
 49
3.75
 49
-0.2777849999999997
 49
0.6944300000000003
 49
-0.2777849999999997
 49
0.625
 49
-0.3125
  0
ENDTAB
  0
TABLE
  2
STYLE
  5
3
100
AcDbSymbolTable
 70
     1
  0
STYLE
  5
10
100
AcDbSymbolTableRecord
100
AcDbTextStyleTableRecord
  2
STANDARD
 70
     0
 40
0.0
 41
1.0
 50
0.0
 71
     0
 42
0.2
  3
txt
  4
bigfont.shx
  0
STYLE
  5
26
100
AcDbSymbolTableRecord
100
AcDbTextStyleTableRecord
  2
TATEGAKI
 70
    68
 40
0.0
 41
1.0
 50
0.0
 71
     0
 42
1.0
  3
txt
  4
bigfont.shx
  0
ENDTAB
  0
TABLE
  2
LAYER
 70
    5
  0
LAYER
  2
_0-0_0
 70
   64
 62
    7
  6
CONTINUOUS
  0
LAYER
  2
_0-1_1_5
 70
   64
 62
    7
  6
CONTINUOUS
  0
LAYER
  2
_0-2_ADD_LINE
 70
   64
 62
    7
  6
CONTINUOUS
  0
LAYER
  2
_0-3_
 70
   64
 62
    7
  6
CONTINUOUS
  0
LAYER
  2
ADD_LINE
 70
   64
 62
    7
  6
CONTINUOUS
  0
ENDTAB
  0
ENDSEC
  0
SECTION
  2
BLOCKS
  0
ENDSEC
  0
SECTION
  2
ENTITIES
  0
LINE
  8
_0-0_0
  6
CONTINUOUS
 62
    7
 10
-5728.6781935242625
 20
188.00592510056077
 11
-4540.6781935242625
 21
188.00592510056066
  0
LINE
  8
_0-0_0
  6
CONTINUOUS
 62
    7
 10
-5728.6781935242625
 20
1028.0059251005607
 11
-5728.6781935242625
 21
188.00592510056077
  0
LINE
  8
_0-0_0
  6
CONTINUOUS
 62
    7
 10
-4540.6781935242625
 20
1028.0059251005607
 11
-5728.6781935242625
 21
1028.0059251005607
  0
LINE
  8
_0-0_0
  6
CONTINUOUS
 62
    7
 10
-4540.6781935242625
 20
188.00592510056066
 11
-4540.6781935242625
 21
1028.0059251005607
  0
LINE
  8
_0-3_
  6
CONTINUOUS
 62
    7
 10
-4570.6383800465528
 20
266.8861019899233
 11
-5318.0272302771191
 21
266.8861019899233
  0
LINE
  8
_0-3_
  6
CONTINUOUS
 62
    7
 10
-4570.6383800465528
 20
242.88610198992328
 11
-5318.0272302771191
 21
242.88610198992328
  0
LINE
  8
_0-3_
  6
CONTINUOUS
 62
    7
 10
-5318.0272302771191
 20
218.88610198992325
 11
-5318.0272302771191
 21
290.8861019899233
  0
TEXT
  8
_0-3_
 62
    4
 10
-5312.4513393843645
 20
278.27033720503982
 40
8
 41
1
 50
0
  1
品名
  0
TEXT
  8
_0-3_
 62
    4
 10
-5312.4513393843645
 20
254.55314341317842
 40
8
 41
1
 50
0
  1
仕上げ
  0
TEXT
  8
_0-3_
 62
    4
 10
-5312.4513393843645
 20
229.58767626385057
 40
8
 41
1
 50
0
  1
材質
  0
TEXT
  8
_0-3_
 62
    7
 10
-5277.3087697885685
 20
223.81485090841724
 40
12.4
 41
1
 50
0
  1
ステンレススチール
  0
TEXT
  8
_0-3_
 62
    4
 10
-4939.749397839686
 20
278.42161767777441
 40
8
 41
1
 50
0
  1
品番
  0
LINE
  8
_0-3_
  6
CONTINUOUS
 62
    7
 10
-4943.9717134065522
 20
218.88610198992319
 11
-4943.9717134065522
 21
290.8861019899233
  0
LINE
  8
_0-3_
  6
CONTINUOUS
 62
    7
 10
-4570.6383800465528
 20
290.8861019899233
 11
-5318.0272302771191
 21
290.8861019899233
  0
TEXT
  8
_0-3_
 62
    4
 10
-4939.7982636311035
 20
254.61240761799198
 40
8
 41
1
 50
0
  1
縮尺
  0
TEXT
  8
_0-3_
 62
    7
 10
-5690.5184116802875
 20
200.33001045135921
 40
10
 41
1
 50
0
  1
120718SH
  0
LINE
  8
_0-3_
  6
CONTINUOUS
 62
    7
 10
-5690.6383800465528
 20
998.88610198992342
 11
-5690.6383800465528
 21
218.88610198992325
  0
LINE
  8
_0-3_
  6
CONTINUOUS
 62
    7
 10
-5690.6383800465528
 20
218.88610198992325
 11
-4570.6383800465528
 21
218.88610198992319
  0
LINE
  8
_0-3_
  6
CONTINUOUS
 62
    7
 10
-4570.6383800465528
 20
218.88610198992319
 11
-4570.6383800465528
 21
998.88610198992342
  0
LINE
  8
_0-3_
  6
CONTINUOUS
 62
    7
 10
-4570.6383800465528
 20
998.88610198992342
 11
-5690.6383800465528
 21
998.88610198992342
  0
TEXT
  8
_0-3_
 62
    7
 10
-5277.3087697885685
 20
272.63183999885041
 40
12.4
 41
1
 50
0
  1
ファニチャーハンドル
  0
TEXT
  8
_0-3_
 62
    7
 10
-4901.94456231821
 20
223.67836403700841
 40
12.4
 41
1
 50
0
  1
大洋金物株式会社  ティーエフプラス事業部
  0
TEXT
  8
_0-3_
 62
    7
 10
-4901.94456231821
 20
247.03554693995295
 40
12.4
 41
1
 50
0
  1
1/4
  0
POINT
  8
_0-2_ADD_LINE
 62
    7
 10
-4971.7799161932899
 20
744.05442125721379
  0
LINE
  8
_0-2_ADD_LINE
  6
CONTINUOUS
 62
    7
 10
-4971.7799161932899
 20
744.05442125721379
 11
-4971.7799161932899
 21
713.11536104826075
  0
POINT
  8
_0-2_ADD_LINE
 62
    7
 10
-4966.7799161932899
 20
768.45174086907514
  0
LINE
  8
_0-2_ADD_LINE
  6
CONTINUOUS
 62
    7
 10
-4966.7799161932899
 20
768.45174086907514
 11
-4966.7799161932899
 21
717.41110559537913
  0
LINE
  8
_0-2_ADD_LINE
  6
CONTINUOUS
 62
    7
 10
-4834.0735007829771
 20
705.52167815527923
 11
-4811.4700452914467
 21
682.91822266374879
  0
LINE
  8
_0-2_ADD_LINE
  6
CONTINUOUS
 62
    7
 10
-4811.21607388143
 20
683.17219407376604
 11
-4772.3584481487987
 21
683.17219407376604
  0
POINT
  8
_0-2_ADD_LINE
 62
    7
 10
-4885.8836684264852
 20
700.11536104826075
  0
POINT
  8
_0-2_ADD_LINE
 62
    7
 10
-4885.8836684264852
 20
710.11536104826075
  0
LINE
  8
_0-2_ADD_LINE
  6
CONTINUOUS
 62
    7
 10
-4885.8836684264852
 20
700.11536104826075
 11
-4868.8989884125549
 21
700.11536104826075
  0
LINE
  8
_0-2_ADD_LINE
  6
CONTINUOUS
 62
    7
 10
-4885.8836684264852
 20
710.11536104826075
 11
-4868.8989884125549
 21
710.11536104826075
  0
LINE
  8
_0-2_ADD_LINE
  6
CONTINUOUS
 62
    7
 10
-4885.8836684264852
 20
700.11536104826075
 11
-4885.8836684264852
 21
710.11536104826075
  0
TEXT
  8
_0-2_ADD_LINE
 62
    4
 10
-4887.8836684264852
 20
700.11536104826075
 40
10
 41
1
 50
90
  1
10
  0
POINT
  8
_0-2_ADD_LINE
 62
    7
 10
-5419.7799161932899
 20
744.05442125721379
  0
LINE
  8
_0-2_ADD_LINE
  6
CONTINUOUS
 62
    7
 10
-5419.7799161932899
 20
744.05442125721379
 11
-5419.7799161932899
 21
713.11536104826075
  0
POINT
  8
_0-2_ADD_LINE
 62
    7
 10
-5424.7799161932899
 20
768.45174086907514
  0
LINE
  8
_0-2_ADD_LINE
  6
CONTINUOUS
 62
    7
 10
-5424.7799161932899
 20
768.45174086907514
 11
-5424.7799161932899
 21
717.41110559537913
  0
LINE
  8
_0-2_ADD_LINE
  6
CONTINUOUS
 62
    7
 10
-5419.7799161932899
 20
744.05442125721379
 11
-4971.7799161932899
 21
744.05442125721379
  0
TEXT
  8
_0-2_ADD_LINE
 62
    4
 10
-5203.2799161932899
 20
746.05442125721379
 40
10
 41
1
 50
0
  1
448
  0
LINE
  8
_0-2_ADD_LINE
  6
CONTINUOUS
 62
    7
 10
-5424.7799161932899
 20
768.45174086907514
 11
-4966.7799161932899
 21
768.45174086907514
  0
TEXT
  8
_0-2_ADD_LINE
 62
    4
 10
-5203.2799161932899
 20
770.45174086907514
 40
10
 41
1
 50
0
  1
458
  0
LINE
  8
_0-1_1_5
  6
CONTINUOUS
 62
    7
 10
-4974.2799161932899
 20
705.11536104826075
 11
-4969.2799161932899
 21
705.11536104826075
  0
LINE
  8
_0-1_1_5
  6
CONTINUOUS
 62
    7
 10
-4971.7799161932899
 20
707.61536104826075
 11
-4971.7799161932899
 21
702.61536104826075
  0
ARC
  8
_0-1_1_5
  6
CONTINUOUS
 62
    7
 10
-4971.7799161932899
 20
705.11536104826075
 40
5
 50
270
 51
90
  0
ARC
  8
_0-1_1_5
  6
DASHED2
 62
    7
 10
-4971.7799161932899
 20
705.11536104826075
 40
5
 50
90
 51
270
  0
ARC
  8
_0-1_1_5
  6
DASHED2
 62
    7
 10
-5419.7799161932899
 20
705.11536104826075
 40
5
 50
270
 51
90
  0
ARC
  8
_0-1_1_5
  6
CONTINUOUS
 62
    7
 10
-5419.7799161932899
 20
705.11536104826075
 40
5
 50
90
 51
270
  0
LINE
  8
_0-1_1_5
  6
CONTINUOUS
 62
    7
 10
-5419.7799161932899
 20
707.61536104826075
 11
-5419.7799161932899
 21
702.61536104826075
  0
LINE
  8
_0-1_1_5
  6
CONTINUOUS
 62
    7
 10
-5422.2799161932899
 20
705.11536104826075
 11
-5417.2799161932899
 21
705.11536104826075
  0
LINE
  8
_0-1_1_5
  6
CONTINUOUS
 62
    7
 10
-5419.7799161932899
 20
710.11536104826075
 11
-4971.7799161932899
 21
710.11536104826075
  0
LINE
  8
_0-1_1_5
  6
CONTINUOUS
 62
    7
 10
-5419.7799161932899
 20
700.11536104826075
 11
-4971.7799161932899
 21
700.11536104826075
  0
LINE
  8
_0-1_1_5
  6
CONTINUOUS
 62
    7
 10
-4833.8989884125549
 20
700.11536104826075
 11
-4860.8989884125549
 21
700.11536104826075
  0
LINE
  8
_0-1_1_5
  6
CONTINUOUS
 62
    7
 10
-4833.8989884125549
 20
710.11536104826075
 11
-4833.8989884125549
 21
700.11536104826075
  0
LINE
  8
_0-1_1_5
  6
CONTINUOUS
 62
    7
 10
-4833.8989884125549
 20
710.11536104826075
 11
-4860.8989884125549
 21
710.11536104826075
  0
ARC
  8
_0-1_1_5
  6
CONTINUOUS
 62
    7
 10
-4860.8989884125549
 20
705.11536104826075
 40
5
 50
90
 51
270
  0
ARC
  8
_0-1_1_5
  6
DASHED2
 62
    7
 10
-4860.8989884125549
 20
705.11536104826075
 40
5
 50
270
 51
90
  0
LINE
  8
_0-1_1_5
  6
CENTER2
 62
    7
 10
-4843.8989884125549
 20
705.11536104826075
 11
-4831.8989884125549
 21
705.11536104826075
  0
TEXT
  8
_0-2_ADD_LINE
 62
    7
 10
-4908.1934880701974
 20
527.79379855095385
 40
12.4
 41
1
 50
0
  1
対応ドア厚  10-22mm
  0
TEXT
  8
_0-2_ADD_LINE
 62
    7
 10
-4887.7343628788067
 20
690.43381176133198
 40
12.4
 41
1
 50
90
  1
φ
  0
TEXT
  8
_0-2_ADD_LINE
 62
    7
 10
-4797.3523324900707
 20
684.69602253386915
 40
12.4
 41
1
 50
0
  1
M4
  0
TEXT
  8
_0-3_
 62
    7
 10
-5277.3087697885685
 20
248.01743252540874
 40
12.4
 41
1
 50
0
  1
サテン
  0
POINT
  8
_0-1_1_5
 62
    7
 10
-4938.2954756079516
 20
564.78181259579401
  0
POINT
  8
_0-1_1_5
 62
    7
 10
-4938.2954756079516
 20
532.29478649246687
  0
LINE
  8
_0-1_1_5
  6
CONTINUOUS
 62
    7
 10
-4938.2954756079516
 20
564.78181259579401
 11
-4963.1400782176788
 21
564.78181259579401
  0
LINE
  8
_0-1_1_5
  6
CONTINUOUS
 62
    7
 10
-4938.2954756079516
 20
532.29478649246687
 11
-4963.1400782176788
 21
532.29478649246687
  0
LINE
  8
_0-1_1_5
  6
CONTINUOUS
 62
    7
 10
-4938.2954756079516
 20
564.78181259579401
 11
-4938.2954756079516
 21
532.29478649246687
  0
TEXT
  8
_0-1_1_5
 62
    4
 10
-4940.2954756079516
 20
543.53829954413038
 40
10
 41
1
 50
90
  1
32
  0
LINE
  8
_0-1_1_5
  6
CONTINUOUS
 62
    7
 10
-4976.750410225316
 20
542.28877769758242
 11
-4966.750410225316
 21
532.28877769758242
  0
LINE
  8
_0-1_1_5
  6
CONTINUOUS
 62
    7
 10
-4976.750410225316
 20
564.77580380090944
 11
-4966.750410225316
 21
564.77580380090944
  0
LINE
  8
_0-1_1_5
  6
CONTINUOUS
 62
    7
 10
-4976.750410225316
 20
542.28877769758242
 11
-4976.750410225316
 21
564.77580380090944
  0
LINE
  8
_0-1_1_5
  6
CONTINUOUS
 62
    7
 10
-4966.750410225316
 20
532.28877769758242
 11
-4966.750410225316
 21
564.77580380090944
  0
LINE
  8
_0-1_1_5
  6
CENTER2
 62
    7
 10
-4971.750410225316
 20
554.77580380090944
 11
-4971.750410225316
 21
566.77580380090944
  0
LINE
  8
_0-1_1_5
  6
CENTER2
 62
    7
 10
-5419.750410225316
 20
554.77580380090944
 11
-5419.750410225316
 21
566.77580380090944
  0
LINE
  8
_0-1_1_5
  6
CONTINUOUS
 62
    7
 10
-5414.750410225316
 20
542.28877769758242
 11
-5414.750410225316
 21
564.77580380090944
  0
LINE
  8
_0-1_1_5
  6
CONTINUOUS
 62
    7
 10
-5424.750410225316
 20
532.28877769758242
 11
-5414.750410225316
 21
542.28877769758242
  0
LINE
  8
_0-1_1_5
  6
CONTINUOUS
 62
    7
 10
-5424.750410225316
 20
564.77580380090944
 11
-5414.750410225316
 21
564.77580380090944
  0
LINE
  8
_0-1_1_5
  6
CONTINUOUS
 62
    7
 10
-5424.750410225316
 20
532.28877769758242
 11
-5424.750410225316
 21
564.77580380090944
  0
LINE
  8
_0-1_1_5
  6
CONTINUOUS
 62
    7
 10
-5424.750410225316
 20
532.28877769758242
 11
-4966.750410225316
 21
532.28877769758242
  0
LINE
  8
_0-1_1_5
  6
CONTINUOUS
 62
    7
 10
-5414.750410225316
 20
542.28877769758242
 11
-4976.750410225316
 21
542.28877769758242
  0
POINT
  8
_0-1_1_5
 62
    7
 10
-5424.750410225316
 20
580.33725963748509
  0
POINT
  8
_0-1_1_5
 62
    7
 10
-5414.750410225316
 20
580.33725963748509
  0
LINE
  8
_0-1_1_5
  6
CONTINUOUS
 62
    7
 10
-5424.750410225316
 20
580.33725963748509
 11
-5424.750410225316
 21
566.97545655326212
  0
LINE
  8
_0-1_1_5
  6
CONTINUOUS
 62
    7
 10
-5414.750410225316
 20
580.33725963748509
 11
-5414.750410225316
 21
566.97545655326212
  0
LINE
  8
_0-1_1_5
  6
CONTINUOUS
 62
    7
 10
-5424.750410225316
 20
580.33725963748509
 11
-5414.750410225316
 21
580.33725963748509
  0
TEXT
  8
_0-1_1_5
 62
    4
 10
-5424.750410225316
 20
582.33725963748509
 40
10
 41
1
 50
0
  1
10
  0
TEXT
  8
_0-3_
 62
    7
 10
-4901.94456231821
 20
271.42500122920251
 40
12.4
 41
1
 50
0
  1
TFP21-1044-002
  0
ENDSEC
  0
EOF
