  0
SECTION
  2
HEADER
  9
$ACADVER
  1
AC1009
  9
$INSBASE
 10
0
 20
0
 30
0
  9
$EXTMIN
 10
0
 20
0
  9
$EXTMAX
 10
594
 20
420
  9
$LIMMIN
 10
0
 20
0
  9
$LIMMAX
 10
594
 20
420
  9
$LTSCALE
 40
2
  0
ENDSEC
  0
SECTION
  2
TABLES
  0
TABLE
  2
LTYPE
 70
     9
  0
LTYPE
  2
CONTINUOUS
 70
    64
  3
実線
 72
    65
 73
     0
 40
0.0
  0
LTYPE
  2
DASHED1
 70
    64
  3
--  --  --  --  --  --  --  --  
 72
    65
 73
     2
 40
2.5
 49
1.25
 49
-1.25
  0
LTYPE
  2
DASHED2
 70
    64
  3
----    ----    ----    ----    
 72
    65
 73
     2
 40
5.0
 49
2.5
 49
-2.5
  0
LTYPE
  2
DASHED3
 70
    64
  3
------  ------  ------  ------  
 72
    65
 73
     2
 40
5.0
 49
3.75
 49
-1.25
  0
LTYPE
  2
CENTER1
 70
    64
  3
----- - ----- - ----- - ----- - 
 72
    65
 73
     4
 40
10.0
 49
6.25
 49
-1.25
 49
1.25
 49
-1.25
  0
LTYPE
  2
CENTER2
 70
    64
  3
----------  --  ----------  --  
 72
    65
 73
     4
 40
20.0
 49
12.5
 49
-2.5
 49
2.5
 49
-2.5
  0
LTYPE
  2
PHANTOM1
 70
    64
  3
--- - - --- - - --- - - --- - - 
 72
    65
 73
     6
 40
10.0
 49
3.25
 49
-1.25
 49
1.25
 49
-1.25
 49
1.25
 49
-1.25
  0
LTYPE
  2
PHANTOM2
 70
    64
  3
--------  -  -  --------  -  -  
 72
    65
 73
     6
 40
20.0
 49
10.0
 49
-2.5
 49
1.25
 49
-2.5
 49
1.25
 49
-2.5
  0
LTYPE
  2
DOT
 70
    64
  3
-   -   -   -   -   -   -   -   
 72
    65
 73
     2
 40
2.5
 49
0.625
 49
-1.875
  0
LTYPE
  2
DUMMY
 70
    64
  3
ダミー
 72
    65
 73
     0
 40
0.0
  0
LTYPE
  2
RAND1
 70
    64
  3
ランダム線1
 72
    65
 73
     4
 40
10.0
 49
1.0
 49
-2.0
 49
3.0
 49
-4.0
  0
LTYPE
  2
RAND2
 70
    64
  3
ランダム線2
 72
    65
 73
     4
 40
14.0
 49
2.0
 49
-3.0
 49
4.0
 49
-5.0
  0
LTYPE
  2
RAND3
 70
    64
  3
ランダム線3
 72
    65
 73
     4
 40
18.0
 49
3.0
 49
-4.0
 49
5.0
 49
-6.0
  0
LTYPE
  2
RAND4
 70
    64
  3
ランダム線4
 72
    65
 73
     4
 40
22.0
 49
4.0
 49
-5.0
 49
6.0
 49
-7.0
  0
LTYPE
  2
RAND5
 70
    64
  3
ランダム線5
 72
    65
 73
     4
 40
26.0
 49
5.0
 49
-6.0
 49
7.0
 49
-8.0
  0
LTYPE
  2
LONG1
 70
    64
  3
----------  --  ----------  --  
 72
    65
 73
     4
 40
40.0
 49
32.5
 49
-2.5
 49
2.5
 49
-2.5
  0
LTYPE
  2
LONG2
 70
    64
  3
--------  -  -  --------  -  -  
 72
    65
 73
     6
 40
40.0
 49
30.0
 49
-2.5
 49
1.25
 49
-2.5
 49
1.25
 49
-2.5
  0
LTYPE
  2
LONG3
 70
    64
  3
+++++++++++++++..+++++++++++++++
 72
    65
 73
     2
 40
40.0
 49
37.5
 49
-2.5
  0
LTYPE
  2
LONG4
 70
    64
  3
+++++++++++++++..+++++++++++++++
 72
    65
 73
     2
 40
80.0
 49
75.0
 49
-5.0
  0
LTYPE
  2
LONG5
 70
    64
  3
----------  --  ----------  --  
 72
    65
 73
     4
 40
60.0
 49
37.5
 49
-7.5
 49
7.5
 49
-7.5
  0
LTYPE
  2
dashed
 70
   64
  3
-------   -------------   ------
 72
   65
 73
    2
 40
7.5
 49
6
 49
-1.5
  0
LTYPE
  2
dashed_spaced
 70
   64
  3
----        --------        ----
 72
   65
 73
    2
 40
12
 49
6
 49
-6
  0
LTYPE
  2
long_dashed_dotted
 70
   64
  3
------------- --- --------------
 72
   65
 73
    4
 40
15.25
 49
12
 49
-1.5
 49
0.25
 49
-1.5
  0
LTYPE
  2
long_dashed_double-dotted
 70
   64
  3
----------- --- --- ------------
 72
   65
 73
    6
 40
17
 49
12
 49
-1.5
 49
0.25
 49
-1.5
 49
0.25
 49
-1.5
  0
LTYPE
  2
long_dashed_triplicate-dotted
 70
   64
  3
--------- --- --- --- ----------
 72
   65
 73
    8
 40
18.75
 49
12
 49
-1.5
 49
0.25
 49
-1.5
 49
0.25
 49
-1.5
 49
0.25
 49
-1.5
  0
LTYPE
  2
dotted
 70
   64
  3
   -       -       -       -    
 72
   65
 73
    2
 40
1.75
 49
0.25
 49
-1.5
  0
LTYPE
  2
chain
 70
   64
  3
-------------- -- --------------
 72
   65
 73
    4
 40
18.5
 49
12
 49
-1.5
 49
3.5
 49
-1.5
  0
LTYPE
  2
chain_double_dash
 70
   64
  3
------------ -- -- -------------
 72
   65
 73
    6
 40
23.5
 49
12
 49
-1.5
 49
3.5
 49
-1.5
 49
3.5
 49
-1.5
  0
LTYPE
  2
dashed_dotted
 70
   64
  3
-----------     -     ----------
 72
   65
 73
    4
 40
9.25
 49
6
 49
-1.5
 49
0.25
 49
-1.5
  0
LTYPE
  2
double-dashed_dotted
 70
   64
  3
------   -----------   -   -----
 72
   65
 73
    6
 40
16.75
 49
6
 49
-1.5
 49
6
 49
-1.5
 49
0.25
 49
-1.5
  0
LTYPE
  2
dashed_double-dotted
 70
   64
  3
---------    -    -    ---------
 72
   65
 73
    6
 40
11
 49
6
 49
-1.5
 49
0.25
 49
-1.5
 49
0.25
 49
-1.5
  0
LTYPE
  2
double-dashed_double-dotted
 70
   64
  3
-----   ---------   -   -   ----
 72
   65
 73
    8
 40
18.5
 49
6
 49
-1.5
 49
6
 49
-1.5
 49
0.25
 49
-1.5
 49
0.25
 49
-1.5
  0
LTYPE
  2
dashed_triplicate-dotted
 70
   64
  3
-------    -    -    -    ------
 72
   65
 73
    8
 40
12.75
 49
6
 49
-1.5
 49
0.25
 49
-1.5
 49
0.25
 49
-1.5
 49
0.25
 49
-1.5
  0
LTYPE
  2
double-dashed_triplicate-dotted
 70
   64
  3
-----  ---------  -  -  -  -----
 72
   65
 73
   10
 40
20.25
 49
6
 49
-1.5
 49
6
 49
-1.5
 49
0.25
 49
-1.5
 49
0.25
 49
-1.5
 49
0.25
 49
-1.5
  0
LTYPE
  2
undefined
 70
   64
  3
--------------------------------
 72
   65
 73
    0
 40
0
  0
LTYPE
  2
STYLE_01
 70
   64
  3
----        --------        ----
 72
   65
 73
    2
 40
0.4166399999999997
 49
0.2082799999999999
 49
-0.2083599999999999
  0
LTYPE
  2
STYLE_02
 70
   64
  3
------     -----------     -----
 72
   65
 73
    2
 40
0.694425
 49
0.48607
 49
-0.2083550000000001
  0
LTYPE
  2
STYLE_03
 70
   64
  3
-------   -------------   ------
 72
   65
 73
    2
 40
1.25
 49
1.0416400000000001
 49
-0.2083599999999999
  0
LTYPE
  2
STYLE_04
 70
   64
  3
-------  --------------  -------
 72
   65
 73
    2
 40
1.5277099999999999
 49
1.3194249999999998
 49
-0.208285
  0
LTYPE
  2
STYLE_05
 70
   64
  3
---           -----           --
 72
   65
 73
    2
 40
0.20828
 49
0.069425
 49
-0.138855
  0
LTYPE
  2
STYLE_06
 70
   64
  3
----------      --    ----------
 72
   65
 73
    4
 40
1.0416399999999999
 49
0.625
 49
-0.2082799999999999
 49
0.06943
 49
-0.13893
  0
LTYPE
  2
STYLE_07
 70
   64
  3
-----    -----------    -  -----
 72
   65
 73
    6
 40
1.8749999999999998
 49
0.625
 49
-0.2082799999999999
 49
0.6250000000000001
 49
-0.2083599999999999
 49
0.06943
 49
-0.1389299999999998
  0
LTYPE
  2
STYLE_08
 70
   64
  3
--------     --    --    -------
 72
   65
 73
    6
 40
1.2499999999999996
 49
0.625
 49
-0.2082799999999999
 49
0.06943
 49
-0.13893
 49
0.0694299999999997
 49
-0.13893
  0
LTYPE
  2
STYLE_09
 70
   64
  3
------------  ----  ------------
 72
   65
 73
    4
 40
5
 49
3.75
 49
-0.2777849999999997
 49
0.6944300000000003
 49
-0.2777849999999997
  0
LTYPE
  2
STYLE_10
 70
   64
  3
----------- ---- ---  ----------
 72
   65
 73
    6
 40
5.9375
 49
3.75
 49
-0.2777849999999997
 49
0.6944300000000003
 49
-0.2777849999999997
 49
0.625
 49
-0.3125
  0
ENDTAB
  0
TABLE
  2
STYLE
  5
3
100
AcDbSymbolTable
 70
     1
  0
STYLE
  5
10
100
AcDbSymbolTableRecord
100
AcDbTextStyleTableRecord
  2
STANDARD
 70
     0
 40
0.0
 41
1.0
 50
0.0
 71
     0
 42
0.2
  3
txt
  4
bigfont.shx
  0
STYLE
  5
26
100
AcDbSymbolTableRecord
100
AcDbTextStyleTableRecord
  2
TATEGAKI
 70
    68
 40
0.0
 41
1.0
 50
0.0
 71
     0
 42
1.0
  3
txt
  4
bigfont.shx
  0
ENDTAB
  0
TABLE
  2
LAYER
 70
    4
  0
LAYER
  2
_0-1_1_5
 70
   64
 62
    7
  6
CONTINUOUS
  0
LAYER
  2
_0-2_ADD_LINE
 70
   64
 62
    7
  6
CONTINUOUS
  0
LAYER
  2
_0-3_
 70
   64
 62
    7
  6
CONTINUOUS
  0
LAYER
  2
ADD_LINE
 70
   64
 62
    7
  6
CONTINUOUS
  0
ENDTAB
  0
ENDSEC
  0
SECTION
  2
BLOCKS
  0
ENDSEC
  0
SECTION
  2
ENTITIES
  0
LINE
  8
_0-3_
  6
CONTINUOUS
 62
    7
 10
-2285.3191900232764
 20
133.44305099496165
 11
-2659.0136151385595
 21
133.44305099496165
  0
LINE
  8
_0-3_
  6
CONTINUOUS
 62
    7
 10
-2285.3191900232764
 20
121.44305099496164
 11
-2659.0136151385595
 21
121.44305099496164
  0
LINE
  8
_0-3_
  6
CONTINUOUS
 62
    7
 10
-2659.0136151385595
 20
109.44305099496162
 11
-2659.0136151385595
 21
145.44305099496165
  0
TEXT
  8
_0-3_
 62
    4
 10
-2656.2256696921822
 20
139.13516860251991
 40
4
 41
1
 50
0
  1
品名
  0
TEXT
  8
_0-3_
 62
    4
 10
-2656.2256696921822
 20
127.27657170658921
 40
4
 41
1
 50
0
  1
仕上げ
  0
TEXT
  8
_0-3_
 62
    4
 10
-2656.2256696921822
 20
114.79383813192528
 40
4
 41
1
 50
0
  1
材質
  0
TEXT
  8
_0-3_
 62
    7
 10
-2638.6543848942842
 20
111.90742545420862
 40
6.2000000000000002
 41
1
 50
0
  1
ステンレススチール
  0
TEXT
  8
_0-3_
 62
    4
 10
-2469.874698919843
 20
139.2108088388872
 40
4
 41
1
 50
0
  1
品番
  0
LINE
  8
_0-3_
  6
CONTINUOUS
 62
    7
 10
-2471.9858567032761
 20
109.4430509949616
 11
-2471.9858567032761
 21
145.44305099496165
  0
LINE
  8
_0-3_
  6
CONTINUOUS
 62
    7
 10
-2285.3191900232764
 20
145.44305099496165
 11
-2659.0136151385595
 21
145.44305099496165
  0
TEXT
  8
_0-3_
 62
    4
 10
-2469.8991318155518
 20
127.30620380899599
 40
4
 41
1
 50
0
  1
縮尺
  0
TEXT
  8
_0-3_
 62
    7
 10
-2845.2592058401437
 20
100.16500522567961
 40
5
 41
1
 50
0
  1
120718SH
  0
LINE
  8
_0-3_
  6
CONTINUOUS
 62
    7
 10
-2845.3191900232764
 20
499.44305099496171
 11
-2845.3191900232764
 21
109.44305099496162
  0
LINE
  8
_0-3_
  6
CONTINUOUS
 62
    7
 10
-2845.3191900232764
 20
109.44305099496162
 11
-2285.3191900232764
 21
109.4430509949616
  0
LINE
  8
_0-3_
  6
CONTINUOUS
 62
    7
 10
-2285.3191900232764
 20
109.4430509949616
 11
-2285.3191900232764
 21
499.44305099496171
  0
LINE
  8
_0-3_
  6
CONTINUOUS
 62
    7
 10
-2285.3191900232764
 20
499.44305099496171
 11
-2845.3191900232764
 21
499.44305099496171
  0
TEXT
  8
_0-3_
 62
    7
 10
-2638.6543848942842
 20
136.3159199994252
 40
6.2000000000000002
 41
1
 50
0
  1
ファニチャーハンドル
  0
TEXT
  8
_0-3_
 62
    7
 10
-2450.972281159105
 20
112.11350609525104
 40
6.2000000000000002
 41
1
 50
0
  1
大洋金物株式会社  ティーエフプラス事業部
  0
TEXT
  8
_0-3_
 62
    7
 10
-2450.972281159105
 20
123.51777346997648
 40
6.2000000000000002
 41
1
 50
0
  1
1/2
  0
LINE
  8
_0-1_1_5
  6
CONTINUOUS
 62
    7
 10
-2700.5596471305926
 20
349.44431068430566
 11
-2700.5596471305926
 21
339.44431068430566
  0
POINT
  8
_0-2_ADD_LINE
 62
    7
 10
-2454.6183447774192
 20
349.44431068430566
  0
POINT
  8
_0-2_ADD_LINE
 62
    7
 10
-2454.6183447774192
 20
339.44431068430566
  0
LINE
  8
_0-2_ADD_LINE
  6
CONTINUOUS
 62
    7
 10
-2454.6183447774192
 20
349.44431068430566
 11
-2446.4799429294121
 21
349.44431068430566
  0
LINE
  8
_0-2_ADD_LINE
  6
CONTINUOUS
 62
    7
 10
-2454.6183447774192
 20
339.44431068430566
 11
-2446.4799429294121
 21
339.44431068430566
  0
LINE
  8
_0-2_ADD_LINE
  6
CONTINUOUS
 62
    7
 10
-2454.6183447774192
 20
349.44431068430566
 11
-2454.6183447774192
 21
339.44431068430566
  0
TEXT
  8
_0-2_ADD_LINE
 62
    4
 10
-2455.6183447774192
 20
341.94431068430566
 40
5
 41
1
 50
90
  1
10
  0
POINT
  8
_0-2_ADD_LINE
 62
    7
 10
-2479.1126039972378
 20
279.11076223183886
  0
POINT
  8
_0-2_ADD_LINE
 62
    7
 10
-2479.1126039972378
 20
246.62373612851172
  0
LINE
  8
_0-2_ADD_LINE
  6
CONTINUOUS
 62
    7
 10
-2479.1126039972378
 20
279.11076223183886
 11
-2494.5596471305926
 21
279.11076223183886
  0
LINE
  8
_0-2_ADD_LINE
  6
CONTINUOUS
 62
    7
 10
-2479.1126039972378
 20
246.62373612851172
 11
-2494.5596471305926
 21
246.62373612851172
  0
LINE
  8
_0-2_ADD_LINE
  6
CONTINUOUS
 62
    7
 10
-2479.1126039972378
 20
279.11076223183886
 11
-2479.1126039972378
 21
246.62373612851172
  0
TEXT
  8
_0-2_ADD_LINE
 62
    4
 10
-2480.1126039972378
 20
260.36724918017529
 40
5
 41
1
 50
90
  1
32
  0
POINT
  8
_0-2_ADD_LINE
 62
    7
 10
-2503.5596471305926
 20
373.99687312834681
  0
LINE
  8
_0-2_ADD_LINE
  6
CONTINUOUS
 62
    7
 10
-2503.5596471305926
 20
373.99687312834681
 11
-2503.5596471305926
 21
348.44431068430566
  0
POINT
  8
_0-2_ADD_LINE
 62
    7
 10
-2498.5596471305926
 20
386.14628681917503
  0
LINE
  8
_0-2_ADD_LINE
  6
CONTINUOUS
 62
    7
 10
-2498.5596471305926
 20
386.14628681917503
 11
-2498.5596471305926
 21
353.44431068430566
  0
LINE
  8
_0-2_ADD_LINE
  6
CONTINUOUS
 62
    7
 10
-2412.5659826559854
 20
344.25342525567561
 11
-2401.1097905683432
 21
332.94505500142242
  0
LINE
  8
_0-2_ADD_LINE
  6
CONTINUOUS
 62
    7
 10
-2401.1097905683432
 20
333.01896591811692
 11
-2384.6276561454774
 21
333.01896591811692
  0
LINE
  8
_0-1_1_5
  6
CENTER2
 62
    7
 10
-2503.5596471305926
 20
346.94431068430566
 11
-2503.5596471305926
 21
341.94431068430566
  0
LINE
  8
_0-1_1_5
  6
CENTER2
 62
    7
 10
-2506.0596471305926
 20
344.44431068430566
 11
-2501.0596471305926
 21
344.44431068430566
  0
LINE
  8
_0-1_1_5
  6
CONTINUOUS
 62
    7
 10
-2498.5596471305926
 20
349.44431068430566
 11
-2498.5596471305926
 21
339.44431068430566
  0
LINE
  8
_0-1_1_5
  6
DASHED2
 62
    7
 10
-2508.5596471305926
 20
349.44431068430566
 11
-2508.5596471305926
 21
339.44431068430566
  0
LINE
  8
_0-1_1_5
  6
CONTINUOUS
 62
    7
 10
-2651.0748539712231
 20
349.44431068430566
 11
-2498.5596471305926
 21
349.44431068430566
  0
LINE
  8
_0-1_1_5
  6
CONTINUOUS
 62
    7
 10
-2412.4799429294121
 20
339.44431068430566
 11
-2444.4799429294121
 21
339.44431068430566
  0
LINE
  8
_0-1_1_5
  6
CONTINUOUS
 62
    7
 10
-2412.4799429294121
 20
349.44431068430566
 11
-2412.4799429294121
 21
339.44431068430566
  0
LINE
  8
_0-1_1_5
  6
CONTINUOUS
 62
    7
 10
-2444.4799429294121
 20
349.44431068430566
 11
-2444.4799429294121
 21
339.44431068430566
  0
LINE
  8
_0-1_1_5
  6
CONTINUOUS
 62
    7
 10
-2412.4799429294121
 20
349.44431068430566
 11
-2444.4799429294121
 21
349.44431068430566
  0
LINE
  8
_0-1_1_5
  6
DASHED2
 62
    7
 10
-2434.4799429294121
 20
349.44431068430566
 11
-2434.4799429294121
 21
339.44431068430566
  0
LINE
  8
_0-1_1_5
  6
CENTER2
 62
    7
 10
-2422.4799429294121
 20
344.44431068430566
 11
-2410.4799429294121
 21
344.44431068430566
  0
POINT
  8
_0-2_ADD_LINE
 62
    7
 10
-2695.5596471305926
 20
373.99687312834681
  0
LINE
  8
_0-2_ADD_LINE
  6
CONTINUOUS
 62
    7
 10
-2695.5596471305926
 20
373.99687312834681
 11
-2695.5596471305926
 21
348.44431068430566
  0
POINT
  8
_0-2_ADD_LINE
 62
    7
 10
-2700.5596471305926
 20
386.14628681917503
  0
LINE
  8
_0-2_ADD_LINE
  6
CONTINUOUS
 62
    7
 10
-2700.5596471305926
 20
386.14628681917503
 11
-2700.5596471305926
 21
353.44431068430566
  0
LINE
  8
_0-1_1_5
  6
CENTER2
 62
    7
 10
-2695.5596471305926
 20
346.94431068430566
 11
-2695.5596471305926
 21
341.94431068430566
  0
LINE
  8
_0-1_1_5
  6
CENTER2
 62
    7
 10
-2698.0596471305926
 20
344.44431068430566
 11
-2693.0596471305926
 21
344.44431068430566
  0
LINE
  8
_0-1_1_5
  6
DASHED2
 62
    7
 10
-2690.5596471305926
 20
349.44431068430566
 11
-2690.5596471305926
 21
339.44431068430566
  0
LINE
  8
_0-2_ADD_LINE
  6
CONTINUOUS
 62
    7
 10
-2695.5596471305926
 20
373.99687312834681
 11
-2503.5596471305926
 21
373.99687312834681
  0
TEXT
  8
_0-2_ADD_LINE
 62
    4
 10
-2603.3096471305926
 20
374.99687312834681
 40
5
 41
1
 50
0
  1
192
  0
LINE
  8
_0-2_ADD_LINE
  6
CONTINUOUS
 62
    7
 10
-2700.5596471305926
 20
386.14628681917503
 11
-2498.5596471305926
 21
386.14628681917503
  0
TEXT
  8
_0-2_ADD_LINE
 62
    4
 10
-2603.3096471305926
 20
387.14628681917503
 40
5
 41
1
 50
0
  1
202
  0
LINE
  8
_0-1_1_5
  6
CONTINUOUS
 62
    7
 10
-2700.5596471305926
 20
339.44431068430566
 11
-2498.5596471305926
 21
339.44431068430566
  0
LINE
  8
_0-1_1_5
  6
CONTINUOUS
 62
    7
 10
-2700.5596471305926
 20
349.44431068430566
 11
-2651.4042809167968
 21
349.44431068430566
  0
TEXT
  8
_0-2_ADD_LINE
 62
    7
 10
-2395.5136417670742
 20
333.07644707195607
 40
6.2000000000000002
 41
1
 50
0
  1
M4
  0
TEXT
  8
_0-2_ADD_LINE
 62
    7
 10
-2458.4033112137654
 20
245.19607215655503
 40
6.2000000000000002
 41
1
 50
0
  1
対応ドア厚  10-22mm
  0
TEXT
  8
_0-3_
 62
    7
 10
-2638.6543848942842
 20
124.00871626270437
 40
6.2000000000000002
 41
1
 50
0
  1
サテン
  0
LINE
  8
_0-1_1_5
  6
CENTER2
 62
    7
 10
-2503.5596471305926
 20
269.11076223183886
 11
-2503.5596471305926
 21
281.11076223183886
  0
LINE
  8
_0-1_1_5
  6
CONTINUOUS
 62
    7
 10
-2498.5596471305926
 20
246.62373612851172
 11
-2498.5596471305926
 21
279.11076223183886
  0
LINE
  8
_0-1_1_5
  6
CONTINUOUS
 62
    7
 10
-2508.5596471305926
 20
256.62373612851172
 11
-2508.5596471305926
 21
279.11076223183886
  0
LINE
  8
_0-1_1_5
  6
CONTINUOUS
 62
    7
 10
-2508.5596471305926
 20
279.11076223183886
 11
-2498.5596471305926
 21
279.11076223183886
  0
LINE
  8
_0-1_1_5
  6
CENTER2
 62
    7
 10
-2695.5596471305926
 20
269.11076223183886
 11
-2695.5596471305926
 21
281.11076223183886
  0
LINE
  8
_0-1_1_5
  6
CONTINUOUS
 62
    7
 10
-2690.5596471305926
 20
256.62373612851172
 11
-2690.5596471305926
 21
279.11076223183886
  0
LINE
  8
_0-1_1_5
  6
CONTINUOUS
 62
    7
 10
-2700.5596471305926
 20
246.62373612851172
 11
-2700.5596471305926
 21
279.11076223183886
  0
LINE
  8
_0-1_1_5
  6
CONTINUOUS
 62
    7
 10
-2700.5596471305926
 20
279.11076223183886
 11
-2690.5596471305926
 21
279.11076223183886
  0
LINE
  8
_0-1_1_5
  6
CONTINUOUS
 62
    7
 10
-2690.5596471305926
 20
256.62373612851172
 11
-2508.5596471305926
 21
256.62373612851172
  0
LINE
  8
_0-1_1_5
  6
CONTINUOUS
 62
    7
 10
-2700.5596471305926
 20
246.62373612851172
 11
-2498.5596471305926
 21
246.62373612851172
  0
POINT
  8
_0-2_ADD_LINE
 62
    7
 10
-2700.5596471305926
 20
287.74811919150977
  0
POINT
  8
_0-2_ADD_LINE
 62
    7
 10
-2690.5596471305926
 20
287.74811919150977
  0
LINE
  8
_0-2_ADD_LINE
  6
CONTINUOUS
 62
    7
 10
-2700.5596471305926
 20
287.74811919150977
 11
-2700.5596471305926
 21
280.38868858652756
  0
LINE
  8
_0-2_ADD_LINE
  6
CONTINUOUS
 62
    7
 10
-2690.5596471305926
 20
287.74811919150977
 11
-2690.5596471305926
 21
280.38868858652756
  0
LINE
  8
_0-2_ADD_LINE
  6
CONTINUOUS
 62
    7
 10
-2700.5596471305926
 20
287.74811919150977
 11
-2690.5596471305926
 21
287.74811919150977
  0
TEXT
  8
_0-2_ADD_LINE
 62
    4
 10
-2698.0596471305926
 20
288.74811919150977
 40
5
 41
1
 50
0
  1
10
  0
TEXT
  8
_0-3_
 62
    7
 10
-2450.9372898705997
 20
135.5720532731944
 40
6.2000000000000002
 41
1
 50
0
  1
TFP21-2019-002
  0
ENDSEC
  0
EOF
