  0
SECTION
  2
HEADER
  9
$ACADVER
  1
AC1009
  9
$INSBASE
 10
0
 20
0
 30
0
  9
$EXTMIN
 10
0
 20
0
  9
$EXTMAX
 10
297
 20
210
  9
$LIMMIN
 10
0
 20
0
  9
$LIMMAX
 10
297
 20
210
  9
$LTSCALE
 40
1
  0
ENDSEC
  0
SECTION
  2
TABLES
  0
TABLE
  2
LTYPE
 70
     9
  0
LTYPE
  2
CONTINUOUS
 70
    64
  3
実線
 72
    65
 73
     0
 40
0.0
  0
LTYPE
  2
DASHED1
 70
    64
  3
--  --  --  --  --  --  --  --  
 72
    65
 73
     2
 40
2.5
 49
1.25
 49
-1.25
  0
LTYPE
  2
DASHED2
 70
    64
  3
----    ----    ----    ----    
 72
    65
 73
     2
 40
5.0
 49
2.5
 49
-2.5
  0
LTYPE
  2
DASHED3
 70
    64
  3
------  ------  ------  ------  
 72
    65
 73
     2
 40
5.0
 49
3.75
 49
-1.25
  0
LTYPE
  2
CENTER1
 70
    64
  3
----- - ----- - ----- - ----- - 
 72
    65
 73
     4
 40
10.0
 49
6.25
 49
-1.25
 49
1.25
 49
-1.25
  0
LTYPE
  2
CENTER2
 70
    64
  3
----------  --  ----------  --  
 72
    65
 73
     4
 40
20.0
 49
12.5
 49
-2.5
 49
2.5
 49
-2.5
  0
LTYPE
  2
PHANTOM1
 70
    64
  3
--- - - --- - - --- - - --- - - 
 72
    65
 73
     6
 40
10.0
 49
3.25
 49
-1.25
 49
1.25
 49
-1.25
 49
1.25
 49
-1.25
  0
LTYPE
  2
PHANTOM2
 70
    64
  3
--------  -  -  --------  -  -  
 72
    65
 73
     6
 40
20.0
 49
10.0
 49
-2.5
 49
1.25
 49
-2.5
 49
1.25
 49
-2.5
  0
LTYPE
  2
DOT
 70
    64
  3
-   -   -   -   -   -   -   -   
 72
    65
 73
     2
 40
2.5
 49
0.625
 49
-1.875
  0
LTYPE
  2
DUMMY
 70
    64
  3
ダミー
 72
    65
 73
     0
 40
0.0
  0
LTYPE
  2
RAND1
 70
    64
  3
ランダム線1
 72
    65
 73
     4
 40
10.0
 49
1.0
 49
-2.0
 49
3.0
 49
-4.0
  0
LTYPE
  2
RAND2
 70
    64
  3
ランダム線2
 72
    65
 73
     4
 40
14.0
 49
2.0
 49
-3.0
 49
4.0
 49
-5.0
  0
LTYPE
  2
RAND3
 70
    64
  3
ランダム線3
 72
    65
 73
     4
 40
18.0
 49
3.0
 49
-4.0
 49
5.0
 49
-6.0
  0
LTYPE
  2
RAND4
 70
    64
  3
ランダム線4
 72
    65
 73
     4
 40
22.0
 49
4.0
 49
-5.0
 49
6.0
 49
-7.0
  0
LTYPE
  2
RAND5
 70
    64
  3
ランダム線5
 72
    65
 73
     4
 40
26.0
 49
5.0
 49
-6.0
 49
7.0
 49
-8.0
  0
LTYPE
  2
LONG1
 70
    64
  3
----------  --  ----------  --  
 72
    65
 73
     4
 40
40.0
 49
32.5
 49
-2.5
 49
2.5
 49
-2.5
  0
LTYPE
  2
LONG2
 70
    64
  3
--------  -  -  --------  -  -  
 72
    65
 73
     6
 40
40.0
 49
30.0
 49
-2.5
 49
1.25
 49
-2.5
 49
1.25
 49
-2.5
  0
LTYPE
  2
LONG3
 70
    64
  3
+++++++++++++++..+++++++++++++++
 72
    65
 73
     2
 40
40.0
 49
37.5
 49
-2.5
  0
LTYPE
  2
LONG4
 70
    64
  3
+++++++++++++++..+++++++++++++++
 72
    65
 73
     2
 40
80.0
 49
75.0
 49
-5.0
  0
LTYPE
  2
LONG5
 70
    64
  3
----------  --  ----------  --  
 72
    65
 73
     4
 40
60.0
 49
37.5
 49
-7.5
 49
7.5
 49
-7.5
  0
LTYPE
  2
dashed
 70
   64
  3
-------   -------------   ------
 72
   65
 73
    2
 40
7.5
 49
6
 49
-1.5
  0
LTYPE
  2
dashed_spaced
 70
   64
  3
----        --------        ----
 72
   65
 73
    2
 40
12
 49
6
 49
-6
  0
LTYPE
  2
long_dashed_dotted
 70
   64
  3
------------- --- --------------
 72
   65
 73
    4
 40
15.25
 49
12
 49
-1.5
 49
0.25
 49
-1.5
  0
LTYPE
  2
long_dashed_double-dotted
 70
   64
  3
----------- --- --- ------------
 72
   65
 73
    6
 40
17
 49
12
 49
-1.5
 49
0.25
 49
-1.5
 49
0.25
 49
-1.5
  0
LTYPE
  2
long_dashed_triplicate-dotted
 70
   64
  3
--------- --- --- --- ----------
 72
   65
 73
    8
 40
18.75
 49
12
 49
-1.5
 49
0.25
 49
-1.5
 49
0.25
 49
-1.5
 49
0.25
 49
-1.5
  0
LTYPE
  2
dotted
 70
   64
  3
   -       -       -       -    
 72
   65
 73
    2
 40
1.75
 49
0.25
 49
-1.5
  0
LTYPE
  2
chain
 70
   64
  3
-------------- -- --------------
 72
   65
 73
    4
 40
18.5
 49
12
 49
-1.5
 49
3.5
 49
-1.5
  0
LTYPE
  2
chain_double_dash
 70
   64
  3
------------ -- -- -------------
 72
   65
 73
    6
 40
23.5
 49
12
 49
-1.5
 49
3.5
 49
-1.5
 49
3.5
 49
-1.5
  0
LTYPE
  2
dashed_dotted
 70
   64
  3
-----------     -     ----------
 72
   65
 73
    4
 40
9.25
 49
6
 49
-1.5
 49
0.25
 49
-1.5
  0
LTYPE
  2
double-dashed_dotted
 70
   64
  3
------   -----------   -   -----
 72
   65
 73
    6
 40
16.75
 49
6
 49
-1.5
 49
6
 49
-1.5
 49
0.25
 49
-1.5
  0
LTYPE
  2
dashed_double-dotted
 70
   64
  3
---------    -    -    ---------
 72
   65
 73
    6
 40
11
 49
6
 49
-1.5
 49
0.25
 49
-1.5
 49
0.25
 49
-1.5
  0
LTYPE
  2
double-dashed_double-dotted
 70
   64
  3
-----   ---------   -   -   ----
 72
   65
 73
    8
 40
18.5
 49
6
 49
-1.5
 49
6
 49
-1.5
 49
0.25
 49
-1.5
 49
0.25
 49
-1.5
  0
LTYPE
  2
dashed_triplicate-dotted
 70
   64
  3
-------    -    -    -    ------
 72
   65
 73
    8
 40
12.75
 49
6
 49
-1.5
 49
0.25
 49
-1.5
 49
0.25
 49
-1.5
 49
0.25
 49
-1.5
  0
LTYPE
  2
double-dashed_triplicate-dotted
 70
   64
  3
-----  ---------  -  -  -  -----
 72
   65
 73
   10
 40
20.25
 49
6
 49
-1.5
 49
6
 49
-1.5
 49
0.25
 49
-1.5
 49
0.25
 49
-1.5
 49
0.25
 49
-1.5
  0
LTYPE
  2
undefined
 70
   64
  3
--------------------------------
 72
   65
 73
    0
 40
0
  0
LTYPE
  2
STYLE_01
 70
   64
  3
----        --------        ----
 72
   65
 73
    2
 40
0.4166399999999997
 49
0.2082799999999999
 49
-0.2083599999999999
  0
LTYPE
  2
STYLE_02
 70
   64
  3
------     -----------     -----
 72
   65
 73
    2
 40
0.694425
 49
0.48607
 49
-0.2083550000000001
  0
LTYPE
  2
STYLE_03
 70
   64
  3
-------   -------------   ------
 72
   65
 73
    2
 40
1.25
 49
1.0416400000000001
 49
-0.2083599999999999
  0
LTYPE
  2
STYLE_04
 70
   64
  3
-------  --------------  -------
 72
   65
 73
    2
 40
1.5277099999999999
 49
1.3194249999999998
 49
-0.208285
  0
LTYPE
  2
STYLE_05
 70
   64
  3
---           -----           --
 72
   65
 73
    2
 40
0.20828
 49
0.069425
 49
-0.138855
  0
LTYPE
  2
STYLE_06
 70
   64
  3
----------      --    ----------
 72
   65
 73
    4
 40
1.0416399999999999
 49
0.625
 49
-0.2082799999999999
 49
0.06943
 49
-0.13893
  0
LTYPE
  2
STYLE_07
 70
   64
  3
-----    -----------    -  -----
 72
   65
 73
    6
 40
1.8749999999999998
 49
0.625
 49
-0.2082799999999999
 49
0.6250000000000001
 49
-0.2083599999999999
 49
0.06943
 49
-0.1389299999999998
  0
LTYPE
  2
STYLE_08
 70
   64
  3
--------     --    --    -------
 72
   65
 73
    6
 40
1.2499999999999996
 49
0.625
 49
-0.2082799999999999
 49
0.06943
 49
-0.13893
 49
0.0694299999999997
 49
-0.13893
  0
LTYPE
  2
STYLE_09
 70
   64
  3
------------  ----  ------------
 72
   65
 73
    4
 40
5
 49
3.75
 49
-0.2777849999999997
 49
0.6944300000000003
 49
-0.2777849999999997
  0
LTYPE
  2
STYLE_10
 70
   64
  3
----------- ---- ---  ----------
 72
   65
 73
    6
 40
5.9375
 49
3.75
 49
-0.2777849999999997
 49
0.6944300000000003
 49
-0.2777849999999997
 49
0.625
 49
-0.3125
  0
ENDTAB
  0
TABLE
  2
STYLE
  5
3
100
AcDbSymbolTable
 70
     1
  0
STYLE
  5
10
100
AcDbSymbolTableRecord
100
AcDbTextStyleTableRecord
  2
STANDARD
 70
     0
 40
0.0
 41
1.0
 50
0.0
 71
     0
 42
0.2
  3
txt
  4
bigfont.shx
  0
STYLE
  5
26
100
AcDbSymbolTableRecord
100
AcDbTextStyleTableRecord
  2
TATEGAKI
 70
    68
 40
0.0
 41
1.0
 50
0.0
 71
     0
 42
1.0
  3
txt
  4
bigfont.shx
  0
ENDTAB
  0
TABLE
  2
LAYER
 70
    4
  0
LAYER
  2
_0-1_1_5
 70
   64
 62
    7
  6
CONTINUOUS
  0
LAYER
  2
_0-2_ADD_LINE
 70
   64
 62
    7
  6
CONTINUOUS
  0
LAYER
  2
_0-3_
 70
   64
 62
    7
  6
CONTINUOUS
  0
LAYER
  2
ADD_LINE
 70
   64
 62
    7
  6
CONTINUOUS
  0
ENDTAB
  0
ENDSEC
  0
SECTION
  2
BLOCKS
  0
ENDSEC
  0
SECTION
  2
ENTITIES
  0
LINE
  8
_0-3_
  6
CONTINUOUS
 62
    7
 10
-1142.6595950116382
 20
66.721525497480826
 11
-1329.5068075692798
 21
66.721525497480826
  0
LINE
  8
_0-3_
  6
CONTINUOUS
 62
    7
 10
-1142.6595950116382
 20
60.721525497480819
 11
-1329.5068075692798
 21
60.721525497480819
  0
LINE
  8
_0-3_
  6
CONTINUOUS
 62
    7
 10
-1329.5068075692798
 20
54.721525497480812
 11
-1329.5068075692798
 21
72.721525497480826
  0
TEXT
  8
_0-3_
 62
    4
 10
-1328.1128348460911
 20
69.567584301259956
 40
2
 41
1
 50
0
  1
品名
  0
TEXT
  8
_0-3_
 62
    4
 10
-1328.1128348460911
 20
63.638285853294605
 40
2
 41
1
 50
0
  1
仕上げ
  0
TEXT
  8
_0-3_
 62
    4
 10
-1328.1128348460911
 20
57.396919065962642
 40
2
 41
1
 50
0
  1
材質
  0
TEXT
  8
_0-3_
 62
    7
 10
-1319.3271924471421
 20
55.95371272710431
 40
3.1000000000000001
 41
1
 50
0
  1
ステンレススチール
  0
TEXT
  8
_0-3_
 62
    4
 10
-1234.9373494599215
 20
69.605404419443602
 40
2
 41
1
 50
0
  1
品番
  0
LINE
  8
_0-3_
  6
CONTINUOUS
 62
    7
 10
-1235.9929283516381
 20
54.721525497480798
 11
-1235.9929283516381
 21
72.721525497480826
  0
LINE
  8
_0-3_
  6
CONTINUOUS
 62
    7
 10
-1142.6595950116382
 20
72.721525497480826
 11
-1329.5068075692798
 21
72.721525497480826
  0
TEXT
  8
_0-3_
 62
    4
 10
-1234.9495659077759
 20
63.653101904497994
 40
2
 41
1
 50
0
  1
縮尺
  0
TEXT
  8
_0-3_
 62
    7
 10
-1422.6296029200719
 20
50.082502612839804
 40
2.5
 41
1
 50
0
  1
120718SH
  0
LINE
  8
_0-3_
  6
CONTINUOUS
 62
    7
 10
-1422.6595950116382
 20
249.72152549748085
 11
-1422.6595950116382
 21
54.721525497480812
  0
LINE
  8
_0-3_
  6
CONTINUOUS
 62
    7
 10
-1422.6595950116382
 20
54.721525497480812
 11
-1142.6595950116382
 21
54.721525497480798
  0
LINE
  8
_0-3_
  6
CONTINUOUS
 62
    7
 10
-1142.6595950116382
 20
54.721525497480798
 11
-1142.6595950116382
 21
249.72152549748085
  0
LINE
  8
_0-3_
  6
CONTINUOUS
 62
    7
 10
-1142.6595950116382
 20
249.72152549748085
 11
-1422.6595950116382
 21
249.72152549748085
  0
TEXT
  8
_0-3_
 62
    7
 10
-1319.3271924471421
 20
68.157959999712602
 40
3.1000000000000001
 41
1
 50
0
  1
ファニチャーハンドル
  0
TEXT
  8
_0-3_
 62
    7
 10
-1225.4861405795525
 20
61.758886734988238
 40
3.1000000000000001
 41
1
 50
0
  1
1/1
  0
POINT
  8
_0-2_ADD_LINE
 62
    7
 10
-1375.3474956054492
 20
199.58292646726534
  0
LINE
  8
_0-2_ADD_LINE
  6
CONTINUOUS
 62
    7
 10
-1375.3474956054492
 20
199.58292646726534
 11
-1375.3474956054492
 21
193.59991348636896
  0
LINE
  8
_0-0_0
  6
CONTINUOUS
 62
    7
 10
-1375.3474956054492
 20
199.58292646726534
 11
-1279.3474956054492
 21
199.58292646726534
  0
TEXT
  8
_0-2_ADD_LINE
 62
    4
 10
-1328.5974956054492
 20
200.08292646726534
 40
2.5
 41
1
 50
0
  1
96
  0
POINT
  8
_0-2_ADD_LINE
 62
    7
 10
-1279.3474956054492
 20
199.58292646726534
  0
LINE
  8
_0-2_ADD_LINE
  6
CONTINUOUS
 62
    7
 10
-1279.3474956054492
 20
199.58292646726534
 11
-1279.3474956054492
 21
193.59991348636896
  0
POINT
  8
_0-2_ADD_LINE
 62
    7
 10
-1381.3474956054492
 20
204.66634298305036
  0
LINE
  8
_0-2_ADD_LINE
  6
CONTINUOUS
 62
    7
 10
-1381.3474956054492
 20
204.66634298305036
 11
-1381.3474956054492
 21
193.59991348636896
  0
POINT
  8
_0-2_ADD_LINE
 62
    7
 10
-1273.3474956054492
 20
204.66634298305036
  0
LINE
  8
_0-2_ADD_LINE
  6
CONTINUOUS
 62
    7
 10
-1273.3474956054492
 20
204.66634298305036
 11
-1273.3474956054492
 21
193.59991348636896
  0
LINE
  8
_0-0_0
  6
CONTINUOUS
 62
    7
 10
-1381.3474956054492
 20
204.66634298305036
 11
-1273.3474956054492
 21
204.66634298305036
  0
TEXT
  8
_0-2_ADD_LINE
 62
    4
 10
-1329.2224956054492
 20
205.16634298305036
 40
2.5
 41
1
 50
0
  1
108
  0
LINE
  8
_0-1_1_5
  6
CENTER2
 62
    7
 10
-1377.8474956054492
 20
185.59991348636896
 11
-1372.8474956054492
 21
185.59991348636896
  0
LINE
  8
_0-1_1_5
  6
CENTER2
 62
    7
 10
-1375.3474956054492
 20
188.09991348636896
 11
-1375.3474956054492
 21
183.09991348636896
  0
LINE
  8
_0-1_1_5
  6
CENTER2
 62
    7
 10
-1281.8474956054492
 20
185.59991348636896
 11
-1276.8474956054492
 21
185.59991348636896
  0
LINE
  8
_0-1_1_5
  6
CENTER2
 62
    7
 10
-1279.3474956054492
 20
188.09991348636896
 11
-1279.3474956054492
 21
183.09991348636896
  0
LINE
  8
_0-1_1_5
  6
CONTINUOUS
 62
    7
 10
-1381.3474956054492
 20
179.59991348636896
 11
-1273.3474956054492
 21
179.59991348636896
  0
LINE
  8
_0-1_1_5
  6
CONTINUOUS
 62
    7
 10
-1273.3474956054492
 20
191.59991348636896
 11
-1273.3474956054492
 21
179.59991348636896
  0
LINE
  8
_0-1_1_5
  6
DASHED2
 62
    7
 10
-1285.3474956054492
 20
191.59991348636896
 11
-1285.3474956054492
 21
179.59991348636896
  0
LINE
  8
_0-1_1_5
  6
DASHED2
 62
    7
 10
-1369.3474956054492
 20
191.59991348636896
 11
-1369.3474956054492
 21
179.59991348636896
  0
LINE
  8
_0-1_1_5
  6
CONTINUOUS
 62
    7
 10
-1381.3474956054492
 20
191.59991348636896
 11
-1381.3474956054492
 21
179.59991348636896
  0
LINE
  8
_0-1_1_5
  6
CONTINUOUS
 62
    7
 10
-1226.267791404269
 20
191.59991348636896
 11
-1226.267791404269
 21
179.59991348636896
  0
LINE
  8
_0-1_1_5
  6
DASHED2
 62
    7
 10
-1214.267791404269
 20
191.59991348636896
 11
-1214.267791404269
 21
179.59991348636896
  0
LINE
  8
_0-1_1_5
  6
CONTINUOUS
 62
    7
 10
-1191.267791404269
 20
191.59991348636896
 11
-1191.267791404269
 21
179.59991348636896
  0
LINE
  8
_0-1_1_5
  6
CONTINUOUS
 62
    7
 10
-1191.267791404269
 20
191.59991348636896
 11
-1226.267791404269
 21
191.59991348636896
  0
LINE
  8
_0-1_1_5
  6
CONTINUOUS
 62
    7
 10
-1191.267791404269
 20
179.59991348636896
 11
-1226.267791404269
 21
179.59991348636896
  0
LINE
  8
_0-1_1_5
  6
CENTER2
 62
    7
 10
-1201.267791404269
 20
185.59991348636896
 11
-1189.267791404269
 21
185.59991348636896
  0
POINT
  8
_0-2_ADD_LINE
 62
    7
 10
-1226.267791404269
 20
199.68520739514832
  0
POINT
  8
_0-2_ADD_LINE
 62
    7
 10
-1214.267791404269
 20
199.68520739514832
  0
LINE
  8
_0-2_ADD_LINE
  6
CONTINUOUS
 62
    7
 10
-1226.267791404269
 20
199.68520739514832
 11
-1226.267791404269
 21
193.59991348636896
  0
LINE
  8
_0-2_ADD_LINE
  6
CONTINUOUS
 62
    7
 10
-1214.267791404269
 20
199.68520739514832
 11
-1214.267791404269
 21
193.59991348636896
  0
LINE
  8
_0-3_
  6
CONTINUOUS
 62
    7
 10
-1226.267791404269
 20
199.68520739514832
 11
-1214.267791404269
 21
199.68520739514832
  0
TEXT
  8
_0-3_
 62
    4
 10
-1221.517791404269
 20
200.18520739514832
 40
2.5
 41
1
 50
0
  1
12
  0
LINE
  8
_0-1_1_5
  6
CONTINUOUS
 62
    7
 10
-1381.3474956054492
 20
191.59991348636896
 11
-1273.3474956054492
 21
191.59991348636896
  0
LINE
  8
_0-2_ADD_LINE
  6
CONTINUOUS
 62
    7
 10
-1191.267791404269
 20
185.59991348636896
 11
-1179.9130870264412
 21
174.24520910854102
  0
LINE
  8
_0-2_ADD_LINE
  6
CONTINUOUS
 62
    7
 10
-1179.9130870264412
 20
174.24520910854102
 11
-1172.2106045213434
 21
174.24520910854102
  0
TEXT
  8
_0-2_ADD_LINE
 62
    7
 10
-1177.2970116186409
 20
174.82120795699132
 40
3.1000000000000001
 41
1
 50
0
  1
M4
  0
TEXT
  8
_0-3_
 62
    7
 10
-1225.4861405795525
 20
56.043618233325255
 40
3.1000000000000001
 41
1
 50
0
  1
大洋金物株式会社  ティーエフプラス事業部
  0
POINT
  8
_0-2_ADD_LINE
 62
    7
 10
-1263.4574842399918
 20
151.26636503390216
  0
POINT
  8
_0-2_ADD_LINE
 62
    7
 10
-1263.4574842399918
 20
115.77933893057504
  0
LINE
  8
_0-2_ADD_LINE
  6
CONTINUOUS
 62
    7
 10
-1263.4574842399918
 20
151.26636503390216
 11
-1271.3474956054492
 21
151.26636503390216
  0
LINE
  8
_0-2_ADD_LINE
  6
CONTINUOUS
 62
    7
 10
-1263.4574842399918
 20
115.77933893057504
 11
-1271.3474956054492
 21
115.77933893057504
  0
LINE
  8
_0-2_ADD_LINE
  6
CONTINUOUS
 62
    7
 10
-1263.4574842399918
 20
151.26636503390216
 11
-1263.4574842399918
 21
115.77933893057504
  0
TEXT
  8
_0-2_ADD_LINE
 62
    4
 10
-1263.9574842399918
 20
132.27285198223859
 40
2.5
 41
1
 50
90
  1
35
  0
POINT
  8
_0-2_ADD_LINE
 62
    7
 10
-1236.2735073181561
 20
191.59991348636896
  0
POINT
  8
_0-2_ADD_LINE
 62
    7
 10
-1236.2735073181561
 20
179.59991348636896
  0
LINE
  8
_0-2_ADD_LINE
  6
CONTINUOUS
 62
    7
 10
-1236.2735073181561
 20
191.59991348636896
 11
-1228.267791404269
 21
191.59991348636896
  0
LINE
  8
_0-2_ADD_LINE
  6
CONTINUOUS
 62
    7
 10
-1236.2735073181561
 20
179.59991348636896
 11
-1228.267791404269
 21
179.59991348636896
  0
LINE
  8
_0-2_ADD_LINE
  6
CONTINUOUS
 62
    7
 10
-1236.2735073181561
 20
191.59991348636896
 11
-1236.2735073181561
 21
179.59991348636896
  0
TEXT
  8
_0-2_ADD_LINE
 62
    4
 10
-1236.7735073181561
 20
184.34991348636896
 40
2.5
 41
1
 50
90
  1
12
  0
TEXT
  8
_0-2_ADD_LINE
 62
    7
 10
-1224.6679958358777
 20
116.00009998982296
 40
3.1000000000000001
 41
1
 50
0
  1
対応ドア厚  10-22mm
  0
TEXT
  8
_0-3_
 62
    7
 10
-1319.3271924471421
 20
62.004358131352177
 40
3.1000000000000001
 41
1
 50
0
  1
サテン
  0
LINE
  8
_0-1_1_5
  6
CONTINUOUS
 62
    7
 10
-1381.3474956054492
 20
115.77933893057504
 11
-1273.3474956054492
 21
115.77933893057504
  0
LINE
  8
_0-1_1_5
  6
CONTINUOUS
 62
    7
 10
-1369.3474956054492
 20
127.77933893057504
 11
-1285.3474956054492
 21
127.77933893057504
  0
LINE
  8
_0-1_1_5
  6
CENTER2
 62
    7
 10
-1375.3474956054492
 20
141.26636503390216
 11
-1375.3474956054492
 21
153.26636503390216
  0
LINE
  8
_0-1_1_5
  6
CENTER2
 62
    7
 10
-1279.3474956054492
 20
141.26636503390216
 11
-1279.3474956054492
 21
153.26636503390216
  0
LINE
  8
_0-1_1_5
  6
CONTINUOUS
 62
    7
 10
-1285.3474956054492
 20
151.26636503390216
 11
-1273.3474956054492
 21
151.26636503390216
  0
LINE
  8
_0-1_1_5
  6
CONTINUOUS
 62
    7
 10
-1381.3474956054492
 20
151.26636503390216
 11
-1369.3474956054492
 21
151.26636503390216
  0
LINE
  8
_0-1_1_5
  6
CONTINUOUS
 62
    7
 10
-1381.3474956054492
 20
115.77933893057504
 11
-1381.3474956054492
 21
151.26636503390216
  0
LINE
  8
_0-1_1_5
  6
CONTINUOUS
 62
    7
 10
-1369.3474956054492
 20
127.77933893057504
 11
-1369.3474956054492
 21
151.26636503390216
  0
LINE
  8
_0-1_1_5
  6
CONTINUOUS
 62
    7
 10
-1285.3474956054492
 20
127.77933893057504
 11
-1285.3474956054492
 21
151.26636503390216
  0
LINE
  8
_0-1_1_5
  6
CONTINUOUS
 62
    7
 10
-1273.3474956054492
 20
115.77933893057504
 11
-1273.3474956054492
 21
151.26636503390216
  0
POINT
  8
_0-1_1_5
 62
    7
 10
-1381.3474956054492
 20
157.7855037811388
  0
POINT
  8
_0-1_1_5
 62
    7
 10
-1369.3474956054492
 20
157.7855037811388
  0
LINE
  8
_0-1_1_5
  6
CONTINUOUS
 62
    7
 10
-1381.3474956054492
 20
157.7855037811388
 11
-1381.3474956054492
 21
152.93141125444839
  0
LINE
  8
_0-1_1_5
  6
CONTINUOUS
 62
    7
 10
-1369.3474956054492
 20
157.7855037811388
 11
-1369.3474956054492
 21
152.93141125444839
  0
LINE
  8
_0-1_1_5
  6
CONTINUOUS
 62
    7
 10
-1381.3474956054492
 20
157.7855037811388
 11
-1369.3474956054492
 21
157.7855037811388
  0
TEXT
  8
_0-1_1_5
 62
    4
 10
-1376.5974956054492
 20
158.2855037811388
 40
2.5
 41
1
 50
0
  1
12
  0
TEXT
  8
_0-3_
 62
    7
 10
-1225.4686449352998
 20
67.786026636597171
 40
3.1000000000000001
 41
1
 50
0
  1
TFP21-2209-002
  0
ENDSEC
  0
EOF
