  0
SECTION
  2
HEADER
  9
$ACADVER
  1
AC1009
  9
$INSBASE
 10
0
 20
0
 30
0
  9
$EXTMIN
 10
0
 20
0
  9
$EXTMAX
 10
1188
 20
840
  9
$LIMMIN
 10
0
 20
0
  9
$LIMMAX
 10
1188
 20
840
  9
$LTSCALE
 40
4
  0
ENDSEC
  0
SECTION
  2
TABLES
  0
TABLE
  2
LTYPE
 70
     9
  0
LTYPE
  2
CONTINUOUS
 70
    64
  3
実線
 72
    65
 73
     0
 40
0.0
  0
LTYPE
  2
DASHED1
 70
    64
  3
--  --  --  --  --  --  --  --  
 72
    65
 73
     2
 40
2.5
 49
1.25
 49
-1.25
  0
LTYPE
  2
DASHED2
 70
    64
  3
----    ----    ----    ----    
 72
    65
 73
     2
 40
5.0
 49
2.5
 49
-2.5
  0
LTYPE
  2
DASHED3
 70
    64
  3
------  ------  ------  ------  
 72
    65
 73
     2
 40
5.0
 49
3.75
 49
-1.25
  0
LTYPE
  2
CENTER1
 70
    64
  3
----- - ----- - ----- - ----- - 
 72
    65
 73
     4
 40
10.0
 49
6.25
 49
-1.25
 49
1.25
 49
-1.25
  0
LTYPE
  2
CENTER2
 70
    64
  3
----------  --  ----------  --  
 72
    65
 73
     4
 40
20.0
 49
12.5
 49
-2.5
 49
2.5
 49
-2.5
  0
LTYPE
  2
PHANTOM1
 70
    64
  3
--- - - --- - - --- - - --- - - 
 72
    65
 73
     6
 40
10.0
 49
3.25
 49
-1.25
 49
1.25
 49
-1.25
 49
1.25
 49
-1.25
  0
LTYPE
  2
PHANTOM2
 70
    64
  3
--------  -  -  --------  -  -  
 72
    65
 73
     6
 40
20.0
 49
10.0
 49
-2.5
 49
1.25
 49
-2.5
 49
1.25
 49
-2.5
  0
LTYPE
  2
DOT
 70
    64
  3
-   -   -   -   -   -   -   -   
 72
    65
 73
     2
 40
2.5
 49
0.625
 49
-1.875
  0
LTYPE
  2
DUMMY
 70
    64
  3
ダミー
 72
    65
 73
     0
 40
0.0
  0
LTYPE
  2
RAND1
 70
    64
  3
ランダム線1
 72
    65
 73
     4
 40
10.0
 49
1.0
 49
-2.0
 49
3.0
 49
-4.0
  0
LTYPE
  2
RAND2
 70
    64
  3
ランダム線2
 72
    65
 73
     4
 40
14.0
 49
2.0
 49
-3.0
 49
4.0
 49
-5.0
  0
LTYPE
  2
RAND3
 70
    64
  3
ランダム線3
 72
    65
 73
     4
 40
18.0
 49
3.0
 49
-4.0
 49
5.0
 49
-6.0
  0
LTYPE
  2
RAND4
 70
    64
  3
ランダム線4
 72
    65
 73
     4
 40
22.0
 49
4.0
 49
-5.0
 49
6.0
 49
-7.0
  0
LTYPE
  2
RAND5
 70
    64
  3
ランダム線5
 72
    65
 73
     4
 40
26.0
 49
5.0
 49
-6.0
 49
7.0
 49
-8.0
  0
LTYPE
  2
LONG1
 70
    64
  3
----------  --  ----------  --  
 72
    65
 73
     4
 40
40.0
 49
32.5
 49
-2.5
 49
2.5
 49
-2.5
  0
LTYPE
  2
LONG2
 70
    64
  3
--------  -  -  --------  -  -  
 72
    65
 73
     6
 40
40.0
 49
30.0
 49
-2.5
 49
1.25
 49
-2.5
 49
1.25
 49
-2.5
  0
LTYPE
  2
LONG3
 70
    64
  3
+++++++++++++++..+++++++++++++++
 72
    65
 73
     2
 40
40.0
 49
37.5
 49
-2.5
  0
LTYPE
  2
LONG4
 70
    64
  3
+++++++++++++++..+++++++++++++++
 72
    65
 73
     2
 40
80.0
 49
75.0
 49
-5.0
  0
LTYPE
  2
LONG5
 70
    64
  3
----------  --  ----------  --  
 72
    65
 73
     4
 40
60.0
 49
37.5
 49
-7.5
 49
7.5
 49
-7.5
  0
LTYPE
  2
dashed
 70
   64
  3
-------   -------------   ------
 72
   65
 73
    2
 40
7.5
 49
6
 49
-1.5
  0
LTYPE
  2
dashed_spaced
 70
   64
  3
----        --------        ----
 72
   65
 73
    2
 40
12
 49
6
 49
-6
  0
LTYPE
  2
long_dashed_dotted
 70
   64
  3
------------- --- --------------
 72
   65
 73
    4
 40
15.25
 49
12
 49
-1.5
 49
0.25
 49
-1.5
  0
LTYPE
  2
long_dashed_double-dotted
 70
   64
  3
----------- --- --- ------------
 72
   65
 73
    6
 40
17
 49
12
 49
-1.5
 49
0.25
 49
-1.5
 49
0.25
 49
-1.5
  0
LTYPE
  2
long_dashed_triplicate-dotted
 70
   64
  3
--------- --- --- --- ----------
 72
   65
 73
    8
 40
18.75
 49
12
 49
-1.5
 49
0.25
 49
-1.5
 49
0.25
 49
-1.5
 49
0.25
 49
-1.5
  0
LTYPE
  2
dotted
 70
   64
  3
   -       -       -       -    
 72
   65
 73
    2
 40
1.75
 49
0.25
 49
-1.5
  0
LTYPE
  2
chain
 70
   64
  3
-------------- -- --------------
 72
   65
 73
    4
 40
18.5
 49
12
 49
-1.5
 49
3.5
 49
-1.5
  0
LTYPE
  2
chain_double_dash
 70
   64
  3
------------ -- -- -------------
 72
   65
 73
    6
 40
23.5
 49
12
 49
-1.5
 49
3.5
 49
-1.5
 49
3.5
 49
-1.5
  0
LTYPE
  2
dashed_dotted
 70
   64
  3
-----------     -     ----------
 72
   65
 73
    4
 40
9.25
 49
6
 49
-1.5
 49
0.25
 49
-1.5
  0
LTYPE
  2
double-dashed_dotted
 70
   64
  3
------   -----------   -   -----
 72
   65
 73
    6
 40
16.75
 49
6
 49
-1.5
 49
6
 49
-1.5
 49
0.25
 49
-1.5
  0
LTYPE
  2
dashed_double-dotted
 70
   64
  3
---------    -    -    ---------
 72
   65
 73
    6
 40
11
 49
6
 49
-1.5
 49
0.25
 49
-1.5
 49
0.25
 49
-1.5
  0
LTYPE
  2
double-dashed_double-dotted
 70
   64
  3
-----   ---------   -   -   ----
 72
   65
 73
    8
 40
18.5
 49
6
 49
-1.5
 49
6
 49
-1.5
 49
0.25
 49
-1.5
 49
0.25
 49
-1.5
  0
LTYPE
  2
dashed_triplicate-dotted
 70
   64
  3
-------    -    -    -    ------
 72
   65
 73
    8
 40
12.75
 49
6
 49
-1.5
 49
0.25
 49
-1.5
 49
0.25
 49
-1.5
 49
0.25
 49
-1.5
  0
LTYPE
  2
double-dashed_triplicate-dotted
 70
   64
  3
-----  ---------  -  -  -  -----
 72
   65
 73
   10
 40
20.25
 49
6
 49
-1.5
 49
6
 49
-1.5
 49
0.25
 49
-1.5
 49
0.25
 49
-1.5
 49
0.25
 49
-1.5
  0
LTYPE
  2
undefined
 70
   64
  3
--------------------------------
 72
   65
 73
    0
 40
0
  0
LTYPE
  2
STYLE_01
 70
   64
  3
----        --------        ----
 72
   65
 73
    2
 40
0.4166399999999997
 49
0.2082799999999999
 49
-0.2083599999999999
  0
LTYPE
  2
STYLE_02
 70
   64
  3
------     -----------     -----
 72
   65
 73
    2
 40
0.694425
 49
0.48607
 49
-0.2083550000000001
  0
LTYPE
  2
STYLE_03
 70
   64
  3
-------   -------------   ------
 72
   65
 73
    2
 40
1.25
 49
1.0416400000000001
 49
-0.2083599999999999
  0
LTYPE
  2
STYLE_04
 70
   64
  3
-------  --------------  -------
 72
   65
 73
    2
 40
1.5277099999999999
 49
1.3194249999999998
 49
-0.208285
  0
LTYPE
  2
STYLE_05
 70
   64
  3
---           -----           --
 72
   65
 73
    2
 40
0.20828
 49
0.069425
 49
-0.138855
  0
LTYPE
  2
STYLE_06
 70
   64
  3
----------      --    ----------
 72
   65
 73
    4
 40
1.0416399999999999
 49
0.625
 49
-0.2082799999999999
 49
0.06943
 49
-0.13893
  0
LTYPE
  2
STYLE_07
 70
   64
  3
-----    -----------    -  -----
 72
   65
 73
    6
 40
1.8749999999999998
 49
0.625
 49
-0.2082799999999999
 49
0.6250000000000001
 49
-0.2083599999999999
 49
0.06943
 49
-0.1389299999999998
  0
LTYPE
  2
STYLE_08
 70
   64
  3
--------     --    --    -------
 72
   65
 73
    6
 40
1.2499999999999996
 49
0.625
 49
-0.2082799999999999
 49
0.06943
 49
-0.13893
 49
0.0694299999999997
 49
-0.13893
  0
LTYPE
  2
STYLE_09
 70
   64
  3
------------  ----  ------------
 72
   65
 73
    4
 40
5
 49
3.75
 49
-0.2777849999999997
 49
0.6944300000000003
 49
-0.2777849999999997
  0
LTYPE
  2
STYLE_10
 70
   64
  3
----------- ---- ---  ----------
 72
   65
 73
    6
 40
5.9375
 49
3.75
 49
-0.2777849999999997
 49
0.6944300000000003
 49
-0.2777849999999997
 49
0.625
 49
-0.3125
  0
ENDTAB
  0
TABLE
  2
STYLE
  5
3
100
AcDbSymbolTable
 70
     1
  0
STYLE
  5
10
100
AcDbSymbolTableRecord
100
AcDbTextStyleTableRecord
  2
STANDARD
 70
     0
 40
0.0
 41
1.0
 50
0.0
 71
     0
 42
0.2
  3
txt
  4
bigfont.shx
  0
STYLE
  5
26
100
AcDbSymbolTableRecord
100
AcDbTextStyleTableRecord
  2
TATEGAKI
 70
    68
 40
0.0
 41
1.0
 50
0.0
 71
     0
 42
1.0
  3
txt
  4
bigfont.shx
  0
ENDTAB
  0
TABLE
  2
LAYER
 70
    4
  0
LAYER
  2
_0-1_1_5
 70
   64
 62
    7
  6
CONTINUOUS
  0
LAYER
  2
_0-2_ADD_LINE
 70
   64
 62
    7
  6
CONTINUOUS
  0
LAYER
  2
_0-3_
 70
   64
 62
    7
  6
CONTINUOUS
  0
LAYER
  2
ADD_LINE
 70
   64
 62
    7
  6
CONTINUOUS
  0
ENDTAB
  0
ENDSEC
  0
SECTION
  2
BLOCKS
  0
ENDSEC
  0
SECTION
  2
ENTITIES
  0
LINE
  8
_0-1_1_5
  6
CENTER2
 62
    7
 10
-4846.7507379900753
 20
694.85803761509123
 11
-4841.7507379900753
 21
694.85803761509123
  0
LINE
  8
_0-1_1_5
  6
CENTER2
 62
    7
 10
-4844.2507379900753
 20
697.35803761509123
 11
-4844.2507379900753
 21
692.35803761509123
  0
LINE
  8
_0-1_1_5
  6
CONTINUOUS
 62
    7
 10
-4838.2507379900753
 20
700.85803761509123
 11
-4838.2507379900753
 21
688.85803761509123
  0
LINE
  8
_0-1_1_5
  6
DASHED2
 62
    7
 10
-4850.2507379900753
 20
700.85803761509123
 11
-4850.2507379900753
 21
688.85803761509123
  0
POINT
  8
_0-2_ADD_LINE
 62
    7
 10
-4844.2507379900753
 20
745.14980644554066
  0
LINE
  8
_0-2_ADD_LINE
  6
CONTINUOUS
 62
    7
 10
-4844.2507379900753
 20
745.14980644554066
 11
-4844.2507379900753
 21
702.85803761509123
  0
POINT
  8
_0-2_ADD_LINE
 62
    7
 10
-4838.2507379900753
 20
768.49200782169237
  0
LINE
  8
_0-2_ADD_LINE
  6
CONTINUOUS
 62
    7
 10
-4838.2507379900753
 20
768.49200782169237
 11
-4838.2507379900753
 21
708.85803761509123
  0
POINT
  8
_0-2_ADD_LINE
 62
    7
 10
-4800.5851090845399
 20
560.52448916262438
  0
POINT
  8
_0-2_ADD_LINE
 62
    7
 10
-4800.5851090845399
 20
525.03746305929735
  0
LINE
  8
_0-2_ADD_LINE
  6
CONTINUOUS
 62
    7
 10
-4800.5851090845399
 20
560.52448916262438
 11
-4830.2507379900753
 21
560.52448916262438
  0
LINE
  8
_0-2_ADD_LINE
  6
CONTINUOUS
 62
    7
 10
-4800.5851090845399
 20
525.03746305929735
 11
-4830.2507379900753
 21
525.03746305929735
  0
LINE
  8
_0-2_ADD_LINE
  6
CONTINUOUS
 62
    7
 10
-4800.5851090845399
 20
560.52448916262438
 11
-4800.5851090845399
 21
525.03746305929735
  0
TEXT
  8
_0-2_ADD_LINE
 62
    4
 10
-4802.5851090845399
 20
537.78097611096086
 40
10
 41
1
 50
90
  1
35
  0
LINE
  8
_0-3_
  6
CONTINUOUS
 62
    7
 10
-4570.6383800465528
 20
266.8861019899233
 11
-5318.0272302771191
 21
266.8861019899233
  0
LINE
  8
_0-3_
  6
CONTINUOUS
 62
    7
 10
-4570.6383800465528
 20
242.88610198992328
 11
-5318.0272302771191
 21
242.88610198992328
  0
LINE
  8
_0-3_
  6
CONTINUOUS
 62
    7
 10
-5318.0272302771191
 20
218.88610198992325
 11
-5318.0272302771191
 21
290.8861019899233
  0
TEXT
  8
_0-3_
 62
    4
 10
-5312.4513393843645
 20
278.27033720503982
 40
8
 41
1
 50
0
  1
品名
  0
TEXT
  8
_0-3_
 62
    4
 10
-5312.4513393843645
 20
254.55314341317842
 40
8
 41
1
 50
0
  1
仕上げ
  0
TEXT
  8
_0-3_
 62
    4
 10
-5312.4513393843645
 20
229.58767626385057
 40
8
 41
1
 50
0
  1
材質
  0
TEXT
  8
_0-3_
 62
    7
 10
-5277.3087697885685
 20
248.01743252540874
 40
12.4
 41
1
 50
0
  1
ポリッシュ
  0
TEXT
  8
_0-3_
 62
    7
 10
-5277.3087697885685
 20
223.81485090841724
 40
12.4
 41
1
 50
0
  1
ステンレススチール
  0
TEXT
  8
_0-3_
 62
    4
 10
-4939.749397839686
 20
278.42161767777441
 40
8
 41
1
 50
0
  1
品番
  0
LINE
  8
_0-3_
  6
CONTINUOUS
 62
    7
 10
-4943.9717134065522
 20
218.88610198992319
 11
-4943.9717134065522
 21
290.8861019899233
  0
LINE
  8
_0-3_
  6
CONTINUOUS
 62
    7
 10
-4570.6383800465528
 20
290.8861019899233
 11
-5318.0272302771191
 21
290.8861019899233
  0
TEXT
  8
_0-3_
 62
    4
 10
-4939.7982636311035
 20
254.61240761799198
 40
8
 41
1
 50
0
  1
縮尺
  0
TEXT
  8
_0-3_
 62
    7
 10
-5690.5184116802875
 20
200.33001045135921
 40
10
 41
1
 50
0
  1
120718SH
  0
LINE
  8
_0-3_
  6
CONTINUOUS
 62
    7
 10
-5690.6383800465528
 20
998.88610198992342
 11
-5690.6383800465528
 21
218.88610198992325
  0
LINE
  8
_0-3_
  6
CONTINUOUS
 62
    7
 10
-5690.6383800465528
 20
218.88610198992325
 11
-4570.6383800465528
 21
218.88610198992319
  0
LINE
  8
_0-3_
  6
CONTINUOUS
 62
    7
 10
-4570.6383800465528
 20
218.88610198992319
 11
-4570.6383800465528
 21
998.88610198992342
  0
LINE
  8
_0-3_
  6
CONTINUOUS
 62
    7
 10
-4570.6383800465528
 20
998.88610198992342
 11
-5690.6383800465528
 21
998.88610198992342
  0
TEXT
  8
_0-3_
 62
    7
 10
-5277.3087697885685
 20
272.63183999885041
 40
12.4
 41
1
 50
0
  1
ファニチャーハンドル
  0
TEXT
  8
_0-3_
 62
    7
 10
-4901.94456231821
 20
224.17447293330102
 40
12.4
 41
1
 50
0
  1
大洋金物株式会社  ティーエフプラス事業部
  0
TEXT
  8
_0-3_
 62
    7
 10
-4901.94456231821
 20
247.03554693995295
 40
12.4
 41
1
 50
0
  1
1/4
  0
LINE
  8
_0-1_1_5
  6
CONTINUOUS
 62
    7
 10
-4681.1710337888944
 20
700.85803761509123
 11
-4716.1710337888944
 21
700.85803761509123
  0
LINE
  8
_0-1_1_5
  6
CENTER2
 62
    7
 10
-4691.1710337888944
 20
694.85803761509123
 11
-4679.1710337888944
 21
694.85803761509123
  0
LINE
  8
_0-1_1_5
  6
CONTINUOUS
 62
    7
 10
-4681.1710337888944
 20
688.85803761509123
 11
-4716.1710337888944
 21
688.85803761509123
  0
LINE
  8
_0-1_1_5
  6
CONTINUOUS
 62
    7
 10
-4681.1710337888944
 20
700.85803761509123
 11
-4681.1710337888944
 21
688.85803761509123
  0
LINE
  8
_0-1_1_5
  6
DASHED2
 62
    7
 10
-4704.1710337888944
 20
700.85803761509123
 11
-4704.1710337888944
 21
688.85803761509123
  0
LINE
  8
_0-1_1_5
  6
CONTINUOUS
 62
    7
 10
-4716.1710337888944
 20
700.85803761509123
 11
-4716.1710337888944
 21
688.85803761509123
  0
POINT
  8
_0-2_ADD_LINE
 62
    7
 10
-4745.2641252435196
 20
700.85803761509123
  0
POINT
  8
_0-2_ADD_LINE
 62
    7
 10
-4745.2641252435196
 20
688.85803761509123
  0
LINE
  8
_0-2_ADD_LINE
  6
CONTINUOUS
 62
    7
 10
-4745.2641252435196
 20
700.85803761509123
 11
-4724.1710337888944
 21
700.85803761509123
  0
LINE
  8
_0-2_ADD_LINE
  6
CONTINUOUS
 62
    7
 10
-4745.2641252435196
 20
688.85803761509123
 11
-4724.1710337888944
 21
688.85803761509123
  0
LINE
  8
_0-2_ADD_LINE
  6
CONTINUOUS
 62
    7
 10
-4745.2641252435196
 20
700.85803761509123
 11
-4745.2641252435196
 21
688.85803761509123
  0
TEXT
  8
_0-2_ADD_LINE
 62
    4
 10
-4747.2641252435196
 20
689.85803761509123
 40
10
 41
1
 50
90
  1
12
  0
POINT
  8
_0-2_ADD_LINE
 62
    7
 10
-4716.1710337888944
 20
731.57600655364399
  0
POINT
  8
_0-2_ADD_LINE
 62
    7
 10
-4704.1710337888944
 20
731.57600655364399
  0
LINE
  8
_0-2_ADD_LINE
  6
CONTINUOUS
 62
    7
 10
-4716.1710337888944
 20
731.57600655364399
 11
-4716.1710337888944
 21
708.85803761509123
  0
LINE
  8
_0-2_ADD_LINE
  6
CONTINUOUS
 62
    7
 10
-4704.1710337888944
 20
731.57600655364399
 11
-4704.1710337888944
 21
708.85803761509123
  0
LINE
  8
_0-2_ADD_LINE
  6
CONTINUOUS
 62
    7
 10
-4716.1710337888944
 20
731.57600655364399
 11
-4704.1710337888944
 21
731.57600655364399
  0
TEXT
  8
_0-2_ADD_LINE
 62
    4
 10
-4715.1710337888944
 20
733.57600655364399
 40
10
 41
1
 50
0
  1
12
  0
LINE
  8
_0-2_ADD_LINE
  6
CONTINUOUS
 62
    7
 10
-4680.7839795410682
 20
694.42274660573821
 11
-4660.6094767723989
 21
671.46555380001075
  0
LINE
  8
_0-2_ADD_LINE
  6
CONTINUOUS
 62
    7
 10
-4660.4420000572054
 20
671.49131944850205
 11
-4622.4119028840805
 21
671.49131944850205
  0
TEXT
  8
_0-2_ADD_LINE
 62
    7
 10
-4758.746238220504
 20
520.60822411854519
 40
12.4
 41
1
 50
0
  1
対応ドア厚  10-22mm
  0
TEXT
  8
_0-2_ADD_LINE
 62
    7
 10
-4646.1301181908539
 20
673.11474731958583
 40
12.4
 41
1
 50
0
  1
M4
  0
LINE
  8
_0-1_1_5
  6
CONTINUOUS
 62
    7
 10
-5586.2507379900753
 20
700.85803761509123
 11
-5586.2507379900753
 21
688.85803761509123
  0
LINE
  8
_0-1_1_5
  6
DASHED2
 62
    7
 10
-5574.2507379900753
 20
700.85803761509123
 11
-5574.2507379900753
 21
688.85803761509123
  0
LINE
  8
_0-1_1_5
  6
CENTER2
 62
    7
 10
-5580.2507379900753
 20
697.35803761509123
 11
-5580.2507379900753
 21
692.35803761509123
  0
LINE
  8
_0-1_1_5
  6
CENTER2
 62
    7
 10
-5582.7507379900753
 20
694.85803761509123
 11
-5577.7507379900753
 21
694.85803761509123
  0
POINT
  8
_0-2_ADD_LINE
 62
    7
 10
-5580.2507379900753
 20
745.14980644554066
  0
LINE
  8
_0-2_ADD_LINE
  6
CONTINUOUS
 62
    7
 10
-5580.2507379900753
 20
745.14980644554066
 11
-5580.2507379900753
 21
702.85803761509123
  0
POINT
  8
_0-2_ADD_LINE
 62
    7
 10
-5586.2507379900753
 20
768.49200782169237
  0
LINE
  8
_0-2_ADD_LINE
  6
CONTINUOUS
 62
    7
 10
-5586.2507379900753
 20
768.49200782169237
 11
-5586.2507379900753
 21
708.85803761509123
  0
LINE
  8
_0-2_ADD_LINE
  6
CONTINUOUS
 62
    7
 10
-5586.2507379900753
 20
768.49200782169237
 11
-4838.2507379900753
 21
768.49200782169237
  0
TEXT
  8
_0-2_ADD_LINE
 62
    4
 10
-5219.7507379900753
 20
770.49200782169237
 40
10
 41
1
 50
0
  1
748
  0
LINE
  8
_0-1_1_5
  6
CONTINUOUS
 62
    7
 10
-5586.2507379900753
 20
700.85803761509123
 11
-4838.2507379900753
 21
700.85803761509123
  0
LINE
  8
_0-1_1_5
  6
CONTINUOUS
 62
    7
 10
-5586.2507379900753
 20
688.85803761509123
 11
-4838.2507379900753
 21
688.85803761509123
  0
LINE
  8
_0-2_ADD_LINE
  6
CONTINUOUS
 62
    7
 10
-4844.2507379900753
 20
745.14980644554066
 11
-5580.2507379900753
 21
745.14980644554066
  0
TEXT
  8
_0-2_ADD_LINE
 62
    4
 10
-5219.7507379900753
 20
747.14980644554066
 40
10
 41
1
 50
0
  1
736
  0
LINE
  8
_0-1_1_5
  6
CENTER2
 62
    7
 10
-4844.2507379900753
 20
550.52448916262438
 11
-4844.2507379900753
 21
562.52448916262438
  0
LINE
  8
_0-1_1_5
  6
CONTINUOUS
 62
    7
 10
-4850.2507379900753
 20
560.52448916262438
 11
-4838.2507379900753
 21
560.52448916262438
  0
LINE
  8
_0-1_1_5
  6
CONTINUOUS
 62
    7
 10
-4850.2507379900753
 20
537.03746305929735
 11
-4850.2507379900753
 21
560.52448916262438
  0
LINE
  8
_0-1_1_5
  6
CONTINUOUS
 62
    7
 10
-4838.2507379900753
 20
525.03746305929735
 11
-4838.2507379900753
 21
560.52448916262438
  0
LINE
  8
_0-1_1_5
  6
CONTINUOUS
 62
    7
 10
-5574.2507379900753
 20
537.03746305929735
 11
-5574.2507379900753
 21
560.52448916262438
  0
LINE
  8
_0-1_1_5
  6
CONTINUOUS
 62
    7
 10
-5586.2507379900753
 20
525.03746305929735
 11
-5586.2507379900753
 21
560.52448916262438
  0
LINE
  8
_0-1_1_5
  6
CONTINUOUS
 62
    7
 10
-5586.2507379900753
 20
560.52448916262438
 11
-5574.2507379900753
 21
560.52448916262438
  0
LINE
  8
_0-1_1_5
  6
CENTER2
 62
    7
 10
-5580.2507379900753
 20
550.52448916262438
 11
-5580.2507379900753
 21
562.52448916262438
  0
LINE
  8
_0-1_1_5
  6
CONTINUOUS
 62
    7
 10
-5574.2507379900753
 20
537.03746305929735
 11
-4850.2507379900753
 21
537.03746305929735
  0
LINE
  8
_0-1_1_5
  6
CONTINUOUS
 62
    7
 10
-5586.2507379900753
 20
525.03746305929735
 11
-4838.2507379900753
 21
525.03746305929735
  0
POINT
  8
_0-2_ADD_LINE
 62
    7
 10
-5586.2507379900753
 20
572.84234700392119
  0
POINT
  8
_0-2_ADD_LINE
 62
    7
 10
-5574.2507379900753
 20
572.84234700392119
  0
LINE
  8
_0-2_ADD_LINE
  6
CONTINUOUS
 62
    7
 10
-5586.2507379900753
 20
572.84234700392119
 11
-5586.2507379900753
 21
562.194660171181
  0
LINE
  8
_0-2_ADD_LINE
  6
CONTINUOUS
 62
    7
 10
-5574.2507379900753
 20
572.84234700392119
 11
-5574.2507379900753
 21
562.194660171181
  0
LINE
  8
_0-2_ADD_LINE
  6
CONTINUOUS
 62
    7
 10
-5586.2507379900753
 20
572.84234700392119
 11
-5574.2507379900753
 21
572.84234700392119
  0
TEXT
  8
_0-2_ADD_LINE
 62
    4
 10
-5585.2507379900753
 20
574.84234700392119
 40
10
 41
1
 50
0
  1
12
  0
TEXT
  8
_0-3_
 62
    7
 10
-4902.7612622641709
 20
272.14932194564335
 40
12.4
 41
1
 50
0
  1
TFP21-2273-003
  0
ENDSEC
  0
EOF
