  0
SECTION
  2
HEADER
  9
$ACADVER
  1
AC1009
  9
$INSBASE
 10
0
 20
0
 30
0
  9
$EXTMIN
 10
0
 20
0
  9
$EXTMAX
 10
297
 20
210
  9
$LIMMIN
 10
0
 20
0
  9
$LIMMAX
 10
297
 20
210
  9
$LTSCALE
 40
1
  0
ENDSEC
  0
SECTION
  2
TABLES
  0
TABLE
  2
LTYPE
 70
     9
  0
LTYPE
  2
CONTINUOUS
 70
    64
  3
実線
 72
    65
 73
     0
 40
0.0
  0
LTYPE
  2
DASHED1
 70
    64
  3
--  --  --  --  --  --  --  --  
 72
    65
 73
     2
 40
2.5
 49
1.25
 49
-1.25
  0
LTYPE
  2
DASHED2
 70
    64
  3
----    ----    ----    ----    
 72
    65
 73
     2
 40
5.0
 49
2.5
 49
-2.5
  0
LTYPE
  2
DASHED3
 70
    64
  3
------  ------  ------  ------  
 72
    65
 73
     2
 40
5.0
 49
3.75
 49
-1.25
  0
LTYPE
  2
CENTER1
 70
    64
  3
----- - ----- - ----- - ----- - 
 72
    65
 73
     4
 40
10.0
 49
6.25
 49
-1.25
 49
1.25
 49
-1.25
  0
LTYPE
  2
CENTER2
 70
    64
  3
----------  --  ----------  --  
 72
    65
 73
     4
 40
20.0
 49
12.5
 49
-2.5
 49
2.5
 49
-2.5
  0
LTYPE
  2
PHANTOM1
 70
    64
  3
--- - - --- - - --- - - --- - - 
 72
    65
 73
     6
 40
10.0
 49
3.25
 49
-1.25
 49
1.25
 49
-1.25
 49
1.25
 49
-1.25
  0
LTYPE
  2
PHANTOM2
 70
    64
  3
--------  -  -  --------  -  -  
 72
    65
 73
     6
 40
20.0
 49
10.0
 49
-2.5
 49
1.25
 49
-2.5
 49
1.25
 49
-2.5
  0
LTYPE
  2
DOT
 70
    64
  3
-   -   -   -   -   -   -   -   
 72
    65
 73
     2
 40
2.5
 49
0.625
 49
-1.875
  0
LTYPE
  2
DUMMY
 70
    64
  3
ダミー
 72
    65
 73
     0
 40
0.0
  0
LTYPE
  2
RAND1
 70
    64
  3
ランダム線1
 72
    65
 73
     4
 40
10.0
 49
1.0
 49
-2.0
 49
3.0
 49
-4.0
  0
LTYPE
  2
RAND2
 70
    64
  3
ランダム線2
 72
    65
 73
     4
 40
14.0
 49
2.0
 49
-3.0
 49
4.0
 49
-5.0
  0
LTYPE
  2
RAND3
 70
    64
  3
ランダム線3
 72
    65
 73
     4
 40
18.0
 49
3.0
 49
-4.0
 49
5.0
 49
-6.0
  0
LTYPE
  2
RAND4
 70
    64
  3
ランダム線4
 72
    65
 73
     4
 40
22.0
 49
4.0
 49
-5.0
 49
6.0
 49
-7.0
  0
LTYPE
  2
RAND5
 70
    64
  3
ランダム線5
 72
    65
 73
     4
 40
26.0
 49
5.0
 49
-6.0
 49
7.0
 49
-8.0
  0
LTYPE
  2
LONG1
 70
    64
  3
----------  --  ----------  --  
 72
    65
 73
     4
 40
40.0
 49
32.5
 49
-2.5
 49
2.5
 49
-2.5
  0
LTYPE
  2
LONG2
 70
    64
  3
--------  -  -  --------  -  -  
 72
    65
 73
     6
 40
40.0
 49
30.0
 49
-2.5
 49
1.25
 49
-2.5
 49
1.25
 49
-2.5
  0
LTYPE
  2
LONG3
 70
    64
  3
+++++++++++++++..+++++++++++++++
 72
    65
 73
     2
 40
40.0
 49
37.5
 49
-2.5
  0
LTYPE
  2
LONG4
 70
    64
  3
+++++++++++++++..+++++++++++++++
 72
    65
 73
     2
 40
80.0
 49
75.0
 49
-5.0
  0
LTYPE
  2
LONG5
 70
    64
  3
----------  --  ----------  --  
 72
    65
 73
     4
 40
60.0
 49
37.5
 49
-7.5
 49
7.5
 49
-7.5
  0
LTYPE
  2
dashed
 70
   64
  3
-------   -------------   ------
 72
   65
 73
    2
 40
7.5
 49
6
 49
-1.5
  0
LTYPE
  2
dashed_spaced
 70
   64
  3
----        --------        ----
 72
   65
 73
    2
 40
12
 49
6
 49
-6
  0
LTYPE
  2
long_dashed_dotted
 70
   64
  3
------------- --- --------------
 72
   65
 73
    4
 40
15.25
 49
12
 49
-1.5
 49
0.25
 49
-1.5
  0
LTYPE
  2
long_dashed_double-dotted
 70
   64
  3
----------- --- --- ------------
 72
   65
 73
    6
 40
17
 49
12
 49
-1.5
 49
0.25
 49
-1.5
 49
0.25
 49
-1.5
  0
LTYPE
  2
long_dashed_triplicate-dotted
 70
   64
  3
--------- --- --- --- ----------
 72
   65
 73
    8
 40
18.75
 49
12
 49
-1.5
 49
0.25
 49
-1.5
 49
0.25
 49
-1.5
 49
0.25
 49
-1.5
  0
LTYPE
  2
dotted
 70
   64
  3
   -       -       -       -    
 72
   65
 73
    2
 40
1.75
 49
0.25
 49
-1.5
  0
LTYPE
  2
chain
 70
   64
  3
-------------- -- --------------
 72
   65
 73
    4
 40
18.5
 49
12
 49
-1.5
 49
3.5
 49
-1.5
  0
LTYPE
  2
chain_double_dash
 70
   64
  3
------------ -- -- -------------
 72
   65
 73
    6
 40
23.5
 49
12
 49
-1.5
 49
3.5
 49
-1.5
 49
3.5
 49
-1.5
  0
LTYPE
  2
dashed_dotted
 70
   64
  3
-----------     -     ----------
 72
   65
 73
    4
 40
9.25
 49
6
 49
-1.5
 49
0.25
 49
-1.5
  0
LTYPE
  2
double-dashed_dotted
 70
   64
  3
------   -----------   -   -----
 72
   65
 73
    6
 40
16.75
 49
6
 49
-1.5
 49
6
 49
-1.5
 49
0.25
 49
-1.5
  0
LTYPE
  2
dashed_double-dotted
 70
   64
  3
---------    -    -    ---------
 72
   65
 73
    6
 40
11
 49
6
 49
-1.5
 49
0.25
 49
-1.5
 49
0.25
 49
-1.5
  0
LTYPE
  2
double-dashed_double-dotted
 70
   64
  3
-----   ---------   -   -   ----
 72
   65
 73
    8
 40
18.5
 49
6
 49
-1.5
 49
6
 49
-1.5
 49
0.25
 49
-1.5
 49
0.25
 49
-1.5
  0
LTYPE
  2
dashed_triplicate-dotted
 70
   64
  3
-------    -    -    -    ------
 72
   65
 73
    8
 40
12.75
 49
6
 49
-1.5
 49
0.25
 49
-1.5
 49
0.25
 49
-1.5
 49
0.25
 49
-1.5
  0
LTYPE
  2
double-dashed_triplicate-dotted
 70
   64
  3
-----  ---------  -  -  -  -----
 72
   65
 73
   10
 40
20.25
 49
6
 49
-1.5
 49
6
 49
-1.5
 49
0.25
 49
-1.5
 49
0.25
 49
-1.5
 49
0.25
 49
-1.5
  0
LTYPE
  2
undefined
 70
   64
  3
--------------------------------
 72
   65
 73
    0
 40
0
  0
LTYPE
  2
STYLE_01
 70
   64
  3
----        --------        ----
 72
   65
 73
    2
 40
0.4166399999999997
 49
0.2082799999999999
 49
-0.2083599999999999
  0
LTYPE
  2
STYLE_02
 70
   64
  3
------     -----------     -----
 72
   65
 73
    2
 40
0.694425
 49
0.48607
 49
-0.2083550000000001
  0
LTYPE
  2
STYLE_03
 70
   64
  3
-------   -------------   ------
 72
   65
 73
    2
 40
1.25
 49
1.0416400000000001
 49
-0.2083599999999999
  0
LTYPE
  2
STYLE_04
 70
   64
  3
-------  --------------  -------
 72
   65
 73
    2
 40
1.5277099999999999
 49
1.3194249999999998
 49
-0.208285
  0
LTYPE
  2
STYLE_05
 70
   64
  3
---           -----           --
 72
   65
 73
    2
 40
0.20828
 49
0.069425
 49
-0.138855
  0
LTYPE
  2
STYLE_06
 70
   64
  3
----------      --    ----------
 72
   65
 73
    4
 40
1.0416399999999999
 49
0.625
 49
-0.2082799999999999
 49
0.06943
 49
-0.13893
  0
LTYPE
  2
STYLE_07
 70
   64
  3
-----    -----------    -  -----
 72
   65
 73
    6
 40
1.8749999999999998
 49
0.625
 49
-0.2082799999999999
 49
0.6250000000000001
 49
-0.2083599999999999
 49
0.06943
 49
-0.1389299999999998
  0
LTYPE
  2
STYLE_08
 70
   64
  3
--------     --    --    -------
 72
   65
 73
    6
 40
1.2499999999999996
 49
0.625
 49
-0.2082799999999999
 49
0.06943
 49
-0.13893
 49
0.0694299999999997
 49
-0.13893
  0
LTYPE
  2
STYLE_09
 70
   64
  3
------------  ----  ------------
 72
   65
 73
    4
 40
5
 49
3.75
 49
-0.2777849999999997
 49
0.6944300000000003
 49
-0.2777849999999997
  0
LTYPE
  2
STYLE_10
 70
   64
  3
----------- ---- ---  ----------
 72
   65
 73
    6
 40
5.9375
 49
3.75
 49
-0.2777849999999997
 49
0.6944300000000003
 49
-0.2777849999999997
 49
0.625
 49
-0.3125
  0
ENDTAB
  0
TABLE
  2
STYLE
  5
3
100
AcDbSymbolTable
 70
     1
  0
STYLE
  5
10
100
AcDbSymbolTableRecord
100
AcDbTextStyleTableRecord
  2
STANDARD
 70
     0
 40
0.0
 41
1.0
 50
0.0
 71
     0
 42
0.2
  3
txt
  4
bigfont.shx
  0
STYLE
  5
26
100
AcDbSymbolTableRecord
100
AcDbTextStyleTableRecord
  2
TATEGAKI
 70
    68
 40
0.0
 41
1.0
 50
0.0
 71
     0
 42
1.0
  3
txt
  4
bigfont.shx
  0
ENDTAB
  0
TABLE
  2
LAYER
 70
    5
  0
LAYER
  2
_0-0_0
 70
   64
 62
    7
  6
CONTINUOUS
  0
LAYER
  2
_0-1_1_5
 70
   64
 62
    7
  6
CONTINUOUS
  0
LAYER
  2
_0-2_ADD_LINE
 70
   64
 62
    7
  6
CONTINUOUS
  0
LAYER
  2
_0-3_
 70
   64
 62
    7
  6
CONTINUOUS
  0
LAYER
  2
ADD_LINE
 70
   64
 62
    7
  6
CONTINUOUS
  0
ENDTAB
  0
ENDSEC
  0
SECTION
  2
BLOCKS
  0
ENDSEC
  0
SECTION
  2
ENTITIES
  0
LINE
  8
_0-0_0
  6
CONTINUOUS
 62
    7
 10
-1432.1695483810656
 20
47.001481275140193
 11
-1135.1695483810656
 21
47.001481275140165
  0
LINE
  8
_0-0_0
  6
CONTINUOUS
 62
    7
 10
-1432.1695483810656
 20
257.00148127514018
 11
-1432.1695483810656
 21
47.001481275140193
  0
LINE
  8
_0-0_0
  6
CONTINUOUS
 62
    7
 10
-1135.1695483810656
 20
257.00148127514018
 11
-1432.1695483810656
 21
257.00148127514018
  0
LINE
  8
_0-0_0
  6
CONTINUOUS
 62
    7
 10
-1135.1695483810656
 20
47.001481275140165
 11
-1135.1695483810656
 21
257.00148127514018
  0
LINE
  8
_0-3_
  6
CONTINUOUS
 62
    7
 10
-1142.6595950116382
 20
66.721525497480826
 11
-1329.5068075692798
 21
66.721525497480826
  0
LINE
  8
_0-3_
  6
CONTINUOUS
 62
    7
 10
-1142.6595950116382
 20
60.721525497480819
 11
-1329.5068075692798
 21
60.721525497480819
  0
LINE
  8
_0-3_
  6
CONTINUOUS
 62
    7
 10
-1329.5068075692798
 20
54.721525497480812
 11
-1329.5068075692798
 21
72.721525497480826
  0
TEXT
  8
_0-3_
 62
    4
 10
-1328.1128348460911
 20
69.567584301259956
 40
2
 41
1
 50
0
  1
品名
  0
TEXT
  8
_0-3_
 62
    4
 10
-1328.1128348460911
 20
63.638285853294605
 40
2
 41
1
 50
0
  1
仕上げ
  0
TEXT
  8
_0-3_
 62
    4
 10
-1328.1128348460911
 20
57.396919065962642
 40
2
 41
1
 50
0
  1
材質
  0
TEXT
  8
_0-3_
 62
    7
 10
-1319.3271924471421
 20
55.95371272710431
 40
3.1000000000000001
 41
1
 50
0
  1
ステンレススチール
  0
TEXT
  8
_0-3_
 62
    4
 10
-1234.9373494599215
 20
69.605404419443602
 40
2
 41
1
 50
0
  1
品番
  0
LINE
  8
_0-3_
  6
CONTINUOUS
 62
    7
 10
-1235.9929283516381
 20
54.721525497480798
 11
-1235.9929283516381
 21
72.721525497480826
  0
LINE
  8
_0-3_
  6
CONTINUOUS
 62
    7
 10
-1142.6595950116382
 20
72.721525497480826
 11
-1329.5068075692798
 21
72.721525497480826
  0
TEXT
  8
_0-3_
 62
    4
 10
-1234.9495659077759
 20
63.653101904497994
 40
2
 41
1
 50
0
  1
縮尺
  0
TEXT
  8
_0-3_
 62
    7
 10
-1422.6296029200719
 20
50.082502612839804
 40
2.5
 41
1
 50
0
  1
120718SH
  0
LINE
  8
_0-3_
  6
CONTINUOUS
 62
    7
 10
-1422.6595950116382
 20
249.72152549748085
 11
-1422.6595950116382
 21
54.721525497480812
  0
LINE
  8
_0-3_
  6
CONTINUOUS
 62
    7
 10
-1422.6595950116382
 20
54.721525497480812
 11
-1142.6595950116382
 21
54.721525497480798
  0
TEXT
  8
_0-3_
 62
    7
 10
-1225.4861405795525
 20
61.758886734988231
 40
3.1000000000000001
 41
1
 50
0
  1
1/1
  0
TEXT
  8
_0-3_
 62
    7
 10
-1319.3271924471421
 20
68.157959999712602
 40
3.1000000000000001
 41
1
 50
0
  1
ファニチャーハンドル
  0
LINE
  8
_0-3_
  6
CONTINUOUS
 62
    7
 10
-1142.6595950116382
 20
54.721525497480798
 11
-1142.6595950116382
 21
249.72152549748085
  0
LINE
  8
_0-3_
  6
CONTINUOUS
 62
    7
 10
-1142.6595950116382
 20
249.72152549748085
 11
-1422.6595950116382
 21
249.72152549748085
  0
POINT
  8
_0-2_ADD_LINE
 62
    7
 10
-1252.2028857690127
 20
207.30446275436998
  0
LINE
  8
_0-2_ADD_LINE
  6
CONTINUOUS
 62
    7
 10
-1252.2028857690127
 20
207.30446275436998
 11
-1252.2028857690127
 21
193.59567051207694
  0
LINE
  8
_0-1_1_5
  6
CONTINUOUS
 62
    7
 10
-1380.2028857690127
 20
207.30446275436998
 11
-1252.2028857690127
 21
207.30446275436998
  0
TEXT
  8
_0-1_1_5
 62
    4
 10
-1318.0778857690127
 20
207.80446275436998
 40
2.5
 41
1
 50
0
  1
128
  0
POINT
  8
_0-2_ADD_LINE
 62
    7
 10
-1385.2028857690127
 20
212.58657840143397
  0
POINT
  8
_0-2_ADD_LINE
 62
    7
 10
-1247.2028857690127
 20
212.58657840143397
  0
LINE
  8
_0-2_ADD_LINE
  6
CONTINUOUS
 62
    7
 10
-1385.2028857690127
 20
212.58657840143397
 11
-1385.2028857690127
 21
193.59567051207694
  0
LINE
  8
_0-2_ADD_LINE
  6
CONTINUOUS
 62
    7
 10
-1247.2028857690127
 20
212.58657840143397
 11
-1247.2028857690127
 21
193.59567051207694
  0
LINE
  8
_0-1_1_5
  6
CONTINUOUS
 62
    7
 10
-1385.2028857690127
 20
212.58657840143397
 11
-1247.2028857690127
 21
212.58657840143397
  0
TEXT
  8
_0-1_1_5
 62
    4
 10
-1318.0778857690127
 20
213.08657840143397
 40
2.5
 41
1
 50
0
  1
138
  0
LINE
  8
_0-2_ADD_LINE
  6
CONTINUOUS
 62
    7
 10
-1177.9987531931542
 20
189.09108587779804
 11
-1166.6440488153264
 21
177.73638149997009
  0
LINE
  8
_0-2_ADD_LINE
  6
CONTINUOUS
 62
    7
 10
-1166.6440488153264
 20
177.73638149997009
 11
-1158.9415663102286
 21
177.73638149997009
  0
TEXT
  8
_0-2_ADD_LINE
 62
    7
 10
-1164.0279734075261
 20
178.31238034842039
 40
3.1000000000000001
 41
1
 50
0
  1
M4
  0
POINT
  8
_0-2_ADD_LINE
 62
    7
 10
-1380.2028857690127
 20
207.30446275436998
  0
LINE
  8
_0-2_ADD_LINE
  6
CONTINUOUS
 62
    7
 10
-1380.2028857690127
 20
207.30446275436998
 11
-1380.2028857690127
 21
193.59567051207694
  0
LINE
  8
_0-1_1_5
  6
CONTINUOUS
 62
    7
 10
-1178.0053518783793
 20
199.09567051207694
 11
-1208.0053518783793
 21
199.09567051207694
  0
LINE
  8
_0-1_1_5
  6
CONTINUOUS
 62
    7
 10
-1178.0053518783793
 20
199.09567051207694
 11
-1178.0053518783793
 21
179.09567051207694
  0
LINE
  8
_0-1_1_5
  6
CONTINUOUS
 62
    7
 10
-1178.0053518783793
 20
179.09567051207694
 11
-1208.0053518783793
 21
179.09567051207694
  0
LINE
  8
_0-1_1_5
  6
DASHED1
 62
    7
 10
-1380.2028857690127
 20
179.09567051207694
 11
-1380.2028857690127
 21
179.09567051207694
  0
LINE
  8
_0-1_1_5
  6
DASHED1
 62
    7
 10
-1380.2028857690127
 20
179.09567051207694
 11
-1379.3346448806781
 21
179.24759298195485
  0
LINE
  8
_0-1_1_5
  6
DASHED1
 62
    7
 10
-1379.3346448806781
 20
179.24759298195485
 11
-1378.4927850523843
 21
179.69874430421785
  0
LINE
  8
_0-1_1_5
  6
DASHED1
 62
    7
 10
-1378.4927850523843
 20
179.69874430421785
 11
-1377.7028857690127
 21
180.43541647423254
  0
LINE
  8
_0-1_1_5
  6
DASHED1
 62
    7
 10
-1377.7028857690127
 20
180.43541647423254
 11
-1376.98894772058
 21
181.43522608088716
  0
LINE
  8
_0-1_1_5
  6
DASHED1
 62
    7
 10
-1376.98894772058
 20
181.43522608088716
 11
-1376.3726635534179
 21
182.66779441521155
  0
LINE
  8
_0-1_1_5
  6
DASHED1
 62
    7
 10
-1376.3726635534179
 20
182.66779441521155
 11
-1375.8727587500905
 21
184.09567051207694
  0
LINE
  8
_0-1_1_5
  6
DASHED1
 62
    7
 10
-1375.8727587500905
 20
184.09567051207694
 11
-1375.5044226650832
 21
185.67546907882024
  0
LINE
  8
_0-1_1_5
  6
DASHED1
 62
    7
 10
-1375.5044226650832
 20
185.67546907882024
 11
-1375.2788470039516
 21
187.35918873540763
  0
LINE
  8
_0-1_1_5
  6
DASHED1
 62
    7
 10
-1375.2788470039516
 20
187.35918873540763
 11
-1375.2028857690127
 21
189.09567051207694
  0
LINE
  8
_0-1_1_5
  6
DASHED1
 62
    7
 10
-1375.2028857690127
 20
189.09567051207694
 11
-1375.2788470039516
 21
190.83215228874624
  0
LINE
  8
_0-1_1_5
  6
DASHED1
 62
    7
 10
-1375.2788470039516
 20
190.83215228874624
 11
-1375.5044226650832
 21
192.51587194533363
  0
LINE
  8
_0-1_1_5
  6
DASHED1
 62
    7
 10
-1375.5044226650832
 20
192.51587194533363
 11
-1375.8727587500905
 21
194.09567051207694
  0
LINE
  8
_0-1_1_5
  6
DASHED1
 62
    7
 10
-1375.8727587500905
 20
194.09567051207694
 11
-1376.3726635534179
 21
195.52354660894233
  0
LINE
  8
_0-1_1_5
  6
DASHED1
 62
    7
 10
-1376.3726635534179
 20
195.52354660894233
 11
-1376.98894772058
 21
196.75611494326671
  0
LINE
  8
_0-1_1_5
  6
DASHED1
 62
    7
 10
-1376.98894772058
 20
196.75611494326671
 11
-1377.7028857690127
 21
197.7559245499213
  0
LINE
  8
_0-1_1_5
  6
DASHED1
 62
    7
 10
-1377.7028857690127
 20
197.7559245499213
 11
-1378.4927850523843
 21
198.49259671993602
  0
LINE
  8
_0-1_1_5
  6
DASHED1
 62
    7
 10
-1378.4927850523843
 20
198.49259671993602
 11
-1379.3346448806781
 21
198.94374804219902
  0
LINE
  8
_0-1_1_5
  6
DASHED1
 62
    7
 10
-1379.3346448806781
 20
198.94374804219902
 11
-1380.2028857690127
 21
199.09567051207694
  0
LINE
  8
_0-1_1_5
  6
DASHED1
 62
    7
 10
-1380.2028857690127
 20
199.09567051207694
 11
-1380.2028857690127
 21
199.09567051207694
  0
LINE
  8
_0-1_1_5
  6
CONTINUOUS
 62
    7
 10
-1380.2028857690127
 20
199.09567051207694
 11
-1380.2028857690127
 21
199.09567051207694
  0
LINE
  8
_0-1_1_5
  6
CONTINUOUS
 62
    7
 10
-1380.2028857690127
 20
199.09567051207694
 11
-1381.0711266573473
 21
198.94374804219902
  0
LINE
  8
_0-1_1_5
  6
CONTINUOUS
 62
    7
 10
-1381.0711266573473
 20
198.94374804219902
 11
-1381.9129864856411
 21
198.49259671993602
  0
LINE
  8
_0-1_1_5
  6
CONTINUOUS
 62
    7
 10
-1381.9129864856411
 20
198.49259671993602
 11
-1382.7028857690127
 21
197.75592454992133
  0
LINE
  8
_0-1_1_5
  6
CONTINUOUS
 62
    7
 10
-1382.7028857690127
 20
197.75592454992133
 11
-1383.4168238174454
 21
196.75611494326671
  0
LINE
  8
_0-1_1_5
  6
CONTINUOUS
 62
    7
 10
-1383.4168238174454
 20
196.75611494326671
 11
-1384.0331079846076
 21
195.52354660894233
  0
LINE
  8
_0-1_1_5
  6
CONTINUOUS
 62
    7
 10
-1384.0331079846076
 20
195.52354660894233
 11
-1384.5330127879349
 21
194.09567051207694
  0
LINE
  8
_0-1_1_5
  6
CONTINUOUS
 62
    7
 10
-1384.5330127879349
 20
194.09567051207694
 11
-1384.9013488729422
 21
192.51587194533363
  0
LINE
  8
_0-1_1_5
  6
CONTINUOUS
 62
    7
 10
-1384.9013488729422
 20
192.51587194533363
 11
-1385.1269245340739
 21
190.83215228874624
  0
LINE
  8
_0-1_1_5
  6
CONTINUOUS
 62
    7
 10
-1385.1269245340739
 20
190.83215228874624
 11
-1385.2028857690127
 21
189.09567051207694
  0
LINE
  8
_0-1_1_5
  6
CONTINUOUS
 62
    7
 10
-1385.2028857690127
 20
189.09567051207694
 11
-1385.1269245340739
 21
187.35918873540763
  0
LINE
  8
_0-1_1_5
  6
CONTINUOUS
 62
    7
 10
-1385.1269245340739
 20
187.35918873540763
 11
-1384.9013488729422
 21
185.67546907882024
  0
LINE
  8
_0-1_1_5
  6
CONTINUOUS
 62
    7
 10
-1384.9013488729422
 20
185.67546907882024
 11
-1384.5330127879349
 21
184.09567051207694
  0
LINE
  8
_0-1_1_5
  6
CONTINUOUS
 62
    7
 10
-1384.5330127879349
 20
184.09567051207694
 11
-1384.0331079846076
 21
182.66779441521155
  0
LINE
  8
_0-1_1_5
  6
CONTINUOUS
 62
    7
 10
-1384.0331079846076
 20
182.66779441521155
 11
-1383.4168238174454
 21
181.43522608088716
  0
LINE
  8
_0-1_1_5
  6
CONTINUOUS
 62
    7
 10
-1383.4168238174454
 20
181.43522608088716
 11
-1382.7028857690127
 21
180.43541647423257
  0
LINE
  8
_0-1_1_5
  6
CONTINUOUS
 62
    7
 10
-1382.7028857690127
 20
180.43541647423257
 11
-1381.9129864856411
 21
179.69874430421785
  0
LINE
  8
_0-1_1_5
  6
CONTINUOUS
 62
    7
 10
-1381.9129864856411
 20
179.69874430421785
 11
-1381.0711266573473
 21
179.24759298195485
  0
LINE
  8
_0-1_1_5
  6
CONTINUOUS
 62
    7
 10
-1381.0711266573473
 20
179.24759298195485
 11
-1380.2028857690127
 21
179.09567051207694
  0
LINE
  8
_0-1_1_5
  6
CONTINUOUS
 62
    7
 10
-1380.2028857690127
 20
179.09567051207694
 11
-1380.2028857690127
 21
179.09567051207694
  0
LINE
  8
_0-1_1_5
  6
CONTINUOUS
 62
    7
 10
-1380.2028857690127
 20
199.09567051207694
 11
-1252.2028857690127
 21
199.09567051207694
  0
LINE
  8
_0-1_1_5
  6
CONTINUOUS
 62
    7
 10
-1380.2028857690127
 20
179.09567051207694
 11
-1252.2028857690127
 21
179.09567051207694
  0
LINE
  8
_0-1_1_5
  6
CONTINUOUS
 62
    7
 10
-1252.2028857690127
 20
179.09567051207694
 11
-1252.2028857690127
 21
179.09567051207694
  0
LINE
  8
_0-1_1_5
  6
CONTINUOUS
 62
    7
 10
-1252.2028857690127
 20
179.09567051207694
 11
-1251.3346448806781
 21
179.24759298195485
  0
LINE
  8
_0-1_1_5
  6
CONTINUOUS
 62
    7
 10
-1251.3346448806781
 20
179.24759298195485
 11
-1250.4927850523843
 21
179.69874430421785
  0
LINE
  8
_0-1_1_5
  6
CONTINUOUS
 62
    7
 10
-1250.4927850523843
 20
179.69874430421785
 11
-1249.7028857690127
 21
180.43541647423254
  0
LINE
  8
_0-1_1_5
  6
CONTINUOUS
 62
    7
 10
-1249.7028857690127
 20
180.43541647423254
 11
-1248.98894772058
 21
181.43522608088716
  0
LINE
  8
_0-1_1_5
  6
CONTINUOUS
 62
    7
 10
-1248.98894772058
 20
181.43522608088716
 11
-1248.3726635534179
 21
182.66779441521155
  0
LINE
  8
_0-1_1_5
  6
CONTINUOUS
 62
    7
 10
-1248.3726635534179
 20
182.66779441521155
 11
-1247.8727587500905
 21
184.09567051207694
  0
LINE
  8
_0-1_1_5
  6
CONTINUOUS
 62
    7
 10
-1247.8727587500905
 20
184.09567051207694
 11
-1247.5044226650832
 21
185.67546907882024
  0
LINE
  8
_0-1_1_5
  6
CONTINUOUS
 62
    7
 10
-1247.5044226650832
 20
185.67546907882024
 11
-1247.2788470039516
 21
187.35918873540763
  0
LINE
  8
_0-1_1_5
  6
CONTINUOUS
 62
    7
 10
-1247.2788470039516
 20
187.35918873540763
 11
-1247.2028857690127
 21
189.09567051207694
  0
LINE
  8
_0-1_1_5
  6
CONTINUOUS
 62
    7
 10
-1247.2028857690127
 20
189.09567051207694
 11
-1247.2788470039516
 21
190.83215228874624
  0
LINE
  8
_0-1_1_5
  6
CONTINUOUS
 62
    7
 10
-1247.2788470039516
 20
190.83215228874624
 11
-1247.5044226650832
 21
192.51587194533363
  0
LINE
  8
_0-1_1_5
  6
CONTINUOUS
 62
    7
 10
-1247.5044226650832
 20
192.51587194533363
 11
-1247.8727587500905
 21
194.09567051207694
  0
LINE
  8
_0-1_1_5
  6
CONTINUOUS
 62
    7
 10
-1247.8727587500905
 20
194.09567051207694
 11
-1248.3726635534179
 21
195.52354660894233
  0
LINE
  8
_0-1_1_5
  6
CONTINUOUS
 62
    7
 10
-1248.3726635534179
 20
195.52354660894233
 11
-1248.98894772058
 21
196.75611494326671
  0
LINE
  8
_0-1_1_5
  6
CONTINUOUS
 62
    7
 10
-1248.98894772058
 20
196.75611494326671
 11
-1249.7028857690127
 21
197.7559245499213
  0
LINE
  8
_0-1_1_5
  6
CONTINUOUS
 62
    7
 10
-1249.7028857690127
 20
197.7559245499213
 11
-1250.4927850523843
 21
198.49259671993602
  0
LINE
  8
_0-1_1_5
  6
CONTINUOUS
 62
    7
 10
-1250.4927850523843
 20
198.49259671993602
 11
-1251.3346448806781
 21
198.94374804219902
  0
LINE
  8
_0-1_1_5
  6
CONTINUOUS
 62
    7
 10
-1251.3346448806781
 20
198.94374804219902
 11
-1252.2028857690127
 21
199.09567051207694
  0
LINE
  8
_0-1_1_5
  6
CONTINUOUS
 62
    7
 10
-1252.2028857690127
 20
199.09567051207694
 11
-1252.2028857690127
 21
199.09567051207694
  0
LINE
  8
_0-1_1_5
  6
DASHED1
 62
    7
 10
-1252.2028857690127
 20
199.09567051207694
 11
-1252.2028857690127
 21
199.09567051207694
  0
LINE
  8
_0-1_1_5
  6
DASHED1
 62
    7
 10
-1252.2028857690127
 20
199.09567051207694
 11
-1253.0711266573473
 21
198.94374804219902
  0
LINE
  8
_0-1_1_5
  6
DASHED1
 62
    7
 10
-1253.0711266573473
 20
198.94374804219902
 11
-1253.9129864856411
 21
198.49259671993602
  0
LINE
  8
_0-1_1_5
  6
DASHED1
 62
    7
 10
-1253.9129864856411
 20
198.49259671993602
 11
-1254.7028857690127
 21
197.75592454992133
  0
LINE
  8
_0-1_1_5
  6
DASHED1
 62
    7
 10
-1254.7028857690127
 20
197.75592454992133
 11
-1255.4168238174454
 21
196.75611494326671
  0
LINE
  8
_0-1_1_5
  6
DASHED1
 62
    7
 10
-1255.4168238174454
 20
196.75611494326671
 11
-1256.0331079846076
 21
195.52354660894233
  0
LINE
  8
_0-1_1_5
  6
DASHED1
 62
    7
 10
-1256.0331079846076
 20
195.52354660894233
 11
-1256.5330127879349
 21
194.09567051207694
  0
LINE
  8
_0-1_1_5
  6
DASHED1
 62
    7
 10
-1256.5330127879349
 20
194.09567051207694
 11
-1256.9013488729422
 21
192.51587194533363
  0
LINE
  8
_0-1_1_5
  6
DASHED1
 62
    7
 10
-1256.9013488729422
 20
192.51587194533363
 11
-1257.1269245340739
 21
190.83215228874624
  0
LINE
  8
_0-1_1_5
  6
DASHED1
 62
    7
 10
-1257.1269245340739
 20
190.83215228874624
 11
-1257.2028857690127
 21
189.09567051207694
  0
LINE
  8
_0-1_1_5
  6
DASHED1
 62
    7
 10
-1257.2028857690127
 20
189.09567051207694
 11
-1257.1269245340739
 21
187.35918873540763
  0
LINE
  8
_0-1_1_5
  6
DASHED1
 62
    7
 10
-1257.1269245340739
 20
187.35918873540763
 11
-1256.9013488729422
 21
185.67546907882024
  0
LINE
  8
_0-1_1_5
  6
DASHED1
 62
    7
 10
-1256.9013488729422
 20
185.67546907882024
 11
-1256.5330127879349
 21
184.09567051207694
  0
LINE
  8
_0-1_1_5
  6
DASHED1
 62
    7
 10
-1256.5330127879349
 20
184.09567051207694
 11
-1256.0331079846076
 21
182.66779441521155
  0
LINE
  8
_0-1_1_5
  6
DASHED1
 62
    7
 10
-1256.0331079846076
 20
182.66779441521155
 11
-1255.4168238174454
 21
181.43522608088716
  0
LINE
  8
_0-1_1_5
  6
DASHED1
 62
    7
 10
-1255.4168238174454
 20
181.43522608088716
 11
-1254.7028857690127
 21
180.43541647423257
  0
LINE
  8
_0-1_1_5
  6
DASHED1
 62
    7
 10
-1254.7028857690127
 20
180.43541647423257
 11
-1253.9129864856411
 21
179.69874430421785
  0
LINE
  8
_0-1_1_5
  6
DASHED1
 62
    7
 10
-1253.9129864856411
 20
179.69874430421785
 11
-1253.0711266573473
 21
179.24759298195485
  0
LINE
  8
_0-1_1_5
  6
DASHED1
 62
    7
 10
-1253.0711266573473
 20
179.24759298195485
 11
-1252.2028857690127
 21
179.09567051207694
  0
LINE
  8
_0-1_1_5
  6
DASHED1
 62
    7
 10
-1252.2028857690127
 20
179.09567051207694
 11
-1252.2028857690127
 21
179.09567051207694
  0
LINE
  8
_0-1_1_5
  6
DASHED1
 62
    7
 10
-1208.0053518783793
 20
179.09567051207694
 11
-1208.0053518783793
 21
179.09567051207694
  0
LINE
  8
_0-1_1_5
  6
DASHED1
 62
    7
 10
-1208.0053518783793
 20
179.09567051207694
 11
-1207.1371109900447
 21
179.24759298195485
  0
LINE
  8
_0-1_1_5
  6
DASHED1
 62
    7
 10
-1207.1371109900447
 20
179.24759298195485
 11
-1206.2952511617509
 21
179.69874430421785
  0
LINE
  8
_0-1_1_5
  6
DASHED1
 62
    7
 10
-1206.2952511617509
 20
179.69874430421785
 11
-1205.5053518783793
 21
180.43541647423254
  0
LINE
  8
_0-1_1_5
  6
DASHED1
 62
    7
 10
-1205.5053518783793
 20
180.43541647423254
 11
-1204.7914138299466
 21
181.43522608088716
  0
LINE
  8
_0-1_1_5
  6
DASHED1
 62
    7
 10
-1204.7914138299466
 20
181.43522608088716
 11
-1204.1751296627845
 21
182.66779441521155
  0
LINE
  8
_0-1_1_5
  6
DASHED1
 62
    7
 10
-1204.1751296627845
 20
182.66779441521155
 11
-1203.6752248594571
 21
184.09567051207694
  0
LINE
  8
_0-1_1_5
  6
DASHED1
 62
    7
 10
-1203.6752248594571
 20
184.09567051207694
 11
-1203.3068887744498
 21
185.67546907882024
  0
LINE
  8
_0-1_1_5
  6
DASHED1
 62
    7
 10
-1203.3068887744498
 20
185.67546907882024
 11
-1203.0813131133182
 21
187.35918873540763
  0
LINE
  8
_0-1_1_5
  6
DASHED1
 62
    7
 10
-1203.0813131133182
 20
187.35918873540763
 11
-1203.0053518783793
 21
189.09567051207694
  0
LINE
  8
_0-1_1_5
  6
DASHED1
 62
    7
 10
-1203.0053518783793
 20
189.09567051207694
 11
-1203.0813131133182
 21
190.83215228874624
  0
LINE
  8
_0-1_1_5
  6
DASHED1
 62
    7
 10
-1203.0813131133182
 20
190.83215228874624
 11
-1203.3068887744498
 21
192.51587194533363
  0
LINE
  8
_0-1_1_5
  6
DASHED1
 62
    7
 10
-1203.3068887744498
 20
192.51587194533363
 11
-1203.6752248594571
 21
194.09567051207694
  0
LINE
  8
_0-1_1_5
  6
DASHED1
 62
    7
 10
-1203.6752248594571
 20
194.09567051207694
 11
-1204.1751296627845
 21
195.52354660894233
  0
LINE
  8
_0-1_1_5
  6
DASHED1
 62
    7
 10
-1204.1751296627845
 20
195.52354660894233
 11
-1204.7914138299466
 21
196.75611494326671
  0
LINE
  8
_0-1_1_5
  6
DASHED1
 62
    7
 10
-1204.7914138299466
 20
196.75611494326671
 11
-1205.5053518783793
 21
197.7559245499213
  0
LINE
  8
_0-1_1_5
  6
DASHED1
 62
    7
 10
-1205.5053518783793
 20
197.7559245499213
 11
-1206.2952511617509
 21
198.49259671993602
  0
LINE
  8
_0-1_1_5
  6
DASHED1
 62
    7
 10
-1206.2952511617509
 20
198.49259671993602
 11
-1207.1371109900447
 21
198.94374804219902
  0
LINE
  8
_0-1_1_5
  6
DASHED1
 62
    7
 10
-1207.1371109900447
 20
198.94374804219902
 11
-1208.0053518783793
 21
199.09567051207694
  0
LINE
  8
_0-1_1_5
  6
DASHED1
 62
    7
 10
-1208.0053518783793
 20
199.09567051207694
 11
-1208.0053518783793
 21
199.09567051207694
  0
LINE
  8
_0-1_1_5
  6
CONTINUOUS
 62
    7
 10
-1208.0053518783793
 20
199.09567051207694
 11
-1208.0053518783793
 21
199.09567051207694
  0
LINE
  8
_0-1_1_5
  6
CONTINUOUS
 62
    7
 10
-1208.0053518783793
 20
199.09567051207694
 11
-1208.873592766714
 21
198.94374804219902
  0
LINE
  8
_0-1_1_5
  6
CONTINUOUS
 62
    7
 10
-1208.873592766714
 20
198.94374804219902
 11
-1209.7154525950077
 21
198.49259671993602
  0
LINE
  8
_0-1_1_5
  6
CONTINUOUS
 62
    7
 10
-1209.7154525950077
 20
198.49259671993602
 11
-1210.5053518783793
 21
197.75592454992133
  0
LINE
  8
_0-1_1_5
  6
CONTINUOUS
 62
    7
 10
-1210.5053518783793
 20
197.75592454992133
 11
-1211.2192899268121
 21
196.75611494326671
  0
LINE
  8
_0-1_1_5
  6
CONTINUOUS
 62
    7
 10
-1211.2192899268121
 20
196.75611494326671
 11
-1211.8355740939742
 21
195.52354660894233
  0
LINE
  8
_0-1_1_5
  6
CONTINUOUS
 62
    7
 10
-1211.8355740939742
 20
195.52354660894233
 11
-1212.3354788973015
 21
194.09567051207694
  0
LINE
  8
_0-1_1_5
  6
CONTINUOUS
 62
    7
 10
-1212.3354788973015
 20
194.09567051207694
 11
-1212.7038149823088
 21
192.51587194533363
  0
LINE
  8
_0-1_1_5
  6
CONTINUOUS
 62
    7
 10
-1212.7038149823088
 20
192.51587194533363
 11
-1212.9293906434405
 21
190.83215228874624
  0
LINE
  8
_0-1_1_5
  6
CONTINUOUS
 62
    7
 10
-1212.9293906434405
 20
190.83215228874624
 11
-1213.0053518783793
 21
189.09567051207694
  0
LINE
  8
_0-1_1_5
  6
CONTINUOUS
 62
    7
 10
-1213.0053518783793
 20
189.09567051207694
 11
-1212.9293906434405
 21
187.35918873540763
  0
LINE
  8
_0-1_1_5
  6
CONTINUOUS
 62
    7
 10
-1212.9293906434405
 20
187.35918873540763
 11
-1212.7038149823088
 21
185.67546907882024
  0
LINE
  8
_0-1_1_5
  6
CONTINUOUS
 62
    7
 10
-1212.7038149823088
 20
185.67546907882024
 11
-1212.3354788973015
 21
184.09567051207694
  0
LINE
  8
_0-1_1_5
  6
CONTINUOUS
 62
    7
 10
-1212.3354788973015
 20
184.09567051207694
 11
-1211.8355740939742
 21
182.66779441521155
  0
LINE
  8
_0-1_1_5
  6
CONTINUOUS
 62
    7
 10
-1211.8355740939742
 20
182.66779441521155
 11
-1211.2192899268121
 21
181.43522608088716
  0
LINE
  8
_0-1_1_5
  6
CONTINUOUS
 62
    7
 10
-1211.2192899268121
 20
181.43522608088716
 11
-1210.5053518783793
 21
180.43541647423257
  0
LINE
  8
_0-1_1_5
  6
CONTINUOUS
 62
    7
 10
-1210.5053518783793
 20
180.43541647423257
 11
-1209.7154525950077
 21
179.69874430421785
  0
LINE
  8
_0-1_1_5
  6
CONTINUOUS
 62
    7
 10
-1209.7154525950077
 20
179.69874430421785
 11
-1208.873592766714
 21
179.24759298195485
  0
LINE
  8
_0-1_1_5
  6
CONTINUOUS
 62
    7
 10
-1208.873592766714
 20
179.24759298195485
 11
-1208.0053518783793
 21
179.09567051207694
  0
LINE
  8
_0-1_1_5
  6
CONTINUOUS
 62
    7
 10
-1208.0053518783793
 20
179.09567051207694
 11
-1208.0053518783793
 21
179.09567051207694
  0
LINE
  8
_0-1_1_5
  6
CENTER2
 62
    7
 10
-1176.0053518783793
 20
189.09567051207694
 11
-1188.0053518783793
 21
189.09567051207694
  0
LINE
  8
_0-1_1_5
  6
CENTER2
 62
    7
 10
-1382.7028857690127
 20
189.09567051207694
 11
-1377.7028857690127
 21
189.09567051207694
  0
LINE
  8
_0-1_1_5
  6
CENTER2
 62
    7
 10
-1254.7028857690127
 20
189.09567051207694
 11
-1249.7028857690127
 21
189.09567051207694
  0
LINE
  8
_0-1_1_5
  6
CENTER2
 62
    7
 10
-1380.2028857690127
 20
191.59567051207694
 11
-1380.2028857690127
 21
186.59567051207694
  0
LINE
  8
_0-1_1_5
  6
CENTER2
 62
    7
 10
-1252.2028857690127
 20
191.59567051207694
 11
-1252.2028857690127
 21
186.59567051207694
  0
POINT
  8
_0-2_ADD_LINE
 62
    7
 10
-1213.0053518783793
 20
207.2408153729117
  0
POINT
  8
_0-2_ADD_LINE
 62
    7
 10
-1203.0053518783793
 20
207.2408153729117
  0
LINE
  8
_0-2_ADD_LINE
  6
CONTINUOUS
 62
    7
 10
-1213.0053518783793
 20
207.2408153729117
 11
-1213.0053518783793
 21
201.09567051207694
  0
LINE
  8
_0-2_ADD_LINE
  6
CONTINUOUS
 62
    7
 10
-1203.0053518783793
 20
207.2408153729117
 11
-1203.0053518783793
 21
201.09567051207694
  0
LINE
  8
_0-3_
  6
CONTINUOUS
 62
    7
 10
-1213.0053518783793
 20
207.2408153729117
 11
-1203.0053518783793
 21
207.2408153729117
  0
TEXT
  8
_0-3_
 62
    4
 10
-1209.2553518783793
 20
207.7408153729117
 40
2.5
 41
1
 50
0
  1
10
  0
TEXT
  8
_0-3_
 62
    7
 10
-1225.4861405795525
 20
56.114778875610689
 40
3.1000000000000001
 41
1
 50
0
  1
大洋金物株式会社  ティーエフプラス事業部
  0
POINT
  8
_0-2_ADD_LINE
 62
    7
 10
-1222.9971876137008
 20
199.09567051207694
  0
POINT
  8
_0-2_ADD_LINE
 62
    7
 10
-1222.9971876137008
 20
179.09567051207694
  0
LINE
  8
_0-2_ADD_LINE
  6
CONTINUOUS
 62
    7
 10
-1222.9971876137008
 20
199.09567051207694
 11
-1210.0053518783793
 21
199.09567051207694
  0
LINE
  8
_0-2_ADD_LINE
  6
CONTINUOUS
 62
    7
 10
-1222.9971876137008
 20
179.09567051207694
 11
-1210.0053518783793
 21
179.09567051207694
  0
LINE
  8
_0-3_
  6
CONTINUOUS
 62
    7
 10
-1222.9971876137008
 20
199.09567051207694
 11
-1222.9971876137008
 21
179.09567051207694
  0
TEXT
  8
_0-3_
 62
    4
 10
-1223.4971876137008
 20
187.84567051207694
 40
2.5
 41
1
 50
90
  1
20
  0
TEXT
  8
_0-2_ADD_LINE
 62
    7
 10
-1211.5638155997694
 20
110.79493223760083
 40
3.1000000000000001
 41
1
 50
0
  1
対応ドア厚  10-22mm
  0
TEXT
  8
_0-3_
 62
    7
 10
-1319.3271924471421
 20
62.004358131352191
 40
3.1000000000000001
 41
1
 50
0
  1
サテン
  0
LINE
  8
_0-1_1_5
  6
CONTINUOUS
 62
    7
 10
-1247.2028857690127
 20
110.83760675229219
 11
-1247.2028857690127
 21
145.83760675229217
  0
LINE
  8
_0-1_1_5
  6
CONTINUOUS
 62
    7
 10
-1385.2028857690127
 20
110.83760675229219
 11
-1385.2028857690127
 21
145.83760675229217
  0
LINE
  8
_0-1_1_5
  6
CONTINUOUS
 62
    7
 10
-1385.2028857690127
 20
110.83760675229219
 11
-1375.2028857690127
 21
120.83760675229219
  0
LINE
  8
_0-1_1_5
  6
CONTINUOUS
 62
    7
 10
-1257.2028857690127
 20
120.83760675229219
 11
-1247.2028857690127
 21
110.83760675229219
  0
LINE
  8
_0-1_1_5
  6
CONTINUOUS
 62
    7
 10
-1385.2028857690127
 20
110.83760675229219
 11
-1247.2028857690127
 21
110.83760675229219
  0
LINE
  8
_0-1_1_5
  6
CONTINUOUS
 62
    7
 10
-1375.2028857690127
 20
120.83760675229219
 11
-1257.2028857690127
 21
120.83760675229219
  0
LINE
  8
_0-1_1_5
  6
CONTINUOUS
 62
    7
 10
-1257.2028857690127
 20
120.83760675229219
 11
-1257.2028857690127
 21
145.83760675229217
  0
LINE
  8
_0-1_1_5
  6
CONTINUOUS
 62
    7
 10
-1385.2028857690127
 20
145.83760675229217
 11
-1375.2028857690127
 21
145.83760675229217
  0
LINE
  8
_0-1_1_5
  6
CONTINUOUS
 62
    7
 10
-1375.2028857690127
 20
120.83760675229219
 11
-1375.2028857690127
 21
145.83760675229217
  0
LINE
  8
_0-1_1_5
  6
CONTINUOUS
 62
    7
 10
-1257.2028857690127
 20
145.83760675229217
 11
-1247.2028857690127
 21
145.83760675229217
  0
LINE
  8
_0-1_1_5
  6
CENTER2
 62
    7
 10
-1380.2028857690127
 20
135.83760675229217
 11
-1380.2028857690127
 21
147.83760675229217
  0
LINE
  8
_0-1_1_5
  6
CENTER2
 62
    7
 10
-1252.2028857690127
 20
135.83760675229217
 11
-1252.2028857690127
 21
147.83760675229217
  0
POINT
  8
_0-2_ADD_LINE
 62
    7
 10
-1237.2335415790026
 20
110.83760675229219
  0
POINT
  8
_0-2_ADD_LINE
 62
    7
 10
-1237.2335415790026
 20
145.83760675229217
  0
LINE
  8
_0-2_ADD_LINE
  6
CONTINUOUS
 62
    7
 10
-1237.2335415790026
 20
110.83760675229219
 11
-1245.2028857690127
 21
110.83760675229219
  0
LINE
  8
_0-2_ADD_LINE
  6
CONTINUOUS
 62
    7
 10
-1237.2335415790026
 20
145.83760675229217
 11
-1245.2028857690127
 21
145.83760675229217
  0
LINE
  8
_0-2_ADD_LINE
  6
CONTINUOUS
 62
    7
 10
-1237.2335415790026
 20
110.83760675229219
 11
-1237.2335415790026
 21
145.83760675229217
  0
TEXT
  8
_0-2_ADD_LINE
 62
    4
 10
-1237.7335415790026
 20
127.08760675229219
 40
2.5
 41
1
 50
90
  1
35
  0
POINT
  8
_0-2_ADD_LINE
 62
    7
 10
-1385.2028857690127
 20
152.09525036372457
  0
POINT
  8
_0-2_ADD_LINE
 62
    7
 10
-1375.2028857690127
 20
152.09525036372457
  0
LINE
  8
_0-2_ADD_LINE
  6
CONTINUOUS
 62
    7
 10
-1385.2028857690127
 20
152.09525036372457
 11
-1385.2028857690127
 21
147.67817955868094
  0
LINE
  8
_0-2_ADD_LINE
  6
CONTINUOUS
 62
    7
 10
-1375.2028857690127
 20
152.09525036372457
 11
-1375.2028857690127
 21
147.67817955868094
  0
LINE
  8
_0-2_ADD_LINE
  6
CONTINUOUS
 62
    7
 10
-1385.2028857690127
 20
152.09525036372457
 11
-1375.2028857690127
 21
152.09525036372457
  0
TEXT
  8
_0-2_ADD_LINE
 62
    4
 10
-1381.4528857690127
 20
152.59525036372457
 40
2.5
 41
1
 50
0
  1
10
  0
TEXT
  8
_0-3_
 62
    7
 10
-1225.4861405795525
 20
67.856250307300627
 40
3.1000000000000001
 41
1
 50
0
  1
TFP21-4012-002
  0
ENDSEC
  0
EOF
