  0
SECTION
  2
HEADER
  9
$ACADVER
  1
AC1009
  9
$INSBASE
 10
0
 20
0
 30
0
  9
$EXTMIN
 10
0
 20
0
  9
$EXTMAX
 10
594
 20
420
  9
$LIMMIN
 10
0
 20
0
  9
$LIMMAX
 10
594
 20
420
  9
$LTSCALE
 40
2
  0
ENDSEC
  0
SECTION
  2
TABLES
  0
TABLE
  2
LTYPE
 70
     9
  0
LTYPE
  2
CONTINUOUS
 70
    64
  3
実線
 72
    65
 73
     0
 40
0.0
  0
LTYPE
  2
DASHED1
 70
    64
  3
--  --  --  --  --  --  --  --  
 72
    65
 73
     2
 40
2.5
 49
1.25
 49
-1.25
  0
LTYPE
  2
DASHED2
 70
    64
  3
----    ----    ----    ----    
 72
    65
 73
     2
 40
5.0
 49
2.5
 49
-2.5
  0
LTYPE
  2
DASHED3
 70
    64
  3
------  ------  ------  ------  
 72
    65
 73
     2
 40
5.0
 49
3.75
 49
-1.25
  0
LTYPE
  2
CENTER1
 70
    64
  3
----- - ----- - ----- - ----- - 
 72
    65
 73
     4
 40
10.0
 49
6.25
 49
-1.25
 49
1.25
 49
-1.25
  0
LTYPE
  2
CENTER2
 70
    64
  3
----------  --  ----------  --  
 72
    65
 73
     4
 40
20.0
 49
12.5
 49
-2.5
 49
2.5
 49
-2.5
  0
LTYPE
  2
PHANTOM1
 70
    64
  3
--- - - --- - - --- - - --- - - 
 72
    65
 73
     6
 40
10.0
 49
3.25
 49
-1.25
 49
1.25
 49
-1.25
 49
1.25
 49
-1.25
  0
LTYPE
  2
PHANTOM2
 70
    64
  3
--------  -  -  --------  -  -  
 72
    65
 73
     6
 40
20.0
 49
10.0
 49
-2.5
 49
1.25
 49
-2.5
 49
1.25
 49
-2.5
  0
LTYPE
  2
DOT
 70
    64
  3
-   -   -   -   -   -   -   -   
 72
    65
 73
     2
 40
2.5
 49
0.625
 49
-1.875
  0
LTYPE
  2
DUMMY
 70
    64
  3
ダミー
 72
    65
 73
     0
 40
0.0
  0
LTYPE
  2
RAND1
 70
    64
  3
ランダム線1
 72
    65
 73
     4
 40
10.0
 49
1.0
 49
-2.0
 49
3.0
 49
-4.0
  0
LTYPE
  2
RAND2
 70
    64
  3
ランダム線2
 72
    65
 73
     4
 40
14.0
 49
2.0
 49
-3.0
 49
4.0
 49
-5.0
  0
LTYPE
  2
RAND3
 70
    64
  3
ランダム線3
 72
    65
 73
     4
 40
18.0
 49
3.0
 49
-4.0
 49
5.0
 49
-6.0
  0
LTYPE
  2
RAND4
 70
    64
  3
ランダム線4
 72
    65
 73
     4
 40
22.0
 49
4.0
 49
-5.0
 49
6.0
 49
-7.0
  0
LTYPE
  2
RAND5
 70
    64
  3
ランダム線5
 72
    65
 73
     4
 40
26.0
 49
5.0
 49
-6.0
 49
7.0
 49
-8.0
  0
LTYPE
  2
LONG1
 70
    64
  3
----------  --  ----------  --  
 72
    65
 73
     4
 40
40.0
 49
32.5
 49
-2.5
 49
2.5
 49
-2.5
  0
LTYPE
  2
LONG2
 70
    64
  3
--------  -  -  --------  -  -  
 72
    65
 73
     6
 40
40.0
 49
30.0
 49
-2.5
 49
1.25
 49
-2.5
 49
1.25
 49
-2.5
  0
LTYPE
  2
LONG3
 70
    64
  3
+++++++++++++++..+++++++++++++++
 72
    65
 73
     2
 40
40.0
 49
37.5
 49
-2.5
  0
LTYPE
  2
LONG4
 70
    64
  3
+++++++++++++++..+++++++++++++++
 72
    65
 73
     2
 40
80.0
 49
75.0
 49
-5.0
  0
LTYPE
  2
LONG5
 70
    64
  3
----------  --  ----------  --  
 72
    65
 73
     4
 40
60.0
 49
37.5
 49
-7.5
 49
7.5
 49
-7.5
  0
LTYPE
  2
dashed
 70
   64
  3
-------   -------------   ------
 72
   65
 73
    2
 40
7.5
 49
6
 49
-1.5
  0
LTYPE
  2
dashed_spaced
 70
   64
  3
----        --------        ----
 72
   65
 73
    2
 40
12
 49
6
 49
-6
  0
LTYPE
  2
long_dashed_dotted
 70
   64
  3
------------- --- --------------
 72
   65
 73
    4
 40
15.25
 49
12
 49
-1.5
 49
0.25
 49
-1.5
  0
LTYPE
  2
long_dashed_double-dotted
 70
   64
  3
----------- --- --- ------------
 72
   65
 73
    6
 40
17
 49
12
 49
-1.5
 49
0.25
 49
-1.5
 49
0.25
 49
-1.5
  0
LTYPE
  2
long_dashed_triplicate-dotted
 70
   64
  3
--------- --- --- --- ----------
 72
   65
 73
    8
 40
18.75
 49
12
 49
-1.5
 49
0.25
 49
-1.5
 49
0.25
 49
-1.5
 49
0.25
 49
-1.5
  0
LTYPE
  2
dotted
 70
   64
  3
   -       -       -       -    
 72
   65
 73
    2
 40
1.75
 49
0.25
 49
-1.5
  0
LTYPE
  2
chain
 70
   64
  3
-------------- -- --------------
 72
   65
 73
    4
 40
18.5
 49
12
 49
-1.5
 49
3.5
 49
-1.5
  0
LTYPE
  2
chain_double_dash
 70
   64
  3
------------ -- -- -------------
 72
   65
 73
    6
 40
23.5
 49
12
 49
-1.5
 49
3.5
 49
-1.5
 49
3.5
 49
-1.5
  0
LTYPE
  2
dashed_dotted
 70
   64
  3
-----------     -     ----------
 72
   65
 73
    4
 40
9.25
 49
6
 49
-1.5
 49
0.25
 49
-1.5
  0
LTYPE
  2
double-dashed_dotted
 70
   64
  3
------   -----------   -   -----
 72
   65
 73
    6
 40
16.75
 49
6
 49
-1.5
 49
6
 49
-1.5
 49
0.25
 49
-1.5
  0
LTYPE
  2
dashed_double-dotted
 70
   64
  3
---------    -    -    ---------
 72
   65
 73
    6
 40
11
 49
6
 49
-1.5
 49
0.25
 49
-1.5
 49
0.25
 49
-1.5
  0
LTYPE
  2
double-dashed_double-dotted
 70
   64
  3
-----   ---------   -   -   ----
 72
   65
 73
    8
 40
18.5
 49
6
 49
-1.5
 49
6
 49
-1.5
 49
0.25
 49
-1.5
 49
0.25
 49
-1.5
  0
LTYPE
  2
dashed_triplicate-dotted
 70
   64
  3
-------    -    -    -    ------
 72
   65
 73
    8
 40
12.75
 49
6
 49
-1.5
 49
0.25
 49
-1.5
 49
0.25
 49
-1.5
 49
0.25
 49
-1.5
  0
LTYPE
  2
double-dashed_triplicate-dotted
 70
   64
  3
-----  ---------  -  -  -  -----
 72
   65
 73
   10
 40
20.25
 49
6
 49
-1.5
 49
6
 49
-1.5
 49
0.25
 49
-1.5
 49
0.25
 49
-1.5
 49
0.25
 49
-1.5
  0
LTYPE
  2
undefined
 70
   64
  3
--------------------------------
 72
   65
 73
    0
 40
0
  0
LTYPE
  2
STYLE_01
 70
   64
  3
----        --------        ----
 72
   65
 73
    2
 40
0.4166399999999997
 49
0.2082799999999999
 49
-0.2083599999999999
  0
LTYPE
  2
STYLE_02
 70
   64
  3
------     -----------     -----
 72
   65
 73
    2
 40
0.694425
 49
0.48607
 49
-0.2083550000000001
  0
LTYPE
  2
STYLE_03
 70
   64
  3
-------   -------------   ------
 72
   65
 73
    2
 40
1.25
 49
1.0416400000000001
 49
-0.2083599999999999
  0
LTYPE
  2
STYLE_04
 70
   64
  3
-------  --------------  -------
 72
   65
 73
    2
 40
1.5277099999999999
 49
1.3194249999999998
 49
-0.208285
  0
LTYPE
  2
STYLE_05
 70
   64
  3
---           -----           --
 72
   65
 73
    2
 40
0.20828
 49
0.069425
 49
-0.138855
  0
LTYPE
  2
STYLE_06
 70
   64
  3
----------      --    ----------
 72
   65
 73
    4
 40
1.0416399999999999
 49
0.625
 49
-0.2082799999999999
 49
0.06943
 49
-0.13893
  0
LTYPE
  2
STYLE_07
 70
   64
  3
-----    -----------    -  -----
 72
   65
 73
    6
 40
1.8749999999999998
 49
0.625
 49
-0.2082799999999999
 49
0.6250000000000001
 49
-0.2083599999999999
 49
0.06943
 49
-0.1389299999999998
  0
LTYPE
  2
STYLE_08
 70
   64
  3
--------     --    --    -------
 72
   65
 73
    6
 40
1.2499999999999996
 49
0.625
 49
-0.2082799999999999
 49
0.06943
 49
-0.13893
 49
0.0694299999999997
 49
-0.13893
  0
LTYPE
  2
STYLE_09
 70
   64
  3
------------  ----  ------------
 72
   65
 73
    4
 40
5
 49
3.75
 49
-0.2777849999999997
 49
0.6944300000000003
 49
-0.2777849999999997
  0
LTYPE
  2
STYLE_10
 70
   64
  3
----------- ---- ---  ----------
 72
   65
 73
    6
 40
5.9375
 49
3.75
 49
-0.2777849999999997
 49
0.6944300000000003
 49
-0.2777849999999997
 49
0.625
 49
-0.3125
  0
ENDTAB
  0
TABLE
  2
STYLE
  5
3
100
AcDbSymbolTable
 70
     1
  0
STYLE
  5
10
100
AcDbSymbolTableRecord
100
AcDbTextStyleTableRecord
  2
STANDARD
 70
     0
 40
0.0
 41
1.0
 50
0.0
 71
     0
 42
0.2
  3
txt
  4
bigfont.shx
  0
STYLE
  5
26
100
AcDbSymbolTableRecord
100
AcDbTextStyleTableRecord
  2
TATEGAKI
 70
    68
 40
0.0
 41
1.0
 50
0.0
 71
     0
 42
1.0
  3
txt
  4
bigfont.shx
  0
ENDTAB
  0
TABLE
  2
LAYER
 70
    5
  0
LAYER
  2
_0-0_0
 70
   64
 62
    7
  6
CONTINUOUS
  0
LAYER
  2
_0-1_1_5
 70
   64
 62
    7
  6
CONTINUOUS
  0
LAYER
  2
_0-2_ADD_LINE
 70
   64
 62
    7
  6
CONTINUOUS
  0
LAYER
  2
_0-3_
 70
   64
 62
    7
  6
CONTINUOUS
  0
LAYER
  2
ADD_LINE
 70
   64
 62
    7
  6
CONTINUOUS
  0
ENDTAB
  0
ENDSEC
  0
SECTION
  2
BLOCKS
  0
ENDSEC
  0
SECTION
  2
ENTITIES
  0
LINE
  8
_0-0_0
  6
CONTINUOUS
 62
    7
 10
-2864.3390967621312
 20
94.002962550280387
 11
-2270.3390967621312
 21
94.00296255028033
  0
LINE
  8
_0-0_0
  6
CONTINUOUS
 62
    7
 10
-2864.3390967621312
 20
514.00296255028036
 11
-2864.3390967621312
 21
94.002962550280387
  0
LINE
  8
_0-0_0
  6
CONTINUOUS
 62
    7
 10
-2270.3390967621312
 20
514.00296255028036
 11
-2864.3390967621312
 21
514.00296255028036
  0
LINE
  8
_0-0_0
  6
CONTINUOUS
 62
    7
 10
-2270.3390967621312
 20
94.00296255028033
 11
-2270.3390967621312
 21
514.00296255028036
  0
LINE
  8
_0-3_
  6
CONTINUOUS
 62
    7
 10
-2285.3191900232764
 20
133.44305099496165
 11
-2659.0136151385595
 21
133.44305099496165
  0
LINE
  8
_0-3_
  6
CONTINUOUS
 62
    7
 10
-2285.3191900232764
 20
121.44305099496164
 11
-2659.0136151385595
 21
121.44305099496164
  0
LINE
  8
_0-3_
  6
CONTINUOUS
 62
    7
 10
-2659.0136151385595
 20
109.44305099496162
 11
-2659.0136151385595
 21
145.44305099496165
  0
TEXT
  8
_0-3_
 62
    4
 10
-2656.2256696921822
 20
139.13516860251991
 40
4
 41
1
 50
0
  1
品名
  0
TEXT
  8
_0-3_
 62
    4
 10
-2656.2256696921822
 20
127.27657170658921
 40
4
 41
1
 50
0
  1
仕上げ
  0
TEXT
  8
_0-3_
 62
    4
 10
-2656.2256696921822
 20
114.79383813192528
 40
4
 41
1
 50
0
  1
材質
  0
TEXT
  8
_0-3_
 62
    7
 10
-2638.6543848942842
 20
111.90742545420862
 40
6.2000000000000002
 41
1
 50
0
  1
ステンレススチール
  0
TEXT
  8
_0-3_
 62
    4
 10
-2469.874698919843
 20
139.2108088388872
 40
4
 41
1
 50
0
  1
品番
  0
LINE
  8
_0-3_
  6
CONTINUOUS
 62
    7
 10
-2471.9858567032761
 20
109.4430509949616
 11
-2471.9858567032761
 21
145.44305099496165
  0
LINE
  8
_0-3_
  6
CONTINUOUS
 62
    7
 10
-2285.3191900232764
 20
145.44305099496165
 11
-2659.0136151385595
 21
145.44305099496165
  0
TEXT
  8
_0-3_
 62
    4
 10
-2469.8991318155518
 20
127.30620380899599
 40
4
 41
1
 50
0
  1
縮尺
  0
TEXT
  8
_0-3_
 62
    7
 10
-2845.2592058401437
 20
100.16500522567961
 40
5
 41
1
 50
0
  1
120718SH
  0
LINE
  8
_0-3_
  6
CONTINUOUS
 62
    7
 10
-2845.3191900232764
 20
499.44305099496171
 11
-2845.3191900232764
 21
109.44305099496162
  0
LINE
  8
_0-3_
  6
CONTINUOUS
 62
    7
 10
-2845.3191900232764
 20
109.44305099496162
 11
-2285.3191900232764
 21
109.4430509949616
  0
TEXT
  8
_0-3_
 62
    7
 10
-2638.6543848942842
 20
136.3159199994252
 40
6.2000000000000002
 41
1
 50
0
  1
ファニチャーハンドル
  0
LINE
  8
_0-3_
  6
CONTINUOUS
 62
    7
 10
-2285.3191900232764
 20
109.4430509949616
 11
-2285.3191900232764
 21
499.44305099496171
  0
LINE
  8
_0-3_
  6
CONTINUOUS
 62
    7
 10
-2285.3191900232764
 20
499.44305099496171
 11
-2845.3191900232764
 21
499.44305099496171
  0
TEXT
  8
_0-3_
 62
    7
 10
-2450.972281159105
 20
112.22955775122138
 40
6.2000000000000002
 41
1
 50
0
  1
大洋金物株式会社  ティーエフプラス事業部
  0
TEXT
  8
_0-3_
 62
    7
 10
-2450.972281159105
 20
123.51777346997648
 40
6.2000000000000002
 41
1
 50
0
  1
1/2
  0
LINE
  8
_0-2_ADD_LINE
  6
CONTINUOUS
 62
    7
 10
-2764.4115464968281
 20
378.20282590720478
 11
-2764.4115464968281
 21
354.21761938147353
  0
LINE
  8
_0-2_ADD_LINE
  6
CONTINUOUS
 62
    7
 10
-2769.4866956382275
 20
389.91008700863722
 11
-2769.4866956382275
 21
354.46494796826664
  0
LINE
  8
_0-2_ADD_LINE
  6
CONTINUOUS
 62
    7
 10
-2476.4115464968281
 20
378.20282590720478
 11
-2476.4115464968281
 21
354.21761938147353
  0
LINE
  8
_0-2_ADD_LINE
  6
CONTINUOUS
 62
    7
 10
-2471
 20
389.91008700863722
 11
-2471
 21
354
  0
POINT
  8
_0-2_ADD_LINE
 62
    7
 10
-2764.4115464968281
 20
378.20282590720478
  0
LINE
  8
_0-2_ADD_LINE
  6
CONTINUOUS
 62
    7
 10
-2769.4117470569358
 20
389.95315152318483
 11
-2769.4114167971211
 21
390.11670164989863
  0
POINT
  8
_0-2_ADD_LINE
 62
    7
 10
-2769.4866956382275
 20
389.91008700863722
  0
POINT
  8
_0-2_ADD_LINE
 62
    7
 10
-2476.4115464968281
 20
378.20282590720478
  0
POINT
  8
_0-2_ADD_LINE
 62
    7
 10
-2471
 20
389.91008700863722
  0
LINE
  8
_0-2_ADD_LINE
  6
CONTINUOUS
 62
    7
 10
-2769.4866956382275
 20
389.91008700863722
 11
-2471
 21
389.91008700863722
  0
TEXT
  8
_0-2_ADD_LINE
 62
    4
 10
-2623.9933478191138
 20
390.91008700863722
 40
5
 41
1
 50
0
  1
298
  0
LINE
  8
_0-2_ADD_LINE
  6
CONTINUOUS
 62
    7
 10
-2764.4115464968281
 20
378.20282590720478
 11
-2476.4115464968281
 21
378.20282590720478
  0
TEXT
  8
_0-2_ADD_LINE
 62
    4
 10
-2624.1615464968281
 20
379.20282590720478
 40
5
 41
1
 50
0
  1
288
  0
LINE
  8
_0-1_1_5
  6
CONTINUOUS
 62
    7
 10
-2764.4115464968281
 20
358.21761938147353
 11
-2476.4115464968281
 21
358.21761938147353
  0
LINE
  8
_0-1_1_5
  6
CONTINUOUS
 62
    7
 10
-2764.4115464968281
 20
338.21761938147353
 11
-2476.4115464968281
 21
338.21761938147353
  0
LINE
  8
_0-1_1_5
  6
DASHED1
 62
    7
 10
-2764.4115464968281
 20
338.21761938147353
 11
-2764.4115464968281
 21
338.21761938147353
  0
LINE
  8
_0-1_1_5
  6
DASHED1
 62
    7
 10
-2764.4115464968281
 20
338.21761938147353
 11
-2763.5433056084935
 21
338.36954185135147
  0
LINE
  8
_0-1_1_5
  6
DASHED1
 62
    7
 10
-2763.5433056084935
 20
338.36954185135147
 11
-2762.7014457801997
 21
338.82069317361442
  0
LINE
  8
_0-1_1_5
  6
DASHED1
 62
    7
 10
-2762.7014457801997
 20
338.82069317361442
 11
-2761.9115464968281
 21
339.55736534362916
  0
LINE
  8
_0-1_1_5
  6
DASHED1
 62
    7
 10
-2761.9115464968281
 20
339.55736534362916
 11
-2761.1976084483954
 21
340.55717495028375
  0
LINE
  8
_0-1_1_5
  6
DASHED1
 62
    7
 10
-2761.1976084483954
 20
340.55717495028375
 11
-2760.5813242812333
 21
341.78974328460811
  0
LINE
  8
_0-1_1_5
  6
DASHED1
 62
    7
 10
-2760.5813242812333
 20
341.78974328460811
 11
-2760.0814194779059
 21
343.21761938147353
  0
LINE
  8
_0-1_1_5
  6
DASHED1
 62
    7
 10
-2760.0814194779059
 20
343.21761938147353
 11
-2759.7130833928986
 21
344.79741794821683
  0
LINE
  8
_0-1_1_5
  6
DASHED1
 62
    7
 10
-2759.7130833928986
 20
344.79741794821683
 11
-2759.487507731767
 21
346.48113760480425
  0
LINE
  8
_0-1_1_5
  6
DASHED1
 62
    7
 10
-2759.487507731767
 20
346.48113760480425
 11
-2759.4115464968281
 21
348.21761938147353
  0
LINE
  8
_0-1_1_5
  6
DASHED1
 62
    7
 10
-2759.4115464968281
 20
348.21761938147353
 11
-2759.487507731767
 21
349.95410115814281
  0
LINE
  8
_0-1_1_5
  6
DASHED1
 62
    7
 10
-2759.487507731767
 20
349.95410115814281
 11
-2759.7130833928986
 21
351.63782081473022
  0
LINE
  8
_0-1_1_5
  6
DASHED1
 62
    7
 10
-2759.7130833928986
 20
351.63782081473022
 11
-2760.0814194779059
 21
353.21761938147353
  0
LINE
  8
_0-1_1_5
  6
DASHED1
 62
    7
 10
-2760.0814194779059
 20
353.21761938147353
 11
-2760.5813242812333
 21
354.64549547833889
  0
LINE
  8
_0-1_1_5
  6
DASHED1
 62
    7
 10
-2760.5813242812333
 20
354.64549547833889
 11
-2761.1976084483954
 21
355.8780638126633
  0
LINE
  8
_0-1_1_5
  6
DASHED1
 62
    7
 10
-2761.1976084483954
 20
355.8780638126633
 11
-2761.9115464968281
 21
356.87787341931789
  0
LINE
  8
_0-1_1_5
  6
DASHED1
 62
    7
 10
-2761.9115464968281
 20
356.87787341931789
 11
-2762.7014457801997
 21
357.61454558933258
  0
LINE
  8
_0-1_1_5
  6
DASHED1
 62
    7
 10
-2762.7014457801997
 20
357.61454558933258
 11
-2763.5433056084935
 21
358.06569691159558
  0
LINE
  8
_0-1_1_5
  6
DASHED1
 62
    7
 10
-2763.5433056084935
 20
358.06569691159558
 11
-2764.4115464968281
 21
358.21761938147353
  0
LINE
  8
_0-1_1_5
  6
DASHED1
 62
    7
 10
-2764.4115464968281
 20
358.21761938147353
 11
-2764.4115464968281
 21
358.21761938147353
  0
LINE
  8
_0-1_1_5
  6
CONTINUOUS
 62
    7
 10
-2764.4115464968281
 20
358.21761938147353
 11
-2764.4115464968281
 21
358.21761938147353
  0
LINE
  8
_0-1_1_5
  6
CONTINUOUS
 62
    7
 10
-2764.4115464968281
 20
358.21761938147353
 11
-2765.2797873851628
 21
358.06569691159558
  0
LINE
  8
_0-1_1_5
  6
CONTINUOUS
 62
    7
 10
-2765.2797873851628
 20
358.06569691159558
 11
-2766.1216472134565
 21
357.61454558933264
  0
LINE
  8
_0-1_1_5
  6
CONTINUOUS
 62
    7
 10
-2766.1216472134565
 20
357.61454558933264
 11
-2766.9115464968281
 21
356.87787341931789
  0
LINE
  8
_0-1_1_5
  6
CONTINUOUS
 62
    7
 10
-2766.9115464968281
 20
356.87787341931789
 11
-2767.6254845452609
 21
355.8780638126633
  0
LINE
  8
_0-1_1_5
  6
CONTINUOUS
 62
    7
 10
-2767.6254845452609
 20
355.8780638126633
 11
-2768.241768712423
 21
354.64549547833894
  0
LINE
  8
_0-1_1_5
  6
CONTINUOUS
 62
    7
 10
-2768.241768712423
 20
354.64549547833894
 11
-2768.7416735157503
 21
353.21761938147353
  0
LINE
  8
_0-1_1_5
  6
CONTINUOUS
 62
    7
 10
-2768.7416735157503
 20
353.21761938147353
 11
-2769.1100096007576
 21
351.63782081473022
  0
LINE
  8
_0-1_1_5
  6
CONTINUOUS
 62
    7
 10
-2769.1100096007576
 20
351.63782081473022
 11
-2769.3355852618893
 21
349.95410115814281
  0
LINE
  8
_0-1_1_5
  6
CONTINUOUS
 62
    7
 10
-2769.3355852618893
 20
349.95410115814281
 11
-2769.4115464968281
 21
348.21761938147353
  0
LINE
  8
_0-1_1_5
  6
CONTINUOUS
 62
    7
 10
-2769.4115464968281
 20
348.21761938147353
 11
-2769.3355852618893
 21
346.48113760480425
  0
LINE
  8
_0-1_1_5
  6
CONTINUOUS
 62
    7
 10
-2769.3355852618893
 20
346.48113760480425
 11
-2769.1100096007576
 21
344.79741794821683
  0
LINE
  8
_0-1_1_5
  6
CONTINUOUS
 62
    7
 10
-2769.1100096007576
 20
344.79741794821683
 11
-2768.7416735157503
 21
343.21761938147353
  0
LINE
  8
_0-1_1_5
  6
CONTINUOUS
 62
    7
 10
-2768.7416735157503
 20
343.21761938147353
 11
-2768.241768712423
 21
341.78974328460811
  0
LINE
  8
_0-1_1_5
  6
CONTINUOUS
 62
    7
 10
-2768.241768712423
 20
341.78974328460811
 11
-2767.6254845452609
 21
340.55717495028375
  0
LINE
  8
_0-1_1_5
  6
CONTINUOUS
 62
    7
 10
-2767.6254845452609
 20
340.55717495028375
 11
-2766.9115464968281
 21
339.55736534362916
  0
LINE
  8
_0-1_1_5
  6
CONTINUOUS
 62
    7
 10
-2766.9115464968281
 20
339.55736534362916
 11
-2766.1216472134565
 21
338.82069317361447
  0
LINE
  8
_0-1_1_5
  6
CONTINUOUS
 62
    7
 10
-2766.1216472134565
 20
338.82069317361447
 11
-2765.2797873851628
 21
338.36954185135147
  0
LINE
  8
_0-1_1_5
  6
CONTINUOUS
 62
    7
 10
-2765.2797873851628
 20
338.36954185135147
 11
-2764.4115464968281
 21
338.21761938147353
  0
LINE
  8
_0-1_1_5
  6
CONTINUOUS
 62
    7
 10
-2764.4115464968281
 20
338.21761938147353
 11
-2764.4115464968281
 21
338.21761938147353
  0
LINE
  8
_0-1_1_5
  6
CONTINUOUS
 62
    7
 10
-2476.4115464968281
 20
338.21761938147353
 11
-2476.4115464968281
 21
338.21761938147353
  0
LINE
  8
_0-1_1_5
  6
CONTINUOUS
 62
    7
 10
-2476.4115464968281
 20
338.21761938147353
 11
-2475.5433056084935
 21
338.36954185135147
  0
LINE
  8
_0-1_1_5
  6
CONTINUOUS
 62
    7
 10
-2475.5433056084935
 20
338.36954185135147
 11
-2474.7014457801997
 21
338.82069317361442
  0
LINE
  8
_0-1_1_5
  6
CONTINUOUS
 62
    7
 10
-2474.7014457801997
 20
338.82069317361442
 11
-2473.9115464968281
 21
339.55736534362916
  0
LINE
  8
_0-1_1_5
  6
CONTINUOUS
 62
    7
 10
-2473.9115464968281
 20
339.55736534362916
 11
-2473.1976084483954
 21
340.55717495028375
  0
LINE
  8
_0-1_1_5
  6
CONTINUOUS
 62
    7
 10
-2473.1976084483954
 20
340.55717495028375
 11
-2472.5813242812333
 21
341.78974328460811
  0
LINE
  8
_0-1_1_5
  6
CONTINUOUS
 62
    7
 10
-2472.5813242812333
 20
341.78974328460811
 11
-2472.0814194779059
 21
343.21761938147353
  0
LINE
  8
_0-1_1_5
  6
CONTINUOUS
 62
    7
 10
-2472.0814194779059
 20
343.21761938147353
 11
-2471.7130833928986
 21
344.79741794821683
  0
LINE
  8
_0-1_1_5
  6
CONTINUOUS
 62
    7
 10
-2471.7130833928986
 20
344.79741794821683
 11
-2471.487507731767
 21
346.48113760480425
  0
LINE
  8
_0-1_1_5
  6
CONTINUOUS
 62
    7
 10
-2471.487507731767
 20
346.48113760480425
 11
-2471.4115464968281
 21
348.21761938147353
  0
LINE
  8
_0-1_1_5
  6
CONTINUOUS
 62
    7
 10
-2471.4115464968281
 20
348.21761938147353
 11
-2471.487507731767
 21
349.95410115814281
  0
LINE
  8
_0-1_1_5
  6
CONTINUOUS
 62
    7
 10
-2471.487507731767
 20
349.95410115814281
 11
-2471.7130833928986
 21
351.63782081473022
  0
LINE
  8
_0-1_1_5
  6
CONTINUOUS
 62
    7
 10
-2471.7130833928986
 20
351.63782081473022
 11
-2472.0814194779059
 21
353.21761938147353
  0
LINE
  8
_0-1_1_5
  6
CONTINUOUS
 62
    7
 10
-2472.0814194779059
 20
353.21761938147353
 11
-2472.5813242812333
 21
354.64549547833894
  0
LINE
  8
_0-1_1_5
  6
CONTINUOUS
 62
    7
 10
-2472.5813242812333
 20
354.64549547833894
 11
-2473.1976084483954
 21
355.8780638126633
  0
LINE
  8
_0-1_1_5
  6
CONTINUOUS
 62
    7
 10
-2473.1976084483954
 20
355.8780638126633
 11
-2473.9115464968281
 21
356.87787341931789
  0
LINE
  8
_0-1_1_5
  6
CONTINUOUS
 62
    7
 10
-2473.9115464968281
 20
356.87787341931789
 11
-2474.7014457801997
 21
357.61454558933258
  0
LINE
  8
_0-1_1_5
  6
CONTINUOUS
 62
    7
 10
-2474.7014457801997
 20
357.61454558933258
 11
-2475.5433056084935
 21
358.06569691159558
  0
LINE
  8
_0-1_1_5
  6
CONTINUOUS
 62
    7
 10
-2475.5433056084935
 20
358.06569691159558
 11
-2476.4115464968281
 21
358.21761938147353
  0
LINE
  8
_0-1_1_5
  6
CONTINUOUS
 62
    7
 10
-2476.4115464968281
 20
358.21761938147353
 11
-2476.4115464968281
 21
358.21761938147353
  0
LINE
  8
_0-1_1_5
  6
DASHED1
 62
    7
 10
-2476.4115464968281
 20
358.21761938147353
 11
-2476.4115464968281
 21
358.21761938147353
  0
LINE
  8
_0-1_1_5
  6
DASHED1
 62
    7
 10
-2476.4115464968281
 20
358.21761938147353
 11
-2477.2797873851628
 21
358.06569691159558
  0
LINE
  8
_0-1_1_5
  6
DASHED1
 62
    7
 10
-2477.2797873851628
 20
358.06569691159558
 11
-2478.1216472134565
 21
357.61454558933264
  0
LINE
  8
_0-1_1_5
  6
DASHED1
 62
    7
 10
-2478.1216472134565
 20
357.61454558933264
 11
-2478.9115464968281
 21
356.87787341931789
  0
LINE
  8
_0-1_1_5
  6
DASHED1
 62
    7
 10
-2478.9115464968281
 20
356.87787341931789
 11
-2479.6254845452609
 21
355.8780638126633
  0
LINE
  8
_0-1_1_5
  6
DASHED1
 62
    7
 10
-2479.6254845452609
 20
355.8780638126633
 11
-2480.241768712423
 21
354.64549547833894
  0
LINE
  8
_0-1_1_5
  6
DASHED1
 62
    7
 10
-2480.241768712423
 20
354.64549547833894
 11
-2480.7416735157503
 21
353.21761938147353
  0
LINE
  8
_0-1_1_5
  6
DASHED1
 62
    7
 10
-2480.7416735157503
 20
353.21761938147353
 11
-2481.1100096007576
 21
351.63782081473022
  0
LINE
  8
_0-1_1_5
  6
DASHED1
 62
    7
 10
-2481.1100096007576
 20
351.63782081473022
 11
-2481.3355852618893
 21
349.95410115814281
  0
LINE
  8
_0-1_1_5
  6
DASHED1
 62
    7
 10
-2481.3355852618893
 20
349.95410115814281
 11
-2481.4115464968281
 21
348.21761938147353
  0
LINE
  8
_0-1_1_5
  6
DASHED1
 62
    7
 10
-2481.4115464968281
 20
348.21761938147353
 11
-2481.3355852618893
 21
346.48113760480425
  0
LINE
  8
_0-1_1_5
  6
DASHED1
 62
    7
 10
-2481.3355852618893
 20
346.48113760480425
 11
-2481.1100096007576
 21
344.79741794821683
  0
LINE
  8
_0-1_1_5
  6
DASHED1
 62
    7
 10
-2481.1100096007576
 20
344.79741794821683
 11
-2480.7416735157503
 21
343.21761938147353
  0
LINE
  8
_0-1_1_5
  6
DASHED1
 62
    7
 10
-2480.7416735157503
 20
343.21761938147353
 11
-2480.241768712423
 21
341.78974328460816
  0
LINE
  8
_0-1_1_5
  6
DASHED1
 62
    7
 10
-2480.241768712423
 20
341.78974328460816
 11
-2479.6254845452609
 21
340.55717495028375
  0
LINE
  8
_0-1_1_5
  6
DASHED1
 62
    7
 10
-2479.6254845452609
 20
340.55717495028375
 11
-2478.9115464968281
 21
339.55736534362916
  0
LINE
  8
_0-1_1_5
  6
DASHED1
 62
    7
 10
-2478.9115464968281
 20
339.55736534362916
 11
-2478.1216472134565
 21
338.82069317361447
  0
LINE
  8
_0-1_1_5
  6
DASHED1
 62
    7
 10
-2478.1216472134565
 20
338.82069317361447
 11
-2477.2797873851628
 21
338.36954185135147
  0
LINE
  8
_0-1_1_5
  6
DASHED1
 62
    7
 10
-2477.2797873851628
 20
338.36954185135147
 11
-2476.4115464968281
 21
338.21761938147353
  0
LINE
  8
_0-1_1_5
  6
DASHED1
 62
    7
 10
-2476.4115464968281
 20
338.21761938147353
 11
-2476.4115464968281
 21
338.21761938147353
  0
LINE
  8
_0-1_1_5
  6
CENTER2
 62
    7
 10
-2478.9115464968281
 20
348.21761938147353
 11
-2473.9115464968281
 21
348.21761938147353
  0
LINE
  8
_0-1_1_5
  6
CENTER2
 62
    7
 10
-2476.4115464968281
 20
350.71761938147353
 11
-2476.4115464968281
 21
345.71761938147353
  0
LINE
  8
_0-1_1_5
  6
CENTER2
 62
    7
 10
-2766.9115464968281
 20
348.21761938147353
 11
-2761.9115464968281
 21
348.21761938147353
  0
LINE
  8
_0-1_1_5
  6
CENTER2
 62
    7
 10
-2764.4115464968281
 20
350.71761938147353
 11
-2764.4115464968281
 21
345.71761938147353
  0
LINE
  8
_0-2_ADD_LINE
  6
CONTINUOUS
 62
    7
 10
-2362.2074139209699
 20
348.21303474719463
 11
-2350.8527095431418
 21
336.85833036936668
  0
LINE
  8
_0-2_ADD_LINE
  6
CONTINUOUS
 62
    7
 10
-2350.8527095431418
 20
336.85833036936668
 11
-2343.1502270380442
 21
336.85833036936668
  0
POINT
  8
_0-2_ADD_LINE
 62
    7
 10
-2407.2058483415167
 20
358.21761938147353
  0
POINT
  8
_0-2_ADD_LINE
 62
    7
 10
-2407.2058483415167
 20
338.21761938147353
  0
LINE
  8
_0-2_ADD_LINE
  6
CONTINUOUS
 62
    7
 10
-2407.2058483415167
 20
358.21761938147353
 11
-2394.214012606195
 21
358.21761938147353
  0
LINE
  8
_0-2_ADD_LINE
  6
CONTINUOUS
 62
    7
 10
-2407.2058483415167
 20
338.21761938147353
 11
-2394.214012606195
 21
338.21761938147353
  0
LINE
  8
_0-3_
  6
CONTINUOUS
 62
    7
 10
-2407.2058483415167
 20
358.21761938147353
 11
-2407.2058483415167
 21
338.21761938147353
  0
TEXT
  8
_0-2_ADD_LINE
 62
    4
 10
-2408.2058483415167
 20
345.71761938147353
 40
5
 41
1
 50
90
  1
20
  0
LINE
  8
_0-1_1_5
  6
CONTINUOUS
 62
    7
 10
-2362.214012606195
 20
358.21761938147353
 11
-2392.214012606195
 21
358.21761938147353
  0
LINE
  8
_0-1_1_5
  6
CONTINUOUS
 62
    7
 10
-2362.214012606195
 20
358.21761938147353
 11
-2362.214012606195
 21
338.21761938147353
  0
LINE
  8
_0-1_1_5
  6
CONTINUOUS
 62
    7
 10
-2362.214012606195
 20
338.21761938147353
 11
-2392.214012606195
 21
338.21761938147353
  0
LINE
  8
_0-1_1_5
  6
DASHED1
 62
    7
 10
-2392.214012606195
 20
338.21761938147353
 11
-2392.214012606195
 21
338.21761938147353
  0
LINE
  8
_0-1_1_5
  6
DASHED1
 62
    7
 10
-2392.214012606195
 20
338.21761938147353
 11
-2391.3457717178603
 21
338.36954185135147
  0
LINE
  8
_0-1_1_5
  6
DASHED1
 62
    7
 10
-2391.3457717178603
 20
338.36954185135147
 11
-2390.5039118895666
 21
338.82069317361442
  0
LINE
  8
_0-1_1_5
  6
DASHED1
 62
    7
 10
-2390.5039118895666
 20
338.82069317361442
 11
-2389.714012606195
 21
339.55736534362916
  0
LINE
  8
_0-1_1_5
  6
DASHED1
 62
    7
 10
-2389.714012606195
 20
339.55736534362916
 11
-2389.0000745577622
 21
340.55717495028375
  0
LINE
  8
_0-1_1_5
  6
DASHED1
 62
    7
 10
-2389.0000745577622
 20
340.55717495028375
 11
-2388.3837903906001
 21
341.78974328460811
  0
LINE
  8
_0-1_1_5
  6
DASHED1
 62
    7
 10
-2388.3837903906001
 20
341.78974328460811
 11
-2387.8838855872727
 21
343.21761938147353
  0
LINE
  8
_0-1_1_5
  6
DASHED1
 62
    7
 10
-2387.8838855872727
 20
343.21761938147353
 11
-2387.5155495022655
 21
344.79741794821683
  0
LINE
  8
_0-1_1_5
  6
DASHED1
 62
    7
 10
-2387.5155495022655
 20
344.79741794821683
 11
-2387.2899738411338
 21
346.48113760480425
  0
LINE
  8
_0-1_1_5
  6
DASHED1
 62
    7
 10
-2387.2899738411338
 20
346.48113760480425
 11
-2387.214012606195
 21
348.21761938147353
  0
LINE
  8
_0-1_1_5
  6
DASHED1
 62
    7
 10
-2387.214012606195
 20
348.21761938147353
 11
-2387.2899738411338
 21
349.95410115814281
  0
LINE
  8
_0-1_1_5
  6
DASHED1
 62
    7
 10
-2387.2899738411338
 20
349.95410115814281
 11
-2387.5155495022655
 21
351.63782081473022
  0
LINE
  8
_0-1_1_5
  6
DASHED1
 62
    7
 10
-2387.5155495022655
 20
351.63782081473022
 11
-2387.8838855872727
 21
353.21761938147353
  0
LINE
  8
_0-1_1_5
  6
DASHED1
 62
    7
 10
-2387.8838855872727
 20
353.21761938147353
 11
-2388.3837903906001
 21
354.64549547833889
  0
LINE
  8
_0-1_1_5
  6
DASHED1
 62
    7
 10
-2388.3837903906001
 20
354.64549547833889
 11
-2389.0000745577622
 21
355.8780638126633
  0
LINE
  8
_0-1_1_5
  6
DASHED1
 62
    7
 10
-2389.0000745577622
 20
355.8780638126633
 11
-2389.714012606195
 21
356.87787341931789
  0
LINE
  8
_0-1_1_5
  6
DASHED1
 62
    7
 10
-2389.714012606195
 20
356.87787341931789
 11
-2390.5039118895666
 21
357.61454558933258
  0
LINE
  8
_0-1_1_5
  6
DASHED1
 62
    7
 10
-2390.5039118895666
 20
357.61454558933258
 11
-2391.3457717178603
 21
358.06569691159558
  0
LINE
  8
_0-1_1_5
  6
DASHED1
 62
    7
 10
-2391.3457717178603
 20
358.06569691159558
 11
-2392.214012606195
 21
358.21761938147353
  0
LINE
  8
_0-1_1_5
  6
DASHED1
 62
    7
 10
-2392.214012606195
 20
358.21761938147353
 11
-2392.214012606195
 21
358.21761938147353
  0
LINE
  8
_0-1_1_5
  6
CONTINUOUS
 62
    7
 10
-2392.214012606195
 20
358.21761938147353
 11
-2392.214012606195
 21
358.21761938147353
  0
LINE
  8
_0-1_1_5
  6
CONTINUOUS
 62
    7
 10
-2392.214012606195
 20
358.21761938147353
 11
-2393.0822534945296
 21
358.06569691159558
  0
LINE
  8
_0-1_1_5
  6
CONTINUOUS
 62
    7
 10
-2393.0822534945296
 20
358.06569691159558
 11
-2393.9241133228234
 21
357.61454558933264
  0
LINE
  8
_0-1_1_5
  6
CONTINUOUS
 62
    7
 10
-2393.9241133228234
 20
357.61454558933264
 11
-2394.714012606195
 21
356.87787341931789
  0
LINE
  8
_0-1_1_5
  6
CONTINUOUS
 62
    7
 10
-2394.714012606195
 20
356.87787341931789
 11
-2395.4279506546277
 21
355.8780638126633
  0
LINE
  8
_0-1_1_5
  6
CONTINUOUS
 62
    7
 10
-2395.4279506546277
 20
355.8780638126633
 11
-2396.0442348217898
 21
354.64549547833894
  0
LINE
  8
_0-1_1_5
  6
CONTINUOUS
 62
    7
 10
-2396.0442348217898
 20
354.64549547833894
 11
-2396.5441396251172
 21
353.21761938147353
  0
LINE
  8
_0-1_1_5
  6
CONTINUOUS
 62
    7
 10
-2396.5441396251172
 20
353.21761938147353
 11
-2396.9124757101245
 21
351.63782081473022
  0
LINE
  8
_0-1_1_5
  6
CONTINUOUS
 62
    7
 10
-2396.9124757101245
 20
351.63782081473022
 11
-2397.1380513712561
 21
349.95410115814281
  0
LINE
  8
_0-1_1_5
  6
CONTINUOUS
 62
    7
 10
-2397.1380513712561
 20
349.95410115814281
 11
-2397.214012606195
 21
348.21761938147353
  0
LINE
  8
_0-1_1_5
  6
CONTINUOUS
 62
    7
 10
-2397.214012606195
 20
348.21761938147353
 11
-2397.1380513712561
 21
346.48113760480425
  0
LINE
  8
_0-1_1_5
  6
CONTINUOUS
 62
    7
 10
-2397.1380513712561
 20
346.48113760480425
 11
-2396.9124757101245
 21
344.79741794821683
  0
LINE
  8
_0-1_1_5
  6
CONTINUOUS
 62
    7
 10
-2396.9124757101245
 20
344.79741794821683
 11
-2396.5441396251172
 21
343.21761938147353
  0
LINE
  8
_0-1_1_5
  6
CONTINUOUS
 62
    7
 10
-2396.5441396251172
 20
343.21761938147353
 11
-2396.0442348217898
 21
341.78974328460811
  0
LINE
  8
_0-1_1_5
  6
CONTINUOUS
 62
    7
 10
-2396.0442348217898
 20
341.78974328460811
 11
-2395.4279506546277
 21
340.55717495028375
  0
LINE
  8
_0-1_1_5
  6
CONTINUOUS
 62
    7
 10
-2395.4279506546277
 20
340.55717495028375
 11
-2394.714012606195
 21
339.55736534362916
  0
LINE
  8
_0-1_1_5
  6
CONTINUOUS
 62
    7
 10
-2394.714012606195
 20
339.55736534362916
 11
-2393.9241133228234
 21
338.82069317361447
  0
LINE
  8
_0-1_1_5
  6
CONTINUOUS
 62
    7
 10
-2393.9241133228234
 20
338.82069317361447
 11
-2393.0822534945296
 21
338.36954185135147
  0
LINE
  8
_0-1_1_5
  6
CONTINUOUS
 62
    7
 10
-2393.0822534945296
 20
338.36954185135147
 11
-2392.214012606195
 21
338.21761938147353
  0
LINE
  8
_0-1_1_5
  6
CONTINUOUS
 62
    7
 10
-2392.214012606195
 20
338.21761938147353
 11
-2392.214012606195
 21
338.21761938147353
  0
LINE
  8
_0-1_1_5
  6
CENTER2
 62
    7
 10
-2360.214012606195
 20
348.21761938147353
 11
-2372.214012606195
 21
348.21761938147353
  0
TEXT
  8
_0-2_ADD_LINE
 62
    7
 10
-2349.786634135342
 20
335.88432921781697
 40
6.2000000000000002
 41
1
 50
0
  1
M4
  0
POINT
  8
_0-2_ADD_LINE
 62
    7
 10
-2397
 20
378.35490119627627
  0
POINT
  8
_0-2_ADD_LINE
 62
    7
 10
-2387.214012606195
 20
378.35490119627627
  0
LINE
  8
_0-2_ADD_LINE
  6
CONTINUOUS
 62
    7
 10
-2397
 20
378.35490119627627
 11
-2397
 21
360.14427053557688
  0
LINE
  8
_0-2_ADD_LINE
  6
CONTINUOUS
 62
    7
 10
-2387.214012606195
 20
378.35490119627627
 11
-2387.214012606195
 21
360.14427053557688
  0
LINE
  8
_0-2_ADD_LINE
  6
CONTINUOUS
 62
    7
 10
-2397
 20
378.35490119627627
 11
-2387.214012606195
 21
378.35490119627627
  0
TEXT
  8
_0-2_ADD_LINE
 62
    4
 10
-2394.6070063030975
 20
379.35490119627627
 40
5
 41
1
 50
0
  1
10
  0
TEXT
  8
_0-3_
 62
    7
 10
-2638.6543848942842
 20
124.00871626270435
 40
6.2000000000000002
 41
1
 50
0
  1
サテン
  0
LINE
  8
_0-2_ADD_LINE
  6
CONTINUOUS
 62
    7
 10
-2461.4422023068182
 20
274.95955562168876
 11
-2469.4115464968281
 21
274.95955562168876
  0
LINE
  8
_0-2_ADD_LINE
  6
CONTINUOUS
 62
    7
 10
-2461.4422023068182
 20
239.95955562168876
 11
-2469.4115464968281
 21
239.95955562168876
  0
POINT
  8
_0-2_ADD_LINE
 62
    7
 10
-2461.4422023068182
 20
274.95955562168876
  0
POINT
  8
_0-2_ADD_LINE
 62
    7
 10
-2461.4422023068182
 20
239.95955562168876
  0
LINE
  8
_0-2_ADD_LINE
  6
CONTINUOUS
 62
    7
 10
-2461.4422023068182
 20
274.95955562168876
 11
-2461.4422023068182
 21
239.95955562168876
  0
TEXT
  8
_0-2_ADD_LINE
 62
    4
 10
-2462.4422023068182
 20
254.95955562168876
 40
5
 41
1
 50
90
  1
35
  0
TEXT
  8
_0-2_ADD_LINE
 62
    7
 10
-2410.497476327585
 20
238.3668811069974
 40
6.2000000000000002
 41
1
 50
0
  1
対応ドア厚  10-22mm
  0
LINE
  8
_0-1_1_5
  6
CONTINUOUS
 62
    7
 10
-2759.4115464968281
 20
249.95955562168876
 11
-2759.4115464968281
 21
274.95955562168876
  0
LINE
  8
_0-1_1_5
  6
CONTINUOUS
 62
    7
 10
-2769.4115464968281
 20
239.95955562168876
 11
-2769.4115464968281
 21
274.95955562168876
  0
LINE
  8
_0-1_1_5
  6
CONTINUOUS
 62
    7
 10
-2769.4115464968281
 20
239.95955562168876
 11
-2759.4115464968281
 21
249.95955562168876
  0
LINE
  8
_0-1_1_5
  6
CONTINUOUS
 62
    7
 10
-2769.4115464968281
 20
274.95955562168876
 11
-2759.4115464968281
 21
274.95955562168876
  0
LINE
  8
_0-1_1_5
  6
CONTINUOUS
 62
    7
 10
-2471.4115464968281
 20
239.95955562168876
 11
-2471.4115464968281
 21
274.95955562168876
  0
LINE
  8
_0-1_1_5
  6
CONTINUOUS
 62
    7
 10
-2481.4115464968281
 20
249.95955562168876
 11
-2471.4115464968281
 21
239.95955562168876
  0
LINE
  8
_0-1_1_5
  6
CONTINUOUS
 62
    7
 10
-2481.4115464968281
 20
249.95955562168876
 11
-2481.4115464968281
 21
274.95955562168876
  0
LINE
  8
_0-1_1_5
  6
CONTINUOUS
 62
    7
 10
-2481.4115464968281
 20
274.95955562168876
 11
-2471.4115464968281
 21
274.95955562168876
  0
LINE
  8
_0-1_1_5
  6
CONTINUOUS
 62
    7
 10
-2759.4115464968281
 20
249.95955562168876
 11
-2481.4115464968281
 21
249.95955562168876
  0
LINE
  8
_0-1_1_5
  6
CONTINUOUS
 62
    7
 10
-2769.4115464968281
 20
239.95955562168876
 11
-2471.4115464968281
 21
239.95955562168876
  0
LINE
  8
_0-1_1_5
  6
CENTER2
 62
    7
 10
-2764.4115464968281
 20
264.95955562168876
 11
-2764.4115464968281
 21
276.95955562168876
  0
LINE
  8
_0-1_1_5
  6
CENTER2
 62
    7
 10
-2476.4115464968281
 20
264.95955562168876
 11
-2476.4115464968281
 21
276.95955562168876
  0
POINT
  8
_0-2_ADD_LINE
 62
    7
 10
-2769.4115464968281
 20
283.62823815874458
  0
POINT
  8
_0-2_ADD_LINE
 62
    7
 10
-2759.4115464968281
 20
283.62823815874458
  0
LINE
  8
_0-2_ADD_LINE
  6
CONTINUOUS
 62
    7
 10
-2769.4115464968281
 20
283.62823815874458
 11
-2769.4115464968281
 21
276.28779198997643
  0
LINE
  8
_0-2_ADD_LINE
  6
CONTINUOUS
 62
    7
 10
-2759.4115464968281
 20
283.62823815874458
 11
-2759.4115464968281
 21
276.28779198997643
  0
LINE
  8
_0-2_ADD_LINE
  6
CONTINUOUS
 62
    7
 10
-2769.4115464968281
 20
283.62823815874458
 11
-2759.4115464968281
 21
283.62823815874458
  0
TEXT
  8
_0-2_ADD_LINE
 62
    4
 10
-2766.9115464968281
 20
284.62823815874458
 40
5
 41
1
 50
0
  1
10
  0
TEXT
  8
_0-3_
 62
    7
 10
-2450.972281159105
 20
135.71250061460125
 40
6.2000000000000002
 41
1
 50
0
  1
TFP21-4028-002
  0
ENDSEC
  0
EOF
