  0
SECTION
  2
HEADER
  9
$ACADVER
  1
AC1009
  9
$INSBASE
 10
0
 20
0
 30
0
  9
$EXTMIN
 10
0
 20
0
  9
$EXTMAX
 10
1188
 20
840
  9
$LIMMIN
 10
0
 20
0
  9
$LIMMAX
 10
1188
 20
840
  9
$LTSCALE
 40
4
  0
ENDSEC
  0
SECTION
  2
TABLES
  0
TABLE
  2
LTYPE
 70
     9
  0
LTYPE
  2
CONTINUOUS
 70
    64
  3
実線
 72
    65
 73
     0
 40
0.0
  0
LTYPE
  2
DASHED1
 70
    64
  3
--  --  --  --  --  --  --  --  
 72
    65
 73
     2
 40
2.5
 49
1.25
 49
-1.25
  0
LTYPE
  2
DASHED2
 70
    64
  3
----    ----    ----    ----    
 72
    65
 73
     2
 40
5.0
 49
2.5
 49
-2.5
  0
LTYPE
  2
DASHED3
 70
    64
  3
------  ------  ------  ------  
 72
    65
 73
     2
 40
5.0
 49
3.75
 49
-1.25
  0
LTYPE
  2
CENTER1
 70
    64
  3
----- - ----- - ----- - ----- - 
 72
    65
 73
     4
 40
10.0
 49
6.25
 49
-1.25
 49
1.25
 49
-1.25
  0
LTYPE
  2
CENTER2
 70
    64
  3
----------  --  ----------  --  
 72
    65
 73
     4
 40
20.0
 49
12.5
 49
-2.5
 49
2.5
 49
-2.5
  0
LTYPE
  2
PHANTOM1
 70
    64
  3
--- - - --- - - --- - - --- - - 
 72
    65
 73
     6
 40
10.0
 49
3.25
 49
-1.25
 49
1.25
 49
-1.25
 49
1.25
 49
-1.25
  0
LTYPE
  2
PHANTOM2
 70
    64
  3
--------  -  -  --------  -  -  
 72
    65
 73
     6
 40
20.0
 49
10.0
 49
-2.5
 49
1.25
 49
-2.5
 49
1.25
 49
-2.5
  0
LTYPE
  2
DOT
 70
    64
  3
-   -   -   -   -   -   -   -   
 72
    65
 73
     2
 40
2.5
 49
0.625
 49
-1.875
  0
LTYPE
  2
DUMMY
 70
    64
  3
ダミー
 72
    65
 73
     0
 40
0.0
  0
LTYPE
  2
RAND1
 70
    64
  3
ランダム線1
 72
    65
 73
     4
 40
10.0
 49
1.0
 49
-2.0
 49
3.0
 49
-4.0
  0
LTYPE
  2
RAND2
 70
    64
  3
ランダム線2
 72
    65
 73
     4
 40
14.0
 49
2.0
 49
-3.0
 49
4.0
 49
-5.0
  0
LTYPE
  2
RAND3
 70
    64
  3
ランダム線3
 72
    65
 73
     4
 40
18.0
 49
3.0
 49
-4.0
 49
5.0
 49
-6.0
  0
LTYPE
  2
RAND4
 70
    64
  3
ランダム線4
 72
    65
 73
     4
 40
22.0
 49
4.0
 49
-5.0
 49
6.0
 49
-7.0
  0
LTYPE
  2
RAND5
 70
    64
  3
ランダム線5
 72
    65
 73
     4
 40
26.0
 49
5.0
 49
-6.0
 49
7.0
 49
-8.0
  0
LTYPE
  2
LONG1
 70
    64
  3
----------  --  ----------  --  
 72
    65
 73
     4
 40
40.0
 49
32.5
 49
-2.5
 49
2.5
 49
-2.5
  0
LTYPE
  2
LONG2
 70
    64
  3
--------  -  -  --------  -  -  
 72
    65
 73
     6
 40
40.0
 49
30.0
 49
-2.5
 49
1.25
 49
-2.5
 49
1.25
 49
-2.5
  0
LTYPE
  2
LONG3
 70
    64
  3
+++++++++++++++..+++++++++++++++
 72
    65
 73
     2
 40
40.0
 49
37.5
 49
-2.5
  0
LTYPE
  2
LONG4
 70
    64
  3
+++++++++++++++..+++++++++++++++
 72
    65
 73
     2
 40
80.0
 49
75.0
 49
-5.0
  0
LTYPE
  2
LONG5
 70
    64
  3
----------  --  ----------  --  
 72
    65
 73
     4
 40
60.0
 49
37.5
 49
-7.5
 49
7.5
 49
-7.5
  0
LTYPE
  2
dashed
 70
   64
  3
-------   -------------   ------
 72
   65
 73
    2
 40
7.5
 49
6
 49
-1.5
  0
LTYPE
  2
dashed_spaced
 70
   64
  3
----        --------        ----
 72
   65
 73
    2
 40
12
 49
6
 49
-6
  0
LTYPE
  2
long_dashed_dotted
 70
   64
  3
------------- --- --------------
 72
   65
 73
    4
 40
15.25
 49
12
 49
-1.5
 49
0.25
 49
-1.5
  0
LTYPE
  2
long_dashed_double-dotted
 70
   64
  3
----------- --- --- ------------
 72
   65
 73
    6
 40
17
 49
12
 49
-1.5
 49
0.25
 49
-1.5
 49
0.25
 49
-1.5
  0
LTYPE
  2
long_dashed_triplicate-dotted
 70
   64
  3
--------- --- --- --- ----------
 72
   65
 73
    8
 40
18.75
 49
12
 49
-1.5
 49
0.25
 49
-1.5
 49
0.25
 49
-1.5
 49
0.25
 49
-1.5
  0
LTYPE
  2
dotted
 70
   64
  3
   -       -       -       -    
 72
   65
 73
    2
 40
1.75
 49
0.25
 49
-1.5
  0
LTYPE
  2
chain
 70
   64
  3
-------------- -- --------------
 72
   65
 73
    4
 40
18.5
 49
12
 49
-1.5
 49
3.5
 49
-1.5
  0
LTYPE
  2
chain_double_dash
 70
   64
  3
------------ -- -- -------------
 72
   65
 73
    6
 40
23.5
 49
12
 49
-1.5
 49
3.5
 49
-1.5
 49
3.5
 49
-1.5
  0
LTYPE
  2
dashed_dotted
 70
   64
  3
-----------     -     ----------
 72
   65
 73
    4
 40
9.25
 49
6
 49
-1.5
 49
0.25
 49
-1.5
  0
LTYPE
  2
double-dashed_dotted
 70
   64
  3
------   -----------   -   -----
 72
   65
 73
    6
 40
16.75
 49
6
 49
-1.5
 49
6
 49
-1.5
 49
0.25
 49
-1.5
  0
LTYPE
  2
dashed_double-dotted
 70
   64
  3
---------    -    -    ---------
 72
   65
 73
    6
 40
11
 49
6
 49
-1.5
 49
0.25
 49
-1.5
 49
0.25
 49
-1.5
  0
LTYPE
  2
double-dashed_double-dotted
 70
   64
  3
-----   ---------   -   -   ----
 72
   65
 73
    8
 40
18.5
 49
6
 49
-1.5
 49
6
 49
-1.5
 49
0.25
 49
-1.5
 49
0.25
 49
-1.5
  0
LTYPE
  2
dashed_triplicate-dotted
 70
   64
  3
-------    -    -    -    ------
 72
   65
 73
    8
 40
12.75
 49
6
 49
-1.5
 49
0.25
 49
-1.5
 49
0.25
 49
-1.5
 49
0.25
 49
-1.5
  0
LTYPE
  2
double-dashed_triplicate-dotted
 70
   64
  3
-----  ---------  -  -  -  -----
 72
   65
 73
   10
 40
20.25
 49
6
 49
-1.5
 49
6
 49
-1.5
 49
0.25
 49
-1.5
 49
0.25
 49
-1.5
 49
0.25
 49
-1.5
  0
LTYPE
  2
undefined
 70
   64
  3
--------------------------------
 72
   65
 73
    0
 40
0
  0
LTYPE
  2
STYLE_01
 70
   64
  3
----        --------        ----
 72
   65
 73
    2
 40
0.4166399999999997
 49
0.2082799999999999
 49
-0.2083599999999999
  0
LTYPE
  2
STYLE_02
 70
   64
  3
------     -----------     -----
 72
   65
 73
    2
 40
0.694425
 49
0.48607
 49
-0.2083550000000001
  0
LTYPE
  2
STYLE_03
 70
   64
  3
-------   -------------   ------
 72
   65
 73
    2
 40
1.25
 49
1.0416400000000001
 49
-0.2083599999999999
  0
LTYPE
  2
STYLE_04
 70
   64
  3
-------  --------------  -------
 72
   65
 73
    2
 40
1.5277099999999999
 49
1.3194249999999998
 49
-0.208285
  0
LTYPE
  2
STYLE_05
 70
   64
  3
---           -----           --
 72
   65
 73
    2
 40
0.20828
 49
0.069425
 49
-0.138855
  0
LTYPE
  2
STYLE_06
 70
   64
  3
----------      --    ----------
 72
   65
 73
    4
 40
1.0416399999999999
 49
0.625
 49
-0.2082799999999999
 49
0.06943
 49
-0.13893
  0
LTYPE
  2
STYLE_07
 70
   64
  3
-----    -----------    -  -----
 72
   65
 73
    6
 40
1.8749999999999998
 49
0.625
 49
-0.2082799999999999
 49
0.6250000000000001
 49
-0.2083599999999999
 49
0.06943
 49
-0.1389299999999998
  0
LTYPE
  2
STYLE_08
 70
   64
  3
--------     --    --    -------
 72
   65
 73
    6
 40
1.2499999999999996
 49
0.625
 49
-0.2082799999999999
 49
0.06943
 49
-0.13893
 49
0.0694299999999997
 49
-0.13893
  0
LTYPE
  2
STYLE_09
 70
   64
  3
------------  ----  ------------
 72
   65
 73
    4
 40
5
 49
3.75
 49
-0.2777849999999997
 49
0.6944300000000003
 49
-0.2777849999999997
  0
LTYPE
  2
STYLE_10
 70
   64
  3
----------- ---- ---  ----------
 72
   65
 73
    6
 40
5.9375
 49
3.75
 49
-0.2777849999999997
 49
0.6944300000000003
 49
-0.2777849999999997
 49
0.625
 49
-0.3125
  0
ENDTAB
  0
TABLE
  2
STYLE
  5
3
100
AcDbSymbolTable
 70
     1
  0
STYLE
  5
10
100
AcDbSymbolTableRecord
100
AcDbTextStyleTableRecord
  2
STANDARD
 70
     0
 40
0.0
 41
1.0
 50
0.0
 71
     0
 42
0.2
  3
txt
  4
bigfont.shx
  0
STYLE
  5
26
100
AcDbSymbolTableRecord
100
AcDbTextStyleTableRecord
  2
TATEGAKI
 70
    68
 40
0.0
 41
1.0
 50
0.0
 71
     0
 42
1.0
  3
txt
  4
bigfont.shx
  0
ENDTAB
  0
TABLE
  2
LAYER
 70
    5
  0
LAYER
  2
_0-0_0
 70
   64
 62
    7
  6
CONTINUOUS
  0
LAYER
  2
_0-1_1_5
 70
   64
 62
    7
  6
CONTINUOUS
  0
LAYER
  2
_0-2_ADD_LINE
 70
   64
 62
    7
  6
CONTINUOUS
  0
LAYER
  2
_0-3_
 70
   64
 62
    7
  6
CONTINUOUS
  0
LAYER
  2
ADD_LINE
 70
   64
 62
    7
  6
CONTINUOUS
  0
ENDTAB
  0
ENDSEC
  0
SECTION
  2
BLOCKS
  0
ENDSEC
  0
SECTION
  2
ENTITIES
  0
TEXT
  8
_0-2_ADD_LINE
 62
    7
 10
-4836.2260238222088
 20
520.4133971157994
 40
12.4
 41
1
 50
0
  1
対応ドア厚  10-22mm
  0
LINE
  8
_0-0_0
  6
CONTINUOUS
 62
    7
 10
-5728.6781935242625
 20
188.00592510056077
 11
-4540.6781935242625
 21
188.00592510056066
  0
LINE
  8
_0-0_0
  6
CONTINUOUS
 62
    7
 10
-5728.6781935242625
 20
1028.0059251005607
 11
-5728.6781935242625
 21
188.00592510056077
  0
LINE
  8
_0-0_0
  6
CONTINUOUS
 62
    7
 10
-4540.6781935242625
 20
1028.0059251005607
 11
-5728.6781935242625
 21
1028.0059251005607
  0
LINE
  8
_0-0_0
  6
CONTINUOUS
 62
    7
 10
-4540.6781935242625
 20
188.00592510056066
 11
-4540.6781935242625
 21
1028.0059251005607
  0
LINE
  8
_0-3_
  6
CONTINUOUS
 62
    7
 10
-4570.6383800465528
 20
266.8861019899233
 11
-5318.0272302771191
 21
266.8861019899233
  0
LINE
  8
_0-3_
  6
CONTINUOUS
 62
    7
 10
-4570.6383800465528
 20
242.88610198992328
 11
-5318.0272302771191
 21
242.88610198992328
  0
LINE
  8
_0-3_
  6
CONTINUOUS
 62
    7
 10
-5318.0272302771191
 20
218.88610198992325
 11
-5318.0272302771191
 21
290.8861019899233
  0
TEXT
  8
_0-3_
 62
    4
 10
-5312.4513393843645
 20
278.27033720503982
 40
8
 41
1
 50
0
  1
品名
  0
TEXT
  8
_0-3_
 62
    4
 10
-5312.4513393843645
 20
254.55314341317842
 40
8
 41
1
 50
0
  1
仕上げ
  0
TEXT
  8
_0-3_
 62
    4
 10
-5312.4513393843645
 20
229.58767626385057
 40
8
 41
1
 50
0
  1
材質
  0
TEXT
  8
_0-3_
 62
    7
 10
-5277.3087697885685
 20
223.81485090841724
 40
12.4
 41
1
 50
0
  1
ステンレススチール
  0
TEXT
  8
_0-3_
 62
    4
 10
-4939.749397839686
 20
278.42161767777441
 40
8
 41
1
 50
0
  1
品番
  0
LINE
  8
_0-3_
  6
CONTINUOUS
 62
    7
 10
-4943.9717134065522
 20
218.88610198992319
 11
-4943.9717134065522
 21
290.8861019899233
  0
LINE
  8
_0-3_
  6
CONTINUOUS
 62
    7
 10
-4570.6383800465528
 20
290.8861019899233
 11
-5318.0272302771191
 21
290.8861019899233
  0
TEXT
  8
_0-3_
 62
    4
 10
-4939.7982636311035
 20
254.61240761799198
 40
8
 41
1
 50
0
  1
縮尺
  0
TEXT
  8
_0-3_
 62
    7
 10
-5690.5184116802875
 20
200.33001045135921
 40
10
 41
1
 50
0
  1
120718SH
  0
LINE
  8
_0-3_
  6
CONTINUOUS
 62
    7
 10
-5690.6383800465528
 20
998.88610198992342
 11
-5690.6383800465528
 21
218.88610198992325
  0
LINE
  8
_0-3_
  6
CONTINUOUS
 62
    7
 10
-5690.6383800465528
 20
218.88610198992325
 11
-4570.6383800465528
 21
218.88610198992319
  0
TEXT
  8
_0-3_
 62
    7
 10
-5277.3087697885685
 20
272.63183999885041
 40
12.4
 41
1
 50
0
  1
ファニチャーハンドル
  0
LINE
  8
_0-3_
  6
CONTINUOUS
 62
    7
 10
-4570.6383800465528
 20
218.88610198992319
 11
-4570.6383800465528
 21
998.88610198992342
  0
LINE
  8
_0-3_
  6
CONTINUOUS
 62
    7
 10
-4570.6383800465528
 20
998.88610198992342
 11
-5690.6383800465528
 21
998.88610198992342
  0
TEXT
  8
_0-3_
 62
    7
 10
-4901.94456231821
 20
224.45911550244276
 40
12.4
 41
1
 50
0
  1
大洋金物株式会社  ティーエフプラス事業部
  0
TEXT
  8
_0-3_
 62
    7
 10
-4901.94456231821
 20
247.03554693995306
 40
12.4
 41
1
 50
0
  1
1/4
  0
LINE
  8
_0-2_ADD_LINE
  6
CONTINUOUS
 62
    7
 10
-4808.4843958361407
 20
717.36413539027558
 11
-4795.492560100819
 21
717.36413539027558
  0
LINE
  8
_0-2_ADD_LINE
  6
CONTINUOUS
 62
    7
 10
-4808.4843958361407
 20
697.36413539027558
 11
-4795.492560100819
 21
697.36413539027558
  0
LINE
  8
_0-2_ADD_LINE
  6
CONTINUOUS
 62
    7
 10
-4798.278547494624
 20
737.50141720507827
 11
-4798.278547494624
 21
719.29078654437888
  0
LINE
  8
_0-2_ADD_LINE
  6
CONTINUOUS
 62
    7
 10
-4788.492560100819
 20
737.50141720507827
 11
-4788.492560100819
 21
719.29078654437888
  0
POINT
  8
_0-2_ADD_LINE
 62
    7
 10
-4808.4843958361407
 20
717.36413539027558
  0
POINT
  8
_0-2_ADD_LINE
 62
    7
 10
-4808.4843958361407
 20
697.36413539027558
  0
LINE
  8
_0-3_
  6
CONTINUOUS
 62
    7
 10
-4808.4843958361407
 20
717.36413539027558
 11
-4808.4843958361407
 21
697.36413539027558
  0
TEXT
  8
_0-2_ADD_LINE
 62
    4
 10
-4810.4843958361407
 20
702.36413539027558
 40
10
 41
1
 50
90
  1
20
  0
POINT
  8
_0-2_ADD_LINE
 62
    7
 10
-4798.278547494624
 20
737.50141720507827
  0
POINT
  8
_0-2_ADD_LINE
 62
    7
 10
-4788.492560100819
 20
737.50141720507827
  0
LINE
  8
_0-2_ADD_LINE
  6
CONTINUOUS
 62
    7
 10
-4798.278547494624
 20
737.50141720507827
 11
-4788.492560100819
 21
737.50141720507827
  0
TEXT
  8
_0-2_ADD_LINE
 62
    4
 10
-4798.3855537977215
 20
739.50141720507827
 40
10
 41
1
 50
0
  1
10
  0
LINE
  8
_0-1_1_5
  6
CONTINUOUS
 62
    7
 10
-5410.6900939914522
 20
717.36413539027558
 11
-4962.6900939914522
 21
717.36413539027558
  0
LINE
  8
_0-1_1_5
  6
CONTINUOUS
 62
    7
 10
-5410.6900939914522
 20
697.36413539027558
 11
-4962.6900939914522
 21
697.36413539027558
  0
LINE
  8
_0-1_1_5
  6
DASHED1
 62
    7
 10
-5410.6900939914522
 20
697.36413539027558
 11
-5410.6900939914522
 21
697.36413539027558
  0
LINE
  8
_0-1_1_5
  6
DASHED1
 62
    7
 10
-5410.6900939914522
 20
697.36413539027558
 11
-5409.8218531031171
 21
697.51605786015352
  0
LINE
  8
_0-1_1_5
  6
DASHED1
 62
    7
 10
-5409.8218531031171
 20
697.51605786015352
 11
-5408.9799932748238
 21
697.96720918241647
  0
LINE
  8
_0-1_1_5
  6
DASHED1
 62
    7
 10
-5408.9799932748238
 20
697.96720918241647
 11
-5408.1900939914522
 21
698.70388135243115
  0
LINE
  8
_0-1_1_5
  6
DASHED1
 62
    7
 10
-5408.1900939914522
 20
698.70388135243115
 11
-5407.4761559430199
 21
699.70369095908575
  0
LINE
  8
_0-1_1_5
  6
DASHED1
 62
    7
 10
-5407.4761559430199
 20
699.70369095908575
 11
-5406.8598717758568
 21
700.93625929341022
  0
LINE
  8
_0-1_1_5
  6
DASHED1
 62
    7
 10
-5406.8598717758568
 20
700.93625929341022
 11
-5406.3599669725299
 21
702.36413539027558
  0
LINE
  8
_0-1_1_5
  6
DASHED1
 62
    7
 10
-5406.3599669725299
 20
702.36413539027558
 11
-5405.9916308875227
 21
703.94393395701888
  0
LINE
  8
_0-1_1_5
  6
DASHED1
 62
    7
 10
-5405.9916308875227
 20
703.94393395701888
 11
-5405.7660552263915
 21
705.6276536136063
  0
LINE
  8
_0-1_1_5
  6
DASHED1
 62
    7
 10
-5405.7660552263915
 20
705.6276536136063
 11
-5405.6900939914522
 21
707.36413539027558
  0
LINE
  8
_0-1_1_5
  6
DASHED1
 62
    7
 10
-5405.6900939914522
 20
707.36413539027558
 11
-5405.7660552263915
 21
709.10061716694486
  0
LINE
  8
_0-1_1_5
  6
DASHED1
 62
    7
 10
-5405.7660552263915
 20
709.10061716694486
 11
-5405.9916308875227
 21
710.78433682353227
  0
LINE
  8
_0-1_1_5
  6
DASHED1
 62
    7
 10
-5405.9916308875227
 20
710.78433682353227
 11
-5406.3599669725299
 21
712.36413539027558
  0
LINE
  8
_0-1_1_5
  6
DASHED1
 62
    7
 10
-5406.3599669725299
 20
712.36413539027558
 11
-5406.8598717758568
 21
713.79201148714094
  0
LINE
  8
_0-1_1_5
  6
DASHED1
 62
    7
 10
-5406.8598717758568
 20
713.79201148714094
 11
-5407.4761559430199
 21
715.0245798214653
  0
LINE
  8
_0-1_1_5
  6
DASHED1
 62
    7
 10
-5407.4761559430199
 20
715.0245798214653
 11
-5408.1900939914522
 21
716.02438942812
  0
LINE
  8
_0-1_1_5
  6
DASHED1
 62
    7
 10
-5408.1900939914522
 20
716.02438942812
 11
-5408.9799932748238
 21
716.76106159813469
  0
LINE
  8
_0-1_1_5
  6
DASHED1
 62
    7
 10
-5408.9799932748238
 20
716.76106159813469
 11
-5409.8218531031171
 21
717.21221292039763
  0
LINE
  8
_0-1_1_5
  6
DASHED1
 62
    7
 10
-5409.8218531031171
 20
717.21221292039763
 11
-5410.6900939914522
 21
717.36413539027558
  0
LINE
  8
_0-1_1_5
  6
DASHED1
 62
    7
 10
-5410.6900939914522
 20
717.36413539027558
 11
-5410.6900939914522
 21
717.36413539027558
  0
LINE
  8
_0-1_1_5
  6
CONTINUOUS
 62
    7
 10
-5410.6900939914522
 20
717.36413539027558
 11
-5410.6900939914522
 21
717.36413539027558
  0
LINE
  8
_0-1_1_5
  6
CONTINUOUS
 62
    7
 10
-5410.6900939914522
 20
717.36413539027558
 11
-5411.5583348797873
 21
717.21221292039763
  0
LINE
  8
_0-1_1_5
  6
CONTINUOUS
 62
    7
 10
-5411.5583348797873
 20
717.21221292039763
 11
-5412.4001947080806
 21
716.76106159813469
  0
LINE
  8
_0-1_1_5
  6
CONTINUOUS
 62
    7
 10
-5412.4001947080806
 20
716.76106159813469
 11
-5413.1900939914522
 21
716.02438942812
  0
LINE
  8
_0-1_1_5
  6
CONTINUOUS
 62
    7
 10
-5413.1900939914522
 20
716.02438942812
 11
-5413.9040320398844
 21
715.02457982146541
  0
LINE
  8
_0-1_1_5
  6
CONTINUOUS
 62
    7
 10
-5413.9040320398844
 20
715.02457982146541
 11
-5414.5203162070475
 21
713.79201148714094
  0
LINE
  8
_0-1_1_5
  6
CONTINUOUS
 62
    7
 10
-5414.5203162070475
 20
713.79201148714094
 11
-5415.0202210103744
 21
712.36413539027558
  0
LINE
  8
_0-1_1_5
  6
CONTINUOUS
 62
    7
 10
-5415.0202210103744
 20
712.36413539027558
 11
-5415.3885570953817
 21
710.78433682353227
  0
LINE
  8
_0-1_1_5
  6
CONTINUOUS
 62
    7
 10
-5415.3885570953817
 20
710.78433682353227
 11
-5415.6141327565128
 21
709.10061716694486
  0
LINE
  8
_0-1_1_5
  6
CONTINUOUS
 62
    7
 10
-5415.6141327565128
 20
709.10061716694486
 11
-5415.6900939914522
 21
707.36413539027558
  0
LINE
  8
_0-1_1_5
  6
CONTINUOUS
 62
    7
 10
-5415.6900939914522
 20
707.36413539027558
 11
-5415.6141327565128
 21
705.6276536136063
  0
LINE
  8
_0-1_1_5
  6
CONTINUOUS
 62
    7
 10
-5415.6141327565128
 20
705.6276536136063
 11
-5415.3885570953817
 21
703.94393395701888
  0
LINE
  8
_0-1_1_5
  6
CONTINUOUS
 62
    7
 10
-5415.3885570953817
 20
703.94393395701888
 11
-5415.0202210103744
 21
702.36413539027558
  0
LINE
  8
_0-1_1_5
  6
CONTINUOUS
 62
    7
 10
-5415.0202210103744
 20
702.36413539027558
 11
-5414.5203162070475
 21
700.93625929341022
  0
LINE
  8
_0-1_1_5
  6
CONTINUOUS
 62
    7
 10
-5414.5203162070475
 20
700.93625929341022
 11
-5413.9040320398844
 21
699.70369095908575
  0
LINE
  8
_0-1_1_5
  6
CONTINUOUS
 62
    7
 10
-5413.9040320398844
 20
699.70369095908575
 11
-5413.1900939914522
 21
698.70388135243115
  0
LINE
  8
_0-1_1_5
  6
CONTINUOUS
 62
    7
 10
-5413.1900939914522
 20
698.70388135243115
 11
-5412.4001947080806
 21
697.96720918241647
  0
LINE
  8
_0-1_1_5
  6
CONTINUOUS
 62
    7
 10
-5412.4001947080806
 20
697.96720918241647
 11
-5411.5583348797873
 21
697.51605786015352
  0
LINE
  8
_0-1_1_5
  6
CONTINUOUS
 62
    7
 10
-5411.5583348797873
 20
697.51605786015352
 11
-5410.6900939914522
 21
697.36413539027558
  0
LINE
  8
_0-1_1_5
  6
CONTINUOUS
 62
    7
 10
-5410.6900939914522
 20
697.36413539027558
 11
-5410.6900939914522
 21
697.36413539027558
  0
LINE
  8
_0-1_1_5
  6
CENTER2
 62
    7
 10
-5413.1900939914522
 20
707.36413539027558
 11
-5408.1900939914522
 21
707.36413539027558
  0
LINE
  8
_0-1_1_5
  6
CENTER2
 62
    7
 10
-5410.6900939914522
 20
709.86413539027558
 11
-5410.6900939914522
 21
704.86413539027558
  0
LINE
  8
_0-1_1_5
  6
CONTINUOUS
 62
    7
 10
-4962.6900939914522
 20
697.36413539027558
 11
-4962.6900939914522
 21
697.36413539027558
  0
LINE
  8
_0-1_1_5
  6
CONTINUOUS
 62
    7
 10
-4962.6900939914522
 20
697.36413539027558
 11
-4961.8218531031171
 21
697.51605786015352
  0
LINE
  8
_0-1_1_5
  6
CONTINUOUS
 62
    7
 10
-4961.8218531031171
 20
697.51605786015352
 11
-4960.9799932748238
 21
697.96720918241647
  0
LINE
  8
_0-1_1_5
  6
CONTINUOUS
 62
    7
 10
-4960.9799932748238
 20
697.96720918241647
 11
-4960.1900939914522
 21
698.70388135243115
  0
LINE
  8
_0-1_1_5
  6
CONTINUOUS
 62
    7
 10
-4960.1900939914522
 20
698.70388135243115
 11
-4959.4761559430199
 21
699.70369095908575
  0
LINE
  8
_0-1_1_5
  6
CONTINUOUS
 62
    7
 10
-4959.4761559430199
 20
699.70369095908575
 11
-4958.8598717758568
 21
700.93625929341022
  0
LINE
  8
_0-1_1_5
  6
CONTINUOUS
 62
    7
 10
-4958.8598717758568
 20
700.93625929341022
 11
-4958.3599669725299
 21
702.36413539027558
  0
LINE
  8
_0-1_1_5
  6
CONTINUOUS
 62
    7
 10
-4958.3599669725299
 20
702.36413539027558
 11
-4957.9916308875227
 21
703.94393395701888
  0
LINE
  8
_0-1_1_5
  6
CONTINUOUS
 62
    7
 10
-4957.9916308875227
 20
703.94393395701888
 11
-4957.7660552263915
 21
705.6276536136063
  0
LINE
  8
_0-1_1_5
  6
CONTINUOUS
 62
    7
 10
-4957.7660552263915
 20
705.6276536136063
 11
-4957.6900939914522
 21
707.36413539027558
  0
LINE
  8
_0-1_1_5
  6
CONTINUOUS
 62
    7
 10
-4957.6900939914522
 20
707.36413539027558
 11
-4957.7660552263915
 21
709.10061716694486
  0
LINE
  8
_0-1_1_5
  6
CONTINUOUS
 62
    7
 10
-4957.7660552263915
 20
709.10061716694486
 11
-4957.9916308875227
 21
710.78433682353227
  0
LINE
  8
_0-1_1_5
  6
CONTINUOUS
 62
    7
 10
-4957.9916308875227
 20
710.78433682353227
 11
-4958.3599669725299
 21
712.36413539027558
  0
LINE
  8
_0-1_1_5
  6
CONTINUOUS
 62
    7
 10
-4958.3599669725299
 20
712.36413539027558
 11
-4958.8598717758568
 21
713.79201148714094
  0
LINE
  8
_0-1_1_5
  6
CONTINUOUS
 62
    7
 10
-4958.8598717758568
 20
713.79201148714094
 11
-4959.4761559430199
 21
715.02457982146541
  0
LINE
  8
_0-1_1_5
  6
CONTINUOUS
 62
    7
 10
-4959.4761559430199
 20
715.02457982146541
 11
-4960.1900939914522
 21
716.02438942812
  0
LINE
  8
_0-1_1_5
  6
CONTINUOUS
 62
    7
 10
-4960.1900939914522
 20
716.02438942812
 11
-4960.9799932748238
 21
716.76106159813469
  0
LINE
  8
_0-1_1_5
  6
CONTINUOUS
 62
    7
 10
-4960.9799932748238
 20
716.76106159813469
 11
-4961.8218531031171
 21
717.21221292039763
  0
LINE
  8
_0-1_1_5
  6
CONTINUOUS
 62
    7
 10
-4961.8218531031171
 20
717.21221292039763
 11
-4962.6900939914522
 21
717.36413539027558
  0
LINE
  8
_0-1_1_5
  6
CONTINUOUS
 62
    7
 10
-4962.6900939914522
 20
717.36413539027558
 11
-4962.6900939914522
 21
717.36413539027558
  0
LINE
  8
_0-1_1_5
  6
DASHED1
 62
    7
 10
-4962.6900939914522
 20
717.36413539027558
 11
-4962.6900939914522
 21
717.36413539027558
  0
LINE
  8
_0-1_1_5
  6
DASHED1
 62
    7
 10
-4962.6900939914522
 20
717.36413539027558
 11
-4963.5583348797873
 21
717.21221292039763
  0
LINE
  8
_0-1_1_5
  6
DASHED1
 62
    7
 10
-4963.5583348797873
 20
717.21221292039763
 11
-4964.4001947080806
 21
716.76106159813469
  0
LINE
  8
_0-1_1_5
  6
DASHED1
 62
    7
 10
-4964.4001947080806
 20
716.76106159813469
 11
-4965.1900939914522
 21
716.02438942812
  0
LINE
  8
_0-1_1_5
  6
DASHED1
 62
    7
 10
-4965.1900939914522
 20
716.02438942812
 11
-4965.9040320398844
 21
715.02457982146541
  0
LINE
  8
_0-1_1_5
  6
DASHED1
 62
    7
 10
-4965.9040320398844
 20
715.02457982146541
 11
-4966.5203162070475
 21
713.79201148714094
  0
LINE
  8
_0-1_1_5
  6
DASHED1
 62
    7
 10
-4966.5203162070475
 20
713.79201148714094
 11
-4967.0202210103744
 21
712.36413539027558
  0
LINE
  8
_0-1_1_5
  6
DASHED1
 62
    7
 10
-4967.0202210103744
 20
712.36413539027558
 11
-4967.3885570953817
 21
710.78433682353227
  0
LINE
  8
_0-1_1_5
  6
DASHED1
 62
    7
 10
-4967.3885570953817
 20
710.78433682353227
 11
-4967.6141327565128
 21
709.10061716694486
  0
LINE
  8
_0-1_1_5
  6
DASHED1
 62
    7
 10
-4967.6141327565128
 20
709.10061716694486
 11
-4967.6900939914522
 21
707.36413539027558
  0
LINE
  8
_0-1_1_5
  6
DASHED1
 62
    7
 10
-4967.6900939914522
 20
707.36413539027558
 11
-4967.6141327565128
 21
705.6276536136063
  0
LINE
  8
_0-1_1_5
  6
DASHED1
 62
    7
 10
-4967.6141327565128
 20
705.6276536136063
 11
-4967.3885570953817
 21
703.94393395701888
  0
LINE
  8
_0-1_1_5
  6
DASHED1
 62
    7
 10
-4967.3885570953817
 20
703.94393395701888
 11
-4967.0202210103744
 21
702.36413539027558
  0
LINE
  8
_0-1_1_5
  6
DASHED1
 62
    7
 10
-4967.0202210103744
 20
702.36413539027558
 11
-4966.5203162070475
 21
700.93625929341022
  0
LINE
  8
_0-1_1_5
  6
DASHED1
 62
    7
 10
-4966.5203162070475
 20
700.93625929341022
 11
-4965.9040320398844
 21
699.70369095908586
  0
LINE
  8
_0-1_1_5
  6
DASHED1
 62
    7
 10
-4965.9040320398844
 20
699.70369095908586
 11
-4965.1900939914522
 21
698.70388135243115
  0
LINE
  8
_0-1_1_5
  6
DASHED1
 62
    7
 10
-4965.1900939914522
 20
698.70388135243115
 11
-4964.4001947080806
 21
697.96720918241647
  0
LINE
  8
_0-1_1_5
  6
DASHED1
 62
    7
 10
-4964.4001947080806
 20
697.96720918241647
 11
-4963.5583348797873
 21
697.51605786015352
  0
LINE
  8
_0-1_1_5
  6
DASHED1
 62
    7
 10
-4963.5583348797873
 20
697.51605786015352
 11
-4962.6900939914522
 21
697.36413539027558
  0
LINE
  8
_0-1_1_5
  6
DASHED1
 62
    7
 10
-4962.6900939914522
 20
697.36413539027558
 11
-4962.6900939914522
 21
697.36413539027558
  0
LINE
  8
_0-1_1_5
  6
CENTER2
 62
    7
 10
-4965.1900939914522
 20
707.36413539027558
 11
-4960.1900939914522
 21
707.36413539027558
  0
LINE
  8
_0-1_1_5
  6
CENTER2
 62
    7
 10
-4962.6900939914522
 20
709.86413539027558
 11
-4962.6900939914522
 21
704.86413539027558
  0
LINE
  8
_0-1_1_5
  6
CONTINUOUS
 62
    7
 10
-4763.492560100819
 20
717.36413539027558
 11
-4793.492560100819
 21
717.36413539027558
  0
LINE
  8
_0-1_1_5
  6
CONTINUOUS
 62
    7
 10
-4763.492560100819
 20
717.36413539027558
 11
-4763.492560100819
 21
697.36413539027558
  0
LINE
  8
_0-1_1_5
  6
CONTINUOUS
 62
    7
 10
-4763.492560100819
 20
697.36413539027558
 11
-4793.492560100819
 21
697.36413539027558
  0
LINE
  8
_0-1_1_5
  6
DASHED1
 62
    7
 10
-4793.492560100819
 20
697.36413539027558
 11
-4793.492560100819
 21
697.36413539027558
  0
LINE
  8
_0-1_1_5
  6
DASHED1
 62
    7
 10
-4793.492560100819
 20
697.36413539027558
 11
-4792.6243192124839
 21
697.51605786015352
  0
LINE
  8
_0-1_1_5
  6
DASHED1
 62
    7
 10
-4792.6243192124839
 20
697.51605786015352
 11
-4791.7824593841906
 21
697.96720918241647
  0
LINE
  8
_0-1_1_5
  6
DASHED1
 62
    7
 10
-4791.7824593841906
 20
697.96720918241647
 11
-4790.992560100819
 21
698.70388135243115
  0
LINE
  8
_0-1_1_5
  6
DASHED1
 62
    7
 10
-4790.992560100819
 20
698.70388135243115
 11
-4790.2786220523867
 21
699.70369095908575
  0
LINE
  8
_0-1_1_5
  6
DASHED1
 62
    7
 10
-4790.2786220523867
 20
699.70369095908575
 11
-4789.6623378852237
 21
700.93625929341022
  0
LINE
  8
_0-1_1_5
  6
DASHED1
 62
    7
 10
-4789.6623378852237
 20
700.93625929341022
 11
-4789.1624330818968
 21
702.36413539027558
  0
LINE
  8
_0-1_1_5
  6
DASHED1
 62
    7
 10
-4789.1624330818968
 20
702.36413539027558
 11
-4788.7940969968895
 21
703.94393395701888
  0
LINE
  8
_0-1_1_5
  6
DASHED1
 62
    7
 10
-4788.7940969968895
 20
703.94393395701888
 11
-4788.5685213357583
 21
705.6276536136063
  0
LINE
  8
_0-1_1_5
  6
DASHED1
 62
    7
 10
-4788.5685213357583
 20
705.6276536136063
 11
-4788.492560100819
 21
707.36413539027558
  0
LINE
  8
_0-1_1_5
  6
DASHED1
 62
    7
 10
-4788.492560100819
 20
707.36413539027558
 11
-4788.5685213357583
 21
709.10061716694486
  0
LINE
  8
_0-1_1_5
  6
DASHED1
 62
    7
 10
-4788.5685213357583
 20
709.10061716694486
 11
-4788.7940969968895
 21
710.78433682353227
  0
LINE
  8
_0-1_1_5
  6
DASHED1
 62
    7
 10
-4788.7940969968895
 20
710.78433682353227
 11
-4789.1624330818968
 21
712.36413539027558
  0
LINE
  8
_0-1_1_5
  6
DASHED1
 62
    7
 10
-4789.1624330818968
 20
712.36413539027558
 11
-4789.6623378852237
 21
713.79201148714094
  0
LINE
  8
_0-1_1_5
  6
DASHED1
 62
    7
 10
-4789.6623378852237
 20
713.79201148714094
 11
-4790.2786220523867
 21
715.0245798214653
  0
LINE
  8
_0-1_1_5
  6
DASHED1
 62
    7
 10
-4790.2786220523867
 20
715.0245798214653
 11
-4790.992560100819
 21
716.02438942812
  0
LINE
  8
_0-1_1_5
  6
DASHED1
 62
    7
 10
-4790.992560100819
 20
716.02438942812
 11
-4791.7824593841906
 21
716.76106159813469
  0
LINE
  8
_0-1_1_5
  6
DASHED1
 62
    7
 10
-4791.7824593841906
 20
716.76106159813469
 11
-4792.6243192124839
 21
717.21221292039763
  0
LINE
  8
_0-1_1_5
  6
DASHED1
 62
    7
 10
-4792.6243192124839
 20
717.21221292039763
 11
-4793.492560100819
 21
717.36413539027558
  0
LINE
  8
_0-1_1_5
  6
DASHED1
 62
    7
 10
-4793.492560100819
 20
717.36413539027558
 11
-4793.492560100819
 21
717.36413539027558
  0
LINE
  8
_0-1_1_5
  6
CONTINUOUS
 62
    7
 10
-4793.492560100819
 20
717.36413539027558
 11
-4793.492560100819
 21
717.36413539027558
  0
LINE
  8
_0-1_1_5
  6
CONTINUOUS
 62
    7
 10
-4793.492560100819
 20
717.36413539027558
 11
-4794.3608009891541
 21
717.21221292039763
  0
LINE
  8
_0-1_1_5
  6
CONTINUOUS
 62
    7
 10
-4794.3608009891541
 20
717.21221292039763
 11
-4795.2026608174474
 21
716.76106159813469
  0
LINE
  8
_0-1_1_5
  6
CONTINUOUS
 62
    7
 10
-4795.2026608174474
 20
716.76106159813469
 11
-4795.992560100819
 21
716.02438942812
  0
LINE
  8
_0-1_1_5
  6
CONTINUOUS
 62
    7
 10
-4795.992560100819
 20
716.02438942812
 11
-4796.7064981492513
 21
715.02457982146541
  0
LINE
  8
_0-1_1_5
  6
CONTINUOUS
 62
    7
 10
-4796.7064981492513
 20
715.02457982146541
 11
-4797.3227823164143
 21
713.79201148714094
  0
LINE
  8
_0-1_1_5
  6
CONTINUOUS
 62
    7
 10
-4797.3227823164143
 20
713.79201148714094
 11
-4797.8226871197412
 21
712.36413539027558
  0
LINE
  8
_0-1_1_5
  6
CONTINUOUS
 62
    7
 10
-4797.8226871197412
 20
712.36413539027558
 11
-4798.1910232047485
 21
710.78433682353227
  0
LINE
  8
_0-1_1_5
  6
CONTINUOUS
 62
    7
 10
-4798.1910232047485
 20
710.78433682353227
 11
-4798.4165988658797
 21
709.10061716694486
  0
LINE
  8
_0-1_1_5
  6
CONTINUOUS
 62
    7
 10
-4798.4165988658797
 20
709.10061716694486
 11
-4798.492560100819
 21
707.36413539027558
  0
LINE
  8
_0-1_1_5
  6
CONTINUOUS
 62
    7
 10
-4798.492560100819
 20
707.36413539027558
 11
-4798.4165988658797
 21
705.6276536136063
  0
LINE
  8
_0-1_1_5
  6
CONTINUOUS
 62
    7
 10
-4798.4165988658797
 20
705.6276536136063
 11
-4798.1910232047485
 21
703.94393395701888
  0
LINE
  8
_0-1_1_5
  6
CONTINUOUS
 62
    7
 10
-4798.1910232047485
 20
703.94393395701888
 11
-4797.8226871197412
 21
702.36413539027558
  0
LINE
  8
_0-1_1_5
  6
CONTINUOUS
 62
    7
 10
-4797.8226871197412
 20
702.36413539027558
 11
-4797.3227823164143
 21
700.93625929341022
  0
LINE
  8
_0-1_1_5
  6
CONTINUOUS
 62
    7
 10
-4797.3227823164143
 20
700.93625929341022
 11
-4796.7064981492513
 21
699.70369095908575
  0
LINE
  8
_0-1_1_5
  6
CONTINUOUS
 62
    7
 10
-4796.7064981492513
 20
699.70369095908575
 11
-4795.992560100819
 21
698.70388135243115
  0
LINE
  8
_0-1_1_5
  6
CONTINUOUS
 62
    7
 10
-4795.992560100819
 20
698.70388135243115
 11
-4795.2026608174474
 21
697.96720918241647
  0
LINE
  8
_0-1_1_5
  6
CONTINUOUS
 62
    7
 10
-4795.2026608174474
 20
697.96720918241647
 11
-4794.3608009891541
 21
697.51605786015352
  0
LINE
  8
_0-1_1_5
  6
CONTINUOUS
 62
    7
 10
-4794.3608009891541
 20
697.51605786015352
 11
-4793.492560100819
 21
697.36413539027558
  0
LINE
  8
_0-1_1_5
  6
CONTINUOUS
 62
    7
 10
-4793.492560100819
 20
697.36413539027558
 11
-4793.492560100819
 21
697.36413539027558
  0
LINE
  8
_0-1_1_5
  6
CENTER2
 62
    7
 10
-4761.492560100819
 20
707.36413539027558
 11
-4773.492560100819
 21
707.36413539027558
  0
TEXT
  8
_0-2_ADD_LINE
 62
    7
 10
-4727.3520885381267
 20
689.33685571841613
 40
12.4
 41
1
 50
0
  1
M4
  0
POINT
  8
_0-2_ADD_LINE
 62
    7
 10
-5410.6900939914522
 20
780.00525686953063
  0
POINT
  8
_0-2_ADD_LINE
 62
    7
 10
-4962.6900939914522
 20
780.00525686953063
  0
LINE
  8
_0-3_
  6
CONTINUOUS
 62
    7
 10
-5410.6900939914522
 20
780.00525686953063
 11
-4962.6900939914522
 21
780.00525686953063
  0
TEXT
  8
_0-3_
 62
    4
 10
-5194.1900939914522
 20
782.00525686953063
 40
10
 41
1
 50
0
  1
448
  0
POINT
  8
_0-2_ADD_LINE
 62
    7
 10
-5415.7652431328515
 20
816.53423794172954
  0
POINT
  8
_0-2_ADD_LINE
 62
    7
 10
-4957.278547494624
 20
816.53423794172954
  0
LINE
  8
_0-3_
  6
CONTINUOUS
 62
    7
 10
-5415.7652431328515
 20
816.53423794172954
 11
-4957.278547494624
 21
816.53423794172954
  0
TEXT
  8
_0-3_
 62
    4
 10
-5194.0218953137373
 20
818.53423794172954
 40
10
 41
1
 50
0
  1
458
  0
LINE
  8
_0-2_ADD_LINE
  6
CONTINUOUS
 62
    7
 10
-5415.7652431328515
 20
816.53423794172954
 11
-5415.7652431328515
 21
717.05660301743933
  0
LINE
  8
_0-2_ADD_LINE
  6
CONTINUOUS
 62
    7
 10
-5410.6900939914522
 20
780.00525686953063
 11
-5410.6900939914522
 21
712.86413539027558
  0
LINE
  8
_0-2_ADD_LINE
  6
CONTINUOUS
 62
    7
 10
-4962.6900939914522
 20
780.00525686953063
 11
-4962.6900939914522
 21
712.86413539027558
  0
LINE
  8
_0-2_ADD_LINE
  6
CONTINUOUS
 62
    7
 10
-4957.278547494624
 20
816.53423794172954
 11
-4957.278547494624
 21
717.05660301743933
  0
POINT
  8
_0-2_ADD_LINE
 62
    7
 10
-4925.8850606515816
 20
560.10607163049076
  0
POINT
  8
_0-2_ADD_LINE
 62
    7
 10
-4925.8850606515816
 20
525.10607163049076
  0
LINE
  8
_0-2_ADD_LINE
  6
CONTINUOUS
 62
    7
 10
-4925.8850606515816
 20
560.10607163049076
 11
-4949.6900939914522
 21
560.10607163049076
  0
LINE
  8
_0-2_ADD_LINE
  6
CONTINUOUS
 62
    7
 10
-4925.8850606515816
 20
525.10607163049076
 11
-4949.6900939914522
 21
525.10607163049076
  0
LINE
  8
_0-3_
  6
CONTINUOUS
 62
    7
 10
-4925.8850606515816
 20
560.10607163049076
 11
-4925.8850606515816
 21
525.10607163049076
  0
TEXT
  8
_0-3_
 62
    4
 10
-4927.8850606515816
 20
537.60607163049076
 40
10
 41
1
 50
90
  1
35
  0
LINE
  8
_0-2_ADD_LINE
  6
CONTINUOUS
 62
    7
 10
-4763.3820308001714
 20
707.30827198481938
 11
-4740.218838103855
 21
687.83776218211892
  0
LINE
  8
_0-2_ADD_LINE
  6
CONTINUOUS
 62
    7
 10
-4740.218838103855
 20
687.83776218211892
 11
-4701.9492153882029
 21
687.83776218211892
  0
TEXT
  8
_0-3_
 62
    7
 10
-5277.3087697885685
 20
248.01743252540874
 40
12.4
 41
1
 50
0
  1
サテン
  0
LINE
  8
_0-1_1_5
  6
CONTINUOUS
 62
    7
 10
-5415.6900939914522
 20
525.10607163049076
 11
-4957.6900939914522
 21
525.10607163049076
  0
LINE
  8
_0-1_1_5
  6
CONTINUOUS
 62
    7
 10
-5405.6900939914522
 20
535.10607163049076
 11
-4967.6900939914522
 21
535.10607163049076
  0
LINE
  8
_0-1_1_5
  6
CENTER2
 62
    7
 10
-4962.6900939914522
 20
550.10607163049076
 11
-4962.6900939914522
 21
562.10607163049076
  0
LINE
  8
_0-1_1_5
  6
CONTINUOUS
 62
    7
 10
-4967.6900939914522
 20
560.10607163049076
 11
-4957.6900939914522
 21
560.10607163049076
  0
LINE
  8
_0-1_1_5
  6
CONTINUOUS
 62
    7
 10
-4967.6900939914522
 20
535.10607163049076
 11
-4967.6900939914522
 21
560.10607163049076
  0
LINE
  8
_0-1_1_5
  6
CONTINUOUS
 62
    7
 10
-4967.6900939914522
 20
535.10607163049076
 11
-4957.6900939914522
 21
525.10607163049076
  0
LINE
  8
_0-1_1_5
  6
CONTINUOUS
 62
    7
 10
-4957.6900939914522
 20
525.10607163049076
 11
-4957.6900939914522
 21
560.10607163049076
  0
LINE
  8
_0-1_1_5
  6
CENTER2
 62
    7
 10
-5410.6900939914522
 20
550.10607163049076
 11
-5410.6900939914522
 21
562.10607163049076
  0
LINE
  8
_0-1_1_5
  6
CONTINUOUS
 62
    7
 10
-5415.6900939914522
 20
560.10607163049076
 11
-5405.6900939914522
 21
560.10607163049076
  0
LINE
  8
_0-1_1_5
  6
CONTINUOUS
 62
    7
 10
-5415.6900939914522
 20
525.10607163049076
 11
-5405.6900939914522
 21
535.10607163049076
  0
LINE
  8
_0-1_1_5
  6
CONTINUOUS
 62
    7
 10
-5415.6900939914522
 20
525.10607163049076
 11
-5415.6900939914522
 21
560.10607163049076
  0
LINE
  8
_0-1_1_5
  6
CONTINUOUS
 62
    7
 10
-5405.6900939914522
 20
535.10607163049076
 11
-5405.6900939914522
 21
560.10607163049076
  0
POINT
  8
_0-2_ADD_LINE
 62
    7
 10
-5415.6900939914522
 20
577.37451353713868
  0
POINT
  8
_0-2_ADD_LINE
 62
    7
 10
-5405.6900939914522
 20
577.37451353713868
  0
LINE
  8
_0-2_ADD_LINE
  6
CONTINUOUS
 62
    7
 10
-5415.6900939914522
 20
577.37451353713868
 11
-5415.6900939914522
 21
564.7800529271592
  0
LINE
  8
_0-2_ADD_LINE
  6
CONTINUOUS
 62
    7
 10
-5405.6900939914522
 20
577.37451353713868
 11
-5405.6900939914522
 21
564.7800529271592
  0
LINE
  8
_0-2_ADD_LINE
  6
CONTINUOUS
 62
    7
 10
-5415.6900939914522
 20
577.37451353713868
 11
-5405.6900939914522
 21
577.37451353713868
  0
TEXT
  8
_0-2_ADD_LINE
 62
    4
 10
-5415.6900939914522
 20
579.37451353713868
 40
10
 41
1
 50
0
  1
10
  0
TEXT
  8
_0-3_
 62
    7
 10
-4901.94456231821
 20
271.42500122920251
 40
12.4
 41
1
 50
0
  1
TFP21-4044-002
  0
ENDSEC
  0
EOF
