  0
SECTION
  2
HEADER
  9
$ACADVER
  1
AC1009
  9
$INSBASE
 10
0
 20
0
 30
0
  9
$EXTMIN
 10
0
 20
0
  9
$EXTMAX
 10
594
 20
420
  9
$LIMMIN
 10
0
 20
0
  9
$LIMMAX
 10
594
 20
420
  9
$LTSCALE
 40
2
  0
ENDSEC
  0
SECTION
  2
TABLES
  0
TABLE
  2
LTYPE
 70
     9
  0
LTYPE
  2
CONTINUOUS
 70
    64
  3
実線
 72
    65
 73
     0
 40
0.0
  0
LTYPE
  2
DASHED1
 70
    64
  3
--  --  --  --  --  --  --  --  
 72
    65
 73
     2
 40
2.5
 49
1.25
 49
-1.25
  0
LTYPE
  2
DASHED2
 70
    64
  3
----    ----    ----    ----    
 72
    65
 73
     2
 40
5.0
 49
2.5
 49
-2.5
  0
LTYPE
  2
DASHED3
 70
    64
  3
------  ------  ------  ------  
 72
    65
 73
     2
 40
5.0
 49
3.75
 49
-1.25
  0
LTYPE
  2
CENTER1
 70
    64
  3
----- - ----- - ----- - ----- - 
 72
    65
 73
     4
 40
10.0
 49
6.25
 49
-1.25
 49
1.25
 49
-1.25
  0
LTYPE
  2
CENTER2
 70
    64
  3
----------  --  ----------  --  
 72
    65
 73
     4
 40
20.0
 49
12.5
 49
-2.5
 49
2.5
 49
-2.5
  0
LTYPE
  2
PHANTOM1
 70
    64
  3
--- - - --- - - --- - - --- - - 
 72
    65
 73
     6
 40
10.0
 49
3.25
 49
-1.25
 49
1.25
 49
-1.25
 49
1.25
 49
-1.25
  0
LTYPE
  2
PHANTOM2
 70
    64
  3
--------  -  -  --------  -  -  
 72
    65
 73
     6
 40
20.0
 49
10.0
 49
-2.5
 49
1.25
 49
-2.5
 49
1.25
 49
-2.5
  0
LTYPE
  2
DOT
 70
    64
  3
-   -   -   -   -   -   -   -   
 72
    65
 73
     2
 40
2.5
 49
0.625
 49
-1.875
  0
LTYPE
  2
DUMMY
 70
    64
  3
ダミー
 72
    65
 73
     0
 40
0.0
  0
LTYPE
  2
RAND1
 70
    64
  3
ランダム線1
 72
    65
 73
     4
 40
10.0
 49
1.0
 49
-2.0
 49
3.0
 49
-4.0
  0
LTYPE
  2
RAND2
 70
    64
  3
ランダム線2
 72
    65
 73
     4
 40
14.0
 49
2.0
 49
-3.0
 49
4.0
 49
-5.0
  0
LTYPE
  2
RAND3
 70
    64
  3
ランダム線3
 72
    65
 73
     4
 40
18.0
 49
3.0
 49
-4.0
 49
5.0
 49
-6.0
  0
LTYPE
  2
RAND4
 70
    64
  3
ランダム線4
 72
    65
 73
     4
 40
22.0
 49
4.0
 49
-5.0
 49
6.0
 49
-7.0
  0
LTYPE
  2
RAND5
 70
    64
  3
ランダム線5
 72
    65
 73
     4
 40
26.0
 49
5.0
 49
-6.0
 49
7.0
 49
-8.0
  0
LTYPE
  2
LONG1
 70
    64
  3
----------  --  ----------  --  
 72
    65
 73
     4
 40
40.0
 49
32.5
 49
-2.5
 49
2.5
 49
-2.5
  0
LTYPE
  2
LONG2
 70
    64
  3
--------  -  -  --------  -  -  
 72
    65
 73
     6
 40
40.0
 49
30.0
 49
-2.5
 49
1.25
 49
-2.5
 49
1.25
 49
-2.5
  0
LTYPE
  2
LONG3
 70
    64
  3
+++++++++++++++..+++++++++++++++
 72
    65
 73
     2
 40
40.0
 49
37.5
 49
-2.5
  0
LTYPE
  2
LONG4
 70
    64
  3
+++++++++++++++..+++++++++++++++
 72
    65
 73
     2
 40
80.0
 49
75.0
 49
-5.0
  0
LTYPE
  2
LONG5
 70
    64
  3
----------  --  ----------  --  
 72
    65
 73
     4
 40
60.0
 49
37.5
 49
-7.5
 49
7.5
 49
-7.5
  0
LTYPE
  2
dashed
 70
   64
  3
-------   -------------   ------
 72
   65
 73
    2
 40
7.5
 49
6
 49
-1.5
  0
LTYPE
  2
dashed_spaced
 70
   64
  3
----        --------        ----
 72
   65
 73
    2
 40
12
 49
6
 49
-6
  0
LTYPE
  2
long_dashed_dotted
 70
   64
  3
------------- --- --------------
 72
   65
 73
    4
 40
15.25
 49
12
 49
-1.5
 49
0.25
 49
-1.5
  0
LTYPE
  2
long_dashed_double-dotted
 70
   64
  3
----------- --- --- ------------
 72
   65
 73
    6
 40
17
 49
12
 49
-1.5
 49
0.25
 49
-1.5
 49
0.25
 49
-1.5
  0
LTYPE
  2
long_dashed_triplicate-dotted
 70
   64
  3
--------- --- --- --- ----------
 72
   65
 73
    8
 40
18.75
 49
12
 49
-1.5
 49
0.25
 49
-1.5
 49
0.25
 49
-1.5
 49
0.25
 49
-1.5
  0
LTYPE
  2
dotted
 70
   64
  3
   -       -       -       -    
 72
   65
 73
    2
 40
1.75
 49
0.25
 49
-1.5
  0
LTYPE
  2
chain
 70
   64
  3
-------------- -- --------------
 72
   65
 73
    4
 40
18.5
 49
12
 49
-1.5
 49
3.5
 49
-1.5
  0
LTYPE
  2
chain_double_dash
 70
   64
  3
------------ -- -- -------------
 72
   65
 73
    6
 40
23.5
 49
12
 49
-1.5
 49
3.5
 49
-1.5
 49
3.5
 49
-1.5
  0
LTYPE
  2
dashed_dotted
 70
   64
  3
-----------     -     ----------
 72
   65
 73
    4
 40
9.25
 49
6
 49
-1.5
 49
0.25
 49
-1.5
  0
LTYPE
  2
double-dashed_dotted
 70
   64
  3
------   -----------   -   -----
 72
   65
 73
    6
 40
16.75
 49
6
 49
-1.5
 49
6
 49
-1.5
 49
0.25
 49
-1.5
  0
LTYPE
  2
dashed_double-dotted
 70
   64
  3
---------    -    -    ---------
 72
   65
 73
    6
 40
11
 49
6
 49
-1.5
 49
0.25
 49
-1.5
 49
0.25
 49
-1.5
  0
LTYPE
  2
double-dashed_double-dotted
 70
   64
  3
-----   ---------   -   -   ----
 72
   65
 73
    8
 40
18.5
 49
6
 49
-1.5
 49
6
 49
-1.5
 49
0.25
 49
-1.5
 49
0.25
 49
-1.5
  0
LTYPE
  2
dashed_triplicate-dotted
 70
   64
  3
-------    -    -    -    ------
 72
   65
 73
    8
 40
12.75
 49
6
 49
-1.5
 49
0.25
 49
-1.5
 49
0.25
 49
-1.5
 49
0.25
 49
-1.5
  0
LTYPE
  2
double-dashed_triplicate-dotted
 70
   64
  3
-----  ---------  -  -  -  -----
 72
   65
 73
   10
 40
20.25
 49
6
 49
-1.5
 49
6
 49
-1.5
 49
0.25
 49
-1.5
 49
0.25
 49
-1.5
 49
0.25
 49
-1.5
  0
LTYPE
  2
undefined
 70
   64
  3
--------------------------------
 72
   65
 73
    0
 40
0
  0
LTYPE
  2
STYLE_01
 70
   64
  3
----        --------        ----
 72
   65
 73
    2
 40
0.4166399999999997
 49
0.2082799999999999
 49
-0.2083599999999999
  0
LTYPE
  2
STYLE_02
 70
   64
  3
------     -----------     -----
 72
   65
 73
    2
 40
0.694425
 49
0.48607
 49
-0.2083550000000001
  0
LTYPE
  2
STYLE_03
 70
   64
  3
-------   -------------   ------
 72
   65
 73
    2
 40
1.25
 49
1.0416400000000001
 49
-0.2083599999999999
  0
LTYPE
  2
STYLE_04
 70
   64
  3
-------  --------------  -------
 72
   65
 73
    2
 40
1.5277099999999999
 49
1.3194249999999998
 49
-0.208285
  0
LTYPE
  2
STYLE_05
 70
   64
  3
---           -----           --
 72
   65
 73
    2
 40
0.20828
 49
0.069425
 49
-0.138855
  0
LTYPE
  2
STYLE_06
 70
   64
  3
----------      --    ----------
 72
   65
 73
    4
 40
1.0416399999999999
 49
0.625
 49
-0.2082799999999999
 49
0.06943
 49
-0.13893
  0
LTYPE
  2
STYLE_07
 70
   64
  3
-----    -----------    -  -----
 72
   65
 73
    6
 40
1.8749999999999998
 49
0.625
 49
-0.2082799999999999
 49
0.6250000000000001
 49
-0.2083599999999999
 49
0.06943
 49
-0.1389299999999998
  0
LTYPE
  2
STYLE_08
 70
   64
  3
--------     --    --    -------
 72
   65
 73
    6
 40
1.2499999999999996
 49
0.625
 49
-0.2082799999999999
 49
0.06943
 49
-0.13893
 49
0.0694299999999997
 49
-0.13893
  0
LTYPE
  2
STYLE_09
 70
   64
  3
------------  ----  ------------
 72
   65
 73
    4
 40
5
 49
3.75
 49
-0.2777849999999997
 49
0.6944300000000003
 49
-0.2777849999999997
  0
LTYPE
  2
STYLE_10
 70
   64
  3
----------- ---- ---  ----------
 72
   65
 73
    6
 40
5.9375
 49
3.75
 49
-0.2777849999999997
 49
0.6944300000000003
 49
-0.2777849999999997
 49
0.625
 49
-0.3125
  0
ENDTAB
  0
TABLE
  2
STYLE
  5
3
100
AcDbSymbolTable
 70
     1
  0
STYLE
  5
10
100
AcDbSymbolTableRecord
100
AcDbTextStyleTableRecord
  2
STANDARD
 70
     0
 40
0.0
 41
1.0
 50
0.0
 71
     0
 42
0.2
  3
txt
  4
bigfont.shx
  0
STYLE
  5
26
100
AcDbSymbolTableRecord
100
AcDbTextStyleTableRecord
  2
TATEGAKI
 70
    68
 40
0.0
 41
1.0
 50
0.0
 71
     0
 42
1.0
  3
txt
  4
bigfont.shx
  0
ENDTAB
  0
TABLE
  2
LAYER
 70
    5
  0
LAYER
  2
_0-0_0
 70
   64
 62
    7
  6
CONTINUOUS
  0
LAYER
  2
_0-1_1_5
 70
   64
 62
    7
  6
CONTINUOUS
  0
LAYER
  2
_0-2_ADD_LINE
 70
   64
 62
    7
  6
CONTINUOUS
  0
LAYER
  2
_0-3_
 70
   64
 62
    7
  6
CONTINUOUS
  0
LAYER
  2
ADD_LINE
 70
   64
 62
    7
  6
CONTINUOUS
  0
ENDTAB
  0
ENDSEC
  0
SECTION
  2
BLOCKS
  0
ENDSEC
  0
SECTION
  2
ENTITIES
  0
ARC
  8
_0-1_1_5
  6
CONTINUOUS
 62
    7
 10
190.52853118498638
 20
29.501538175847287
 40
4.0000000000000018
 50
270
 51
90
  0
TEXT
  8
_0-3_
 62
    7
 10
135.16691074515126
 20
-66.290244160930513
 40
6.1081542968750009
 41
1
 50
0
  1
ステンレススチール
  0
LINE
  8
_0-0_0
  6
CONTINUOUS
 62
    7
 10
-87.019906738806753
 20
335.75937008357874
 11
-87.019906738806753
 21
-84.240629916421256
  0
LINE
  8
_0-0_0
  6
CONTINUOUS
 62
    7
 10
-87.019906738806753
 20
-84.240629916421256
 11
506.98009326119325
 21
-84.240629916421312
  0
LINE
  8
_0-0_0
  6
CONTINUOUS
 62
    7
 10
506.98009326119325
 20
-84.240629916421312
 11
506.98009326119325
 21
335.75937008357869
  0
LINE
  8
_0-0_0
  6
CONTINUOUS
 62
    7
 10
506.98009326119325
 20
335.75937008357869
 11
-87.019906738806753
 21
335.75937008357874
  0
TEXT
  8
_0-3_
 62
    7
 10
121.25741447433936
 20
-62.900519036372998
 40
4
 41
1
 50
0
  1
材質
  0
TEXT
  8
_0-3_
 62
    7
 10
121.25741447433936
 20
-50.417785461709059
 40
4
 41
1
 50
0
  1
仕上げ
  0
TEXT
  8
_0-3_
 62
    7
 10
121.25741447433936
 20
-38.559188565778356
 40
4
 41
1
 50
0
  1
品名
  0
LINE
  8
_0-3_
  6
CONTINUOUS
 62
    7
 10
305.33333332004827
 20
-68.800541471740075
 11
305.33333332004827
 21
-32.800541471740019
  0
LINE
  8
_0-3_
  6
CONTINUOUS
 62
    7
 10
492.00000000004832
 20
-32.800541471740019
 11
118.30557488476475
 21
-32.800541471740019
  0
LINE
  8
_0-3_
  6
CONTINUOUS
 62
    7
 10
492.00000000004832
 20
-44.800541471740019
 11
118.30557488476475
 21
-44.800541471740019
  0
LINE
  8
_0-3_
  6
CONTINUOUS
 62
    7
 10
492.00000000004832
 20
-56.800541471740019
 11
118.30557488476475
 21
-56.800541471740019
  0
LINE
  8
_0-3_
  6
CONTINUOUS
 62
    7
 10
118.30557488476475
 20
-68.800541471740019
 11
118.30557488476475
 21
-32.800541471740019
  0
TEXT
  8
_0-3_
 62
    7
 10
307.90644669306869
 20
-39.060319445408652
 40
4
 41
1
 50
0
  1
品番
  0
TEXT
  8
_0-3_
 62
    7
 10
307.90644669306869
 20
-50.739042164100738
 40
4
 41
1
 50
0
  1
縮尺
  0
TEXT
  8
_0-3_
 62
    7
 10
-66.888093986564627
 20
-76.72518315284276
 40
5
 41
1
 50
0
  1
120718SH
  0
LINE
  8
_0-3_
  6
CONTINUOUS
 62
    7
 10
-67.999999999951683
 20
321.1994585282601
 11
-67.999999999951683
 21
-68.800541471740019
  0
LINE
  8
_0-3_
  6
CONTINUOUS
 62
    7
 10
-67.999999999951683
 20
-68.800541471740019
 11
492.00000000004832
 21
-68.800541471740075
  0
LINE
  8
_0-3_
  6
CONTINUOUS
 62
    7
 10
492.00000000004832
 20
-68.800541471740075
 11
492.00000000004832
 21
321.19945852826004
  0
LINE
  8
_0-3_
  6
CONTINUOUS
 62
    7
 10
492.00000000004832
 20
321.19945852826004
 11
-67.999999999951683
 21
321.1994585282601
  0
TEXT
  8
_0-3_
 62
    7
 10
135.16691074515126
 20
-41.881749615713943
 40
6.1081542968750009
 41
1
 50
0
  1
タオルバー
  0
TEXT
  8
_0-3_
 62
    7
 10
321.84362785127729
 20
-66.996859894418549
 40
6.2000000000000002
 41
1
 50
0
  1
大洋金物株式会社  ティーエフプラス事業部
  0
LINE
  8
_0-1_1_5
  6
CONTINUOUS
 62
    7
 10
101.36337979507437
 20
226.45779576624784
 11
69.52853118498615
 21
226.45779576624784
  0
LINE
  8
_0-1_1_5
  6
CONTINUOUS
 62
    7
 10
151.52853118498615
 20
226.45779576624784
 11
119.69368257489805
 21
226.45779576624784
  0
LINE
  8
_0-1_1_5
  6
CONTINUOUS
 62
    7
 10
69.52853118498615
 20
140.45779576624784
 11
151.52853118498615
 21
140.45779576624784
  0
LINE
  8
_0-1_1_5
  6
CONTINUOUS
 62
    7
 10
151.52853118498615
 20
148.45779576624784
 11
69.52853118498615
 21
148.45779576624784
  0
LINE
  8
_0-1_1_5
  6
CONTINUOUS
 62
    7
 10
119.69368257489805
 20
218.45779576624784
 11
151.52853118498615
 21
218.45779576624784
  0
LINE
  8
_0-1_1_5
  6
CONTINUOUS
 62
    7
 10
69.52853118498615
 20
218.45779576624784
 11
101.36337979507437
 21
218.45779576624784
  0
ARC
  8
_0-1_1_5
  6
CONTINUOUS
 62
    7
 10
151.52853118498615
 20
183.45779576624784
 40
35
 50
270
 51
90
  0
ARC
  8
_0-1_1_5
  6
CONTINUOUS
 62
    7
 10
151.52853118498615
 20
183.45779576624784
 40
43
 50
270
 51
90
  0
ARC
  8
_0-1_1_5
  6
CONTINUOUS
 62
    7
 10
69.52853118498615
 20
183.45779576624784
 40
35
 50
90
 51
270
  0
ARC
  8
_0-1_1_5
  6
CONTINUOUS
 62
    7
 10
69.52853118498615
 20
183.45779576624784
 40
43
 50
90
 51
270
  0
ARC
  8
_0-1_1_5
  6
CONTINUOUS
 62
    7
 10
110.52853118498615
 20
222.45779576624784
 40
13.999999999999998
 50
196.60154959902005
 51
343.3984504009797
  0
ARC
  8
_0-1_1_5
  6
CONTINUOUS
 62
    7
 10
110.52853118498615
 20
222.45779576624784
 40
13.999999999999954
 50
16.601549599020295
 51
163.39845040097975
  0
CIRCLE
  8
_0-1_1_5
  6
CONTINUOUS
 62
    7
 10
110.52853118498615
 20
222.45779576624784
 40
10
  0
LINE
  8
_0-1_1_5
  6
CENTER2
 62
    7
 10
106.52853118498615
 20
222.46447770684085
 11
114.52853118498615
 21
222.46447770684085
  0
LINE
  8
_0-1_1_5
  6
CENTER2
 62
    7
 10
106.52853118498615
 20
222.46447770684085
 11
114.52853118498615
 21
222.46447770684085
  0
LINE
  8
_0-1_1_5
  6
CENTER2
 62
    7
 10
110.52853118498615
 20
226.46447770684085
 11
110.52853118498615
 21
218.42438606328327
  0
LINE
  8
_0-1_1_5
  6
CONTINUOUS
 62
    7
 10
316.88158148608761
 20
222.45779576624787
 11
316.88158148608761
 21
144.45779576624787
  0
LINE
  8
_0-1_1_5
  6
CONTINUOUS
 62
    7
 10
308.88158148608761
 20
144.45779576624787
 11
308.88158148608761
 21
222.45779576624787
  0
ARC
  8
_0-1_1_5
  6
CONTINUOUS
 62
    7
 10
312.88158148608761
 20
222.45779576624787
 40
3.9999999999999964
 50
0
 51
180
  0
ARC
  8
_0-1_1_5
  6
CONTINUOUS
 62
    7
 10
312.88158148608761
 20
222.45779576624787
 40
5.0999999999999872
 50
321.65725073953172
 51
218.34274926046811
  0
LINE
  8
_0-1_1_5
  6
CONTINUOUS
 62
    7
 10
353.3815814860875
 20
208.45779576624787
 11
353.3815814860875
 21
236.45779576624787
  0
LINE
  8
_0-1_1_5
  6
CONTINUOUS
 62
    7
 10
357.3815814860875
 20
208.45779576624787
 11
353.3815814860875
 21
208.45779576624787
  0
LINE
  8
_0-1_1_5
  6
CONTINUOUS
 62
    7
 10
357.3815814860875
 20
236.45779576624787
 11
357.3815814860875
 21
208.45779576624787
  0
LINE
  8
_0-1_1_5
  6
CONTINUOUS
 62
    7
 10
353.3815814860875
 20
236.45779576624787
 11
357.3815814860875
 21
236.45779576624787
  0
LINE
  8
_0-1_1_5
  6
CONTINUOUS
 62
    7
 10
353.3815814860875
 20
212.45779576624787
 11
316.88158148608761
 21
212.45779576624787
  0
LINE
  8
_0-1_1_5
  6
CONTINUOUS
 62
    7
 10
353.3815814860875
 20
232.45779576624787
 11
353.3815814860875
 21
212.45779576624787
  0
LINE
  8
_0-1_1_5
  6
CONTINUOUS
 62
    7
 10
303.38158148608761
 20
232.45779576624787
 11
353.3815814860875
 21
232.45779576624787
  0
LINE
  8
_0-1_1_5
  6
CONTINUOUS
 62
    7
 10
303.38158148608761
 20
212.45779576624787
 11
303.38158148608761
 21
232.45779576624787
  0
LINE
  8
_0-1_1_5
  6
CONTINUOUS
 62
    7
 10
308.88158148608761
 20
212.45779576624787
 11
303.38158148608761
 21
212.45779576624787
  0
ARC
  8
_0-1_1_5
  6
CONTINUOUS
 62
    7
 10
312.88158148608761
 20
144.45779576624787
 40
4.0000000000000018
 50
180
 51
0
  0
LINE
  8
_0-1_1_5
  6
CONTINUOUS
 62
    7
 10
379.22456898998524
 20
224.21437970113675
 11
384.8500536775523
 21
222.46447770684085
  0
LINE
  8
_0-1_1_5
  6
DASHED2
 62
    7
 10
357.37316279185632
 20
228.34202235539937
 11
352.62316279185654
 21
228.34202235539937
  0
LINE
  8
_0-1_1_5
  6
DASHED2
 62
    7
 10
352.62316279185654
 20
228.34202235539937
 11
352.62316279185654
 21
227.34202235539925
  0
LINE
  8
_0-1_1_5
  6
DASHED2
 62
    7
 10
352.62316279185654
 20
227.34202235539925
 11
348.12316279185643
 21
227.34202235539925
  0
LINE
  8
_0-1_1_5
  6
DASHED2
 62
    7
 10
348.12316279185643
 20
227.34202235539925
 11
348.12316279185643
 21
228.34202235539937
  0
LINE
  8
_0-1_1_5
  6
DASHED2
 62
    7
 10
348.12316279185643
 20
228.34202235539937
 11
342.37316279185632
 21
228.34202235539937
  0
LINE
  8
_0-1_1_5
  6
DASHED2
 62
    7
 10
342.37316279185632
 20
228.34202235539937
 11
342.37316279185632
 21
227.34202235539925
  0
LINE
  8
_0-1_1_5
  6
DASHED2
 62
    7
 10
342.37316279185632
 20
227.34202235539925
 11
344.87316279185632
 21
224.84202235539925
  0
LINE
  8
_0-1_1_5
  6
DASHED2
 62
    7
 10
344.87316279185632
 20
224.84202235539925
 11
357.37316279185654
 21
224.84202235539925
  0
LINE
  8
_0-1_1_5
  6
DASHED2
 62
    7
 10
357.37316279185643
 20
224.84202235539925
 11
357.37316279185643
 21
219.84202235539925
  0
LINE
  8
_0-1_1_5
  6
CONTINUOUS
 62
    7
 10
356.37316279185632
 20
220.71457571254501
 11
379.22512291863302
 21
220.71457571254501
  0
LINE
  8
_0-1_1_5
  6
CONTINUOUS
 62
    7
 10
356.37316279185632
 20
224.21437970113675
 11
379.22456898998524
 21
224.21437970113675
  0
LINE
  8
_0-1_1_5
  6
CONTINUOUS
 62
    7
 10
360.94409795214642
 20
220.83138596558888
 11
362.35033064187621
 21
224.33118995418067
  0
LINE
  8
_0-1_1_5
  6
CONTINUOUS
 62
    7
 10
375.0064248494441
 20
220.83138596558888
 11
376.41265753917372
 21
224.33118995418067
  0
LINE
  8
_0-1_1_5
  6
CONTINUOUS
 62
    7
 10
377.81889022890357
 20
220.83138596558888
 11
379.22512291863302
 21
224.33118995418067
  0
LINE
  8
_0-1_1_5
  6
CONTINUOUS
 62
    7
 10
376.41265753917372
 20
220.83138596558888
 11
377.81889022890357
 21
224.33118995418067
  0
LINE
  8
_0-1_1_5
  6
CONTINUOUS
 62
    7
 10
373.60019215971408
 20
220.83138596558888
 11
375.0064248494441
 21
224.33118995418067
  0
LINE
  8
_0-1_1_5
  6
CONTINUOUS
 62
    7
 10
359.53786526241697
 20
220.83138596558888
 11
360.94409795214642
 21
224.33118995418067
  0
LINE
  8
_0-1_1_5
  6
CONTINUOUS
 62
    7
 10
372.19395946998441
 20
220.83138596558888
 11
373.60019215971408
 21
224.33118995418067
  0
LINE
  8
_0-1_1_5
  6
CONTINUOUS
 62
    7
 10
370.78772678025484
 20
220.83138596558888
 11
372.19395946998441
 21
224.33118995418067
  0
LINE
  8
_0-1_1_5
  6
CONTINUOUS
 62
    7
 10
369.38149409052494
 20
220.83138596558888
 11
370.78772678025484
 21
224.33118995418067
  0
LINE
  8
_0-1_1_5
  6
CONTINUOUS
 62
    7
 10
367.97526140079515
 20
220.83138596558888
 11
369.38149409052494
 21
224.33118995418067
  0
LINE
  8
_0-1_1_5
  6
CONTINUOUS
 62
    7
 10
366.56902871106547
 20
220.83138596558888
 11
367.97526140079515
 21
224.33118995418067
  0
LINE
  8
_0-1_1_5
  6
CONTINUOUS
 62
    7
 10
365.16279602133591
 20
220.83138596558888
 11
366.56902871106547
 21
224.33118995418067
  0
LINE
  8
_0-1_1_5
  6
CONTINUOUS
 62
    7
 10
362.35033064187621
 20
220.83138596558888
 11
363.75656333160623
 21
224.33118995418067
  0
LINE
  8
_0-1_1_5
  6
CONTINUOUS
 62
    7
 10
363.75656333160623
 20
220.83138596558888
 11
365.16279602133591
 21
224.33118995418067
  0
LINE
  8
_0-1_1_5
  6
CONTINUOUS
 62
    7
 10
358.13163257268673
 20
220.83138596558888
 11
359.53786526241697
 21
224.33118995418067
  0
LINE
  8
_0-1_1_5
  6
CONTINUOUS
 62
    7
 10
356.72539988295728
 20
220.83138596558888
 11
358.13163257268673
 21
224.33118995418067
  0
LINE
  8
_0-1_1_5
  6
CONTINUOUS
 62
    7
 10
384.8500536775523
 20
222.46447770684085
 11
379.22512291863302
 21
220.71457571254501
  0
LINE
  8
_0-1_1_5
  6
DASHED2
 62
    7
 10
344.87316279185632
 20
219.84202235539925
 11
357.37316279185654
 21
219.84202235539925
  0
LINE
  8
_0-1_1_5
  6
DASHED2
 62
    7
 10
342.37316279185632
 20
217.34202235539925
 11
344.87316279185632
 21
219.84202235539925
  0
LINE
  8
_0-1_1_5
  6
DASHED2
 62
    7
 10
342.37316279185632
 20
216.34202235539931
 11
342.37316279185632
 21
217.34202235539925
  0
LINE
  8
_0-1_1_5
  6
DASHED2
 62
    7
 10
348.12316279185643
 20
216.34202235539931
 11
342.37316279185632
 21
216.34202235539931
  0
LINE
  8
_0-1_1_5
  6
DASHED2
 62
    7
 10
348.12316279185643
 20
217.34202235539925
 11
348.12316279185643
 21
216.34202235539931
  0
LINE
  8
_0-1_1_5
  6
DASHED2
 62
    7
 10
352.62316279185654
 20
217.34202235539925
 11
348.12316279185643
 21
217.34202235539925
  0
LINE
  8
_0-1_1_5
  6
DASHED2
 62
    7
 10
352.62316279185654
 20
216.34202235539931
 11
352.62316279185654
 21
217.34202235539925
  0
LINE
  8
_0-1_1_5
  6
DASHED2
 62
    7
 10
357.37316279185632
 20
216.34202235539931
 11
352.62316279185654
 21
216.34202235539931
  0
LINE
  8
_0-1_1_5
  6
DASHED2
 62
    7
 10
344.65110453702346
 20
220.7145757125453
 11
360.37316279185643
 21
220.71457571254501
  0
LINE
  8
_0-1_1_5
  6
DASHED2
 62
    7
 10
344.65110453702346
 20
224.21437970113675
 11
360.37316279185643
 21
224.21437970113675
  0
LINE
  8
_0-1_1_5
  6
DASHED2
 62
    7
 10
342.90100653131924
 20
225.96447770684091
 11
344.65110453702346
 21
224.21437970113675
  0
LINE
  8
_0-1_1_5
  6
DASHED2
 62
    7
 10
344.65110453702346
 20
224.21437970113675
 11
344.65110453702346
 21
220.71457571254501
  0
LINE
  8
_0-1_1_5
  6
DASHED2
 62
    7
 10
344.65110453702346
 20
222.69955247283139
 11
345.30670181376797
 21
224.33118995418067
  0
LINE
  8
_0-1_1_5
  6
DASHED2
 62
    7
 10
345.30046912403839
 20
220.83138596558888
 11
346.70670181376829
 21
224.33118995418067
  0
LINE
  8
_0-1_1_5
  6
DASHED2
 62
    7
 10
346.70046912403836
 20
220.83138596558888
 11
348.10670181376815
 21
224.33118995418067
  0
LINE
  8
_0-1_1_5
  6
DASHED2
 62
    7
 10
348.10046912403857
 20
220.83138596558888
 11
349.50670181376802
 21
224.33118995418067
  0
LINE
  8
_0-1_1_5
  6
DASHED2
 62
    7
 10
349.50046912403843
 20
220.83138596558888
 11
350.906701813768
 21
224.33118995418067
  0
LINE
  8
_0-1_1_5
  6
DASHED2
 62
    7
 10
350.9004691240383
 20
220.83138596558888
 11
352.30670181376786
 21
224.33118995418067
  0
LINE
  8
_0-1_1_5
  6
DASHED2
 62
    7
 10
352.30046912403827
 20
220.83138596558888
 11
353.70670181376818
 21
224.33118995418067
  0
LINE
  8
_0-1_1_5
  6
DASHED2
 62
    7
 10
353.70046912403814
 20
220.83138596558888
 11
355.10670181376804
 21
224.33118995418067
  0
LINE
  8
_0-1_1_5
  6
DASHED2
 62
    7
 10
355.10046912403845
 20
220.83138596558888
 11
356.5067018137679
 21
224.33118995418067
  0
LINE
  8
_0-1_1_5
  6
STYLE_01
 62
    7
 10
342.90100653131924
 20
218.96447770684097
 11
344.651104537023
 21
220.71457571254501
  0
LINE
  8
_0-1_1_5
  6
DASHED2
 62
    7
 10
342.37316279185632
 20
217.34202235539925
 11
342.37316279185632
 21
227.34202235539925
  0
LINE
  8
_0-3_
  6
CONTINUOUS
 62
    7
 10
26.52853118498615
 20
251.69052929734016
 11
194.52853118498626
 21
251.69052929734016
  0
TEXT
  8
_0-2_ADD_LINE
 62
    4
 10
106.77853118498621
 20
252.69052929734016
 40
5
 41
1
 50
0
  1
168
  0
POINT
  8
_0-2_ADD_LINE
 62
    7
 10
194.52853118498626
 20
251.69052929734016
  0
POINT
  8
_0-2_ADD_LINE
 62
    7
 10
26.52853118498615
 20
251.69052929734016
  0
LINE
  8
_0-2_ADD_LINE
  6
CONTINUOUS
 62
    7
 10
194.52853118498626
 20
251.69052929734016
 11
194.52853118498626
 21
200.49148712413802
  0
LINE
  8
_0-2_ADD_LINE
  6
CONTINUOUS
 62
    7
 10
26.52853118498615
 20
251.69052929734016
 11
26.52853118498615
 21
200.49148712413802
  0
LINE
  8
_0-3_
  6
CONTINUOUS
 62
    7
 10
214.65397919332952
 20
226.45779576624784
 11
214.65397919332952
 21
140.45779576624784
  0
TEXT
  8
_0-2_ADD_LINE
 62
    4
 10
213.65397919332952
 20
180.95779576624784
 40
5
 41
1
 50
90
  1
86
  0
POINT
  8
_0-2_ADD_LINE
 62
    7
 10
214.65397919332952
 20
140.45779576624784
  0
POINT
  8
_0-2_ADD_LINE
 62
    7
 10
214.65397919332952
 20
226.45779576624784
  0
LINE
  8
_0-3_
  6
CONTINUOUS
 62
    7
 10
283.38158148608761
 20
232.45779576624787
 11
283.38158148608761
 21
212.45779576624787
  0
TEXT
  8
_0-2_ADD_LINE
 62
    4
 10
282.38158148608761
 20
219.95779576624787
 40
5
 41
1
 50
90
  1
20
  0
POINT
  8
_0-2_ADD_LINE
 62
    7
 10
283.38158148608761
 20
232.45779576624787
  0
LINE
  8
_0-2_ADD_LINE
  6
CONTINUOUS
 62
    7
 10
214.65397919332952
 20
226.45779576624784
 11
163.77742608385381
 21
226.45779576624787
  0
LINE
  8
_0-2_ADD_LINE
  6
CONTINUOUS
 62
    7
 10
214.65397919332952
 20
140.45779576624784
 11
163.77742608385381
 21
140.45779576624784
  0
TEXT
  8
_0-2_ADD_LINE
 62
    7
 10
282.99395473683626
 20
213.9126864898542
 40
6.1081542968750009
 41
1
 50
90
  1
φ
  0
POINT
  8
_0-2_ADD_LINE
 62
    7
 10
283.38158148608761
 20
212.45779576624787
  0
TEXT
  8
_0-2_ADD_LINE
 62
    4
 10
370.20843799368618
 20
178.31962483358615
 40
5
 41
1
 50
0
  1
3.5x40
  0
TEXT
  8
_0-2_ADD_LINE
 62
    4
 10
370.20843799368618
 20
185.93750017809606
 40
5
 41
1
 50
0
  1
タッピングビス
  0
LINE
  8
_0-2_ADD_LINE
  6
CONTINUOUS
 62
    7
 10
373.62582621604378
 20
220.73852892954244
 11
373.62582621604378
 21
194.12812870950327
  0
LINE
  8
_0-1_1_5
  6
CONTINUOUS
 62
    7
 10
100.48506748593036
 20
20.001538175847287
 11
100.48506748593036
 21
25.501538175847287
  0
LINE
  8
_0-1_1_5
  6
CONTINUOUS
 62
    7
 10
120.48506748593036
 20
20.001538175847287
 11
100.48506748593036
 21
20.001538175847287
  0
LINE
  8
_0-1_1_5
  6
CONTINUOUS
 62
    7
 10
120.48506748593036
 20
25.501538175847287
 11
120.48506748593036
 21
20.001538175847287
  0
LINE
  8
_0-1_1_5
  6
CONTINUOUS
 62
    7
 10
100.48506748593036
 20
33.501538175847287
 11
100.48506748593036
 21
70.00153817584706
  0
LINE
  8
_0-1_1_5
  6
CONTINUOUS
 62
    7
 10
100.48506748593036
 20
70.00153817584706
 11
120.48506748593036
 21
70.00153817584706
  0
LINE
  8
_0-1_1_5
  6
CONTINUOUS
 62
    7
 10
120.48506748593036
 20
70.00153817584706
 11
120.48506748593036
 21
33.501538175847287
  0
LINE
  8
_0-1_1_5
  6
CONTINUOUS
 62
    7
 10
100.48506748593036
 20
25.501538175847287
 11
30.441603786874339
 21
25.501538175847287
  0
LINE
  8
_0-1_1_5
  6
CONTINUOUS
 62
    7
 10
100.48506748593036
 20
33.501538175847287
 11
30.441603786874339
 21
33.501538175847287
  0
LINE
  8
_0-1_1_5
  6
CONTINUOUS
 62
    7
 10
100.48506748593036
 20
25.501538175847287
 11
100.48506748593036
 21
25.501538175847287
  0
LINE
  8
_0-1_1_5
  6
CONTINUOUS
 62
    7
 10
100.48506748593036
 20
25.501538175847287
 11
100.6239860280639
 21
25.562307163798454
  0
LINE
  8
_0-1_1_5
  6
CONTINUOUS
 62
    7
 10
100.6239860280639
 20
25.562307163798454
 11
100.7586836005909
 21
25.742767692703652
  0
LINE
  8
_0-1_1_5
  6
CONTINUOUS
 62
    7
 10
100.7586836005909
 20
25.742767692703652
 11
100.88506748593036
 21
26.03743656070953
  0
LINE
  8
_0-1_1_5
  6
CONTINUOUS
 62
    7
 10
100.88506748593036
 20
26.03743656070953
 11
100.99929757367958
 21
26.437360403371375
  0
LINE
  8
_0-1_1_5
  6
CONTINUOUS
 62
    7
 10
100.99929757367958
 20
26.437360403371375
 11
101.09790304042554
 21
26.930387737101128
  0
LINE
  8
_0-1_1_5
  6
CONTINUOUS
 62
    7
 10
101.09790304042554
 20
26.930387737101128
 11
101.17788780895791
 21
27.501538175847287
  0
LINE
  8
_0-1_1_5
  6
CONTINUOUS
 62
    7
 10
101.17788780895791
 20
27.501538175847287
 11
101.23682158255909
 21
28.133457602544613
  0
LINE
  8
_0-1_1_5
  6
CONTINUOUS
 62
    7
 10
101.23682158255909
 20
28.133457602544613
 11
101.27291368834013
 21
28.806945465179567
  0
LINE
  8
_0-1_1_5
  6
CONTINUOUS
 62
    7
 10
101.27291368834013
 20
28.806945465179567
 11
101.28506748593036
 21
29.501538175847287
  0
LINE
  8
_0-1_1_5
  6
CONTINUOUS
 62
    7
 10
101.28506748593036
 20
29.501538175847287
 11
101.27291368834013
 21
30.196130886515007
  0
LINE
  8
_0-1_1_5
  6
CONTINUOUS
 62
    7
 10
101.27291368834013
 20
30.196130886515007
 11
101.23682158255909
 21
30.869618749149961
  0
LINE
  8
_0-1_1_5
  6
CONTINUOUS
 62
    7
 10
101.23682158255909
 20
30.869618749149961
 11
101.17788780895791
 21
31.501538175847283
  0
LINE
  8
_0-1_1_5
  6
CONTINUOUS
 62
    7
 10
101.17788780895791
 20
31.501538175847283
 11
101.09790304042554
 21
32.072688614593439
  0
LINE
  8
_0-1_1_5
  6
CONTINUOUS
 62
    7
 10
101.09790304042554
 20
32.072688614593439
 11
100.99929757367958
 21
32.565715948323195
  0
LINE
  8
_0-1_1_5
  6
CONTINUOUS
 62
    7
 10
100.99929757367958
 20
32.565715948323195
 11
100.88506748593036
 21
32.965639790985037
  0
LINE
  8
_0-1_1_5
  6
CONTINUOUS
 62
    7
 10
100.88506748593036
 20
32.965639790985037
 11
100.7586836005909
 21
33.260308658990915
  0
LINE
  8
_0-1_1_5
  6
CONTINUOUS
 62
    7
 10
100.7586836005909
 20
33.260308658990915
 11
100.6239860280639
 21
33.440769187896116
  0
LINE
  8
_0-1_1_5
  6
CONTINUOUS
 62
    7
 10
100.6239860280639
 20
33.440769187896116
 11
100.48506748593036
 21
33.501538175847287
  0
LINE
  8
_0-1_1_5
  6
CONTINUOUS
 62
    7
 10
100.48506748593036
 20
33.501538175847287
 11
100.48506748593036
 21
33.501538175847287
  0
ARC
  8
_0-1_1_5
  6
CONTINUOUS
 62
    7
 10
30.441603786874339
 20
29.501538175847287
 40
4.0000000000000018
 50
90
 51
270
  0
LINE
  8
_0-1_1_5
  6
CONTINUOUS
 62
    7
 10
120.48506748593036
 20
25.501538175847287
 11
190.52853118498638
 21
25.501538175847287
  0
LINE
  8
_0-1_1_5
  6
CONTINUOUS
 62
    7
 10
120.48506748593036
 20
33.501538175847287
 11
190.52853118498638
 21
33.501538175847287
  0
LINE
  8
_0-1_1_5
  6
CONTINUOUS
 62
    7
 10
120.48506748593036
 20
33.501538175847287
 11
120.48506748593036
 21
33.501538175847287
  0
LINE
  8
_0-1_1_5
  6
CONTINUOUS
 62
    7
 10
120.48506748593036
 20
33.501538175847287
 11
120.34614894379682
 21
33.440769187896116
  0
LINE
  8
_0-1_1_5
  6
CONTINUOUS
 62
    7
 10
120.34614894379682
 20
33.440769187896116
 11
120.21145137126982
 21
33.260308658990922
  0
LINE
  8
_0-1_1_5
  6
CONTINUOUS
 62
    7
 10
120.21145137126982
 20
33.260308658990922
 11
120.08506748593035
 21
32.965639790985044
  0
LINE
  8
_0-1_1_5
  6
CONTINUOUS
 62
    7
 10
120.08506748593035
 20
32.965639790985044
 11
119.97083739818113
 21
32.565715948323195
  0
LINE
  8
_0-1_1_5
  6
CONTINUOUS
 62
    7
 10
119.97083739818113
 20
32.565715948323195
 11
119.87223193143518
 21
32.072688614593446
  0
LINE
  8
_0-1_1_5
  6
CONTINUOUS
 62
    7
 10
119.87223193143518
 20
32.072688614593446
 11
119.79224716290281
 21
31.501538175847287
  0
LINE
  8
_0-1_1_5
  6
CONTINUOUS
 62
    7
 10
119.79224716290281
 20
31.501538175847287
 11
119.73331338930163
 21
30.869618749149961
  0
LINE
  8
_0-1_1_5
  6
CONTINUOUS
 62
    7
 10
119.73331338930163
 20
30.869618749149961
 11
119.69722128352059
 21
30.196130886515007
  0
LINE
  8
_0-1_1_5
  6
CONTINUOUS
 62
    7
 10
119.69722128352059
 20
30.196130886515007
 11
119.68506748593036
 21
29.501538175847287
  0
LINE
  8
_0-1_1_5
  6
CONTINUOUS
 62
    7
 10
119.68506748593036
 20
29.501538175847287
 11
119.69722128352059
 21
28.806945465179567
  0
LINE
  8
_0-1_1_5
  6
CONTINUOUS
 62
    7
 10
119.69722128352059
 20
28.806945465179567
 11
119.73331338930163
 21
28.13345760254461
  0
LINE
  8
_0-1_1_5
  6
CONTINUOUS
 62
    7
 10
119.73331338930163
 20
28.13345760254461
 11
119.79224716290281
 21
27.501538175847287
  0
LINE
  8
_0-1_1_5
  6
CONTINUOUS
 62
    7
 10
119.79224716290281
 20
27.501538175847287
 11
119.87223193143518
 21
26.930387737101128
  0
LINE
  8
_0-1_1_5
  6
CONTINUOUS
 62
    7
 10
119.87223193143518
 20
26.930387737101128
 11
119.97083739818113
 21
26.437360403371375
  0
LINE
  8
_0-1_1_5
  6
CONTINUOUS
 62
    7
 10
119.97083739818113
 20
26.437360403371375
 11
120.08506748593035
 21
26.037436560709533
  0
LINE
  8
_0-1_1_5
  6
CONTINUOUS
 62
    7
 10
120.08506748593035
 20
26.037436560709533
 11
120.21145137126982
 21
25.742767692703655
  0
LINE
  8
_0-1_1_5
  6
CONTINUOUS
 62
    7
 10
120.21145137126982
 20
25.742767692703655
 11
120.34614894379682
 21
25.562307163798454
  0
LINE
  8
_0-1_1_5
  6
CONTINUOUS
 62
    7
 10
120.34614894379682
 20
25.562307163798454
 11
120.48506748593036
 21
25.501538175847287
  0
LINE
  8
_0-1_1_5
  6
CONTINUOUS
 62
    7
 10
120.48506748593036
 20
25.501538175847287
 11
120.48506748593036
 21
25.501538175847287
  0
LINE
  8
_0-1_1_5
  6
CONTINUOUS
 62
    7
 10
124.48506748593036
 20
70.00153817584706
 11
96.485067485930358
 21
70.00153817584706
  0
LINE
  8
_0-1_1_5
  6
CONTINUOUS
 62
    7
 10
124.48506748593036
 20
74.00153817584706
 11
124.48506748593036
 21
70.00153817584706
  0
LINE
  8
_0-1_1_5
  6
CONTINUOUS
 62
    7
 10
96.485067485930358
 20
74.00153817584706
 11
124.48506748593036
 21
74.00153817584706
  0
LINE
  8
_0-1_1_5
  6
CONTINUOUS
 62
    7
 10
96.485067485930358
 20
70.00153817584706
 11
96.485067485930358
 21
74.00153817584706
  0
LINE
  8
_0-1_1_5
  6
CONTINUOUS
 62
    7
 10
100.48506748593036
 20
70.00153817584706
 11
100.48506748593036
 21
59.86129513856676
  0
LINE
  8
_0-1_1_5
  6
DASHED2
 62
    7
 10
104.65098653642769
 20
73.993119481615878
 11
104.65098653642769
 21
69.243119481616105
  0
LINE
  8
_0-1_1_5
  6
DASHED2
 62
    7
 10
104.65098653642769
 20
69.243119481616105
 11
105.65098653642769
 21
69.243119481616105
  0
LINE
  8
_0-1_1_5
  6
DASHED2
 62
    7
 10
105.65098653642769
 20
69.243119481616105
 11
105.65098653642769
 21
64.743119481615992
  0
LINE
  8
_0-1_1_5
  6
DASHED2
 62
    7
 10
105.65098653642769
 20
64.743119481615992
 11
104.65098653642769
 21
64.743119481615992
  0
LINE
  8
_0-1_1_5
  6
DASHED2
 62
    7
 10
104.65098653642769
 20
64.743119481615992
 11
104.65098653642769
 21
58.993119481615878
  0
LINE
  8
_0-1_1_5
  6
DASHED2
 62
    7
 10
104.65098653642769
 20
58.993119481615878
 11
105.65098653642769
 21
58.993119481615878
  0
LINE
  8
_0-1_1_5
  6
DASHED2
 62
    7
 10
105.65098653642769
 20
58.993119481615878
 11
108.15098653642769
 21
61.493119481615878
  0
LINE
  8
_0-1_1_5
  6
DASHED2
 62
    7
 10
108.15098653642769
 20
61.493119481615878
 11
108.15098653642769
 21
73.993119481616105
  0
LINE
  8
_0-1_1_5
  6
DASHED2
 62
    7
 10
108.15098653642769
 20
73.993119481615992
 11
113.15098653642769
 21
73.993119481615992
  0
LINE
  8
_0-1_1_5
  6
CONTINUOUS
 62
    7
 10
112.27843317928193
 20
72.993119481615878
 11
112.27843317928193
 21
95.845079608392581
  0
LINE
  8
_0-1_1_5
  6
CONTINUOUS
 62
    7
 10
108.77862919069025
 20
72.993119481615878
 11
108.77862919069025
 21
95.844525679744805
  0
LINE
  8
_0-1_1_5
  6
CONTINUOUS
 62
    7
 10
112.16162292623812
 20
77.564054641905983
 11
108.66181893764633
 21
78.970287331635774
  0
LINE
  8
_0-1_1_5
  6
CONTINUOUS
 62
    7
 10
112.16162292623812
 20
91.626381539203663
 11
108.66181893764633
 21
93.032614228933284
  0
LINE
  8
_0-1_1_5
  6
CONTINUOUS
 62
    7
 10
112.16162292623812
 20
94.438846918663131
 11
108.66181893764633
 21
95.845079608392581
  0
LINE
  8
_0-1_1_5
  6
CONTINUOUS
 62
    7
 10
112.16162292623812
 20
93.032614228933284
 11
108.66181893764633
 21
94.438846918663131
  0
LINE
  8
_0-1_1_5
  6
CONTINUOUS
 62
    7
 10
112.16162292623812
 20
90.220148849473645
 11
108.66181893764633
 21
91.626381539203663
  0
LINE
  8
_0-1_1_5
  6
CONTINUOUS
 62
    7
 10
112.16162292623812
 20
76.157821952176533
 11
108.66181893764633
 21
77.564054641905983
  0
LINE
  8
_0-1_1_5
  6
CONTINUOUS
 62
    7
 10
112.16162292623812
 20
88.813916159743968
 11
108.66181893764633
 21
90.220148849473645
  0
LINE
  8
_0-1_1_5
  6
CONTINUOUS
 62
    7
 10
112.16162292623812
 20
87.407683470014405
 11
108.66181893764633
 21
88.813916159743968
  0
LINE
  8
_0-1_1_5
  6
CONTINUOUS
 62
    7
 10
112.16162292623812
 20
86.0014507802845
 11
108.66181893764633
 21
87.407683470014405
  0
LINE
  8
_0-1_1_5
  6
CONTINUOUS
 62
    7
 10
112.16162292623812
 20
84.59521809055471
 11
108.66181893764633
 21
86.0014507802845
  0
LINE
  8
_0-1_1_5
  6
CONTINUOUS
 62
    7
 10
112.16162292623812
 20
83.188985400825032
 11
108.66181893764633
 21
84.59521809055471
  0
LINE
  8
_0-1_1_5
  6
CONTINUOUS
 62
    7
 10
112.16162292623812
 20
81.782752711095469
 11
108.66181893764633
 21
83.188985400825032
  0
LINE
  8
_0-1_1_5
  6
CONTINUOUS
 62
    7
 10
112.16162292623812
 20
78.970287331635774
 11
108.66181893764633
 21
80.376520021365792
  0
LINE
  8
_0-1_1_5
  6
CONTINUOUS
 62
    7
 10
112.16162292623812
 20
80.376520021365792
 11
108.66181893764633
 21
81.782752711095469
  0
LINE
  8
_0-1_1_5
  6
CONTINUOUS
 62
    7
 10
112.16162292623812
 20
74.751589262446288
 11
108.66181893764633
 21
76.157821952176533
  0
LINE
  8
_0-1_1_5
  6
CONTINUOUS
 62
    7
 10
112.16162292623812
 20
73.345356572716838
 11
108.66181893764633
 21
74.751589262446288
  0
LINE
  8
_0-1_1_5
  6
CONTINUOUS
 62
    7
 10
110.52853118498615
 20
101.47001036731186
 11
112.27843317928193
 21
95.845079608392581
  0
LINE
  8
_0-1_1_5
  6
CONTINUOUS
 62
    7
 10
110.52853118498615
 20
101.47001036731186
 11
108.77862919069025
 21
95.845079608392581
  0
LINE
  8
_0-1_1_5
  6
DASHED2
 62
    7
 10
113.15098653642769
 20
61.493119481615878
 11
113.15098653642769
 21
73.993119481616105
  0
LINE
  8
_0-1_1_5
  6
DASHED2
 62
    7
 10
115.65098653642769
 20
58.993119481615878
 11
113.15098653642769
 21
61.493119481615878
  0
LINE
  8
_0-1_1_5
  6
DASHED2
 62
    7
 10
116.65098653642769
 20
58.993119481615878
 11
115.65098653642769
 21
58.993119481615878
  0
LINE
  8
_0-1_1_5
  6
DASHED2
 62
    7
 10
116.65098653642769
 20
64.743119481615992
 11
116.65098653642769
 21
58.993119481615878
  0
LINE
  8
_0-1_1_5
  6
DASHED2
 62
    7
 10
115.65098653642769
 20
64.743119481615992
 11
116.65098653642769
 21
64.743119481615992
  0
LINE
  8
_0-1_1_5
  6
DASHED2
 62
    7
 10
115.65098653642769
 20
69.243119481616105
 11
115.65098653642769
 21
64.743119481615992
  0
LINE
  8
_0-1_1_5
  6
DASHED2
 62
    7
 10
116.65098653642769
 20
69.243119481616105
 11
115.65098653642769
 21
69.243119481616105
  0
LINE
  8
_0-1_1_5
  6
DASHED2
 62
    7
 10
116.65098653642769
 20
73.993119481615878
 11
116.65098653642769
 21
69.243119481616105
  0
LINE
  8
_0-1_1_5
  6
DASHED2
 62
    7
 10
112.27843317928171
 20
61.271061226783019
 11
112.27843317928193
 21
76.993119481615992
  0
LINE
  8
_0-1_1_5
  6
DASHED2
 62
    7
 10
108.77862919069025
 20
61.271061226783019
 11
108.77862919069025
 21
76.993119481615992
  0
LINE
  8
_0-1_1_5
  6
DASHED2
 62
    7
 10
107.02853118498604
 20
59.520963221078802
 11
108.77862919069025
 21
61.271061226783019
  0
LINE
  8
_0-1_1_5
  6
DASHED2
 62
    7
 10
108.77862919069025
 20
61.271061226783019
 11
112.27843317928193
 21
61.271061226783019
  0
LINE
  8
_0-1_1_5
  6
DASHED2
 62
    7
 10
110.29345641899556
 20
61.271061226783019
 11
108.66181893764633
 21
61.926658503527534
  0
LINE
  8
_0-1_1_5
  6
DASHED2
 62
    7
 10
112.16162292623812
 20
61.920425813797948
 11
108.66181893764633
 21
63.326658503527852
  0
LINE
  8
_0-1_1_5
  6
DASHED2
 62
    7
 10
112.16162292623812
 20
63.320425813797925
 11
108.66181893764633
 21
64.726658503527716
  0
LINE
  8
_0-1_1_5
  6
DASHED2
 62
    7
 10
112.16162292623812
 20
64.72042581379813
 11
108.66181893764633
 21
66.12665850352758
  0
LINE
  8
_0-1_1_5
  6
DASHED2
 62
    7
 10
112.16162292623812
 20
66.120425813797993
 11
108.66181893764633
 21
67.526658503527557
  0
LINE
  8
_0-1_1_5
  6
DASHED2
 62
    7
 10
112.16162292623812
 20
67.520425813797857
 11
108.66181893764633
 21
68.92665850352742
  0
LINE
  8
_0-1_1_5
  6
DASHED2
 62
    7
 10
112.16162292623812
 20
68.920425813797834
 11
108.66181893764633
 21
70.326658503527739
  0
LINE
  8
_0-1_1_5
  6
DASHED2
 62
    7
 10
112.16162292623812
 20
70.320425813797698
 11
108.66181893764633
 21
71.726658503527602
  0
LINE
  8
_0-1_1_5
  6
DASHED2
 62
    7
 10
112.16162292623812
 20
71.720425813798016
 11
108.66181893764633
 21
73.126658503527466
  0
LINE
  8
_0-1_1_5
  6
STYLE_01
 62
    7
 10
114.02853118498604
 20
59.520963221078802
 11
112.27843317928193
 21
61.271061226782564
  0
LINE
  8
_0-1_1_5
  6
DASHED2
 62
    7
 10
115.65098653642769
 20
58.993119481615878
 11
105.65098653642769
 21
58.993119481615878
  0
TEXT
  8
_0-3_
 62
    7
 10
322.25649152470066
 20
-54.000366323889125
 40
6.1081542968750009
 41
1
 50
0
  1
1/2
  0
ARC
  8
_0-1_1_5
  6
DASHED1
 62
    7
 10
190.52853118498638
 20
29.501538175847287
 40
4.0000000000000018
 50
90
 51
270
  0
ARC
  8
_0-1_1_5
  6
DASHED1
 62
    7
 10
30.441603786874339
 20
29.501538175847287
 40
4.0000000000000018
 50
270
 51
90
  0
LINE
  8
_0-2_ADD_LINE
  6
CONTINUOUS
 62
    7
 10
214.54898823688012
 20
25.501538175847287
 11
214.54898823688012
 21
14.907282079149155
  0
LINE
  8
_0-3_
  6
CONTINUOUS
 62
    7
 10
214.54898823688012
 20
25.501538175847287
 11
214.54898823688012
 21
33.501538175847287
  0
TEXT
  8
_0-2_ADD_LINE
 62
    4
 10
213.4077243385112
 20
20.601279238134595
 40
5
 41
1
 50
90
  1
8
  0
LINE
  8
_0-2_ADD_LINE
  6
CONTINUOUS
 62
    7
 10
214.54898823688012
 20
33.501538175847287
 11
194.52853118498638
 21
33.501538175847287
  0
LINE
  8
_0-2_ADD_LINE
  6
CONTINUOUS
 62
    7
 10
214.54898823688012
 20
25.501538175847287
 11
194.52853118498638
 21
25.501538175847287
  0
POINT
  8
_0-2_ADD_LINE
 62
    7
 10
214.54898823688012
 20
33.501538175847287
  0
POINT
  8
_0-2_ADD_LINE
 62
    7
 10
214.54898823688012
 20
25.501538175847287
  0
TEXT
  8
_0-2_ADD_LINE
 62
    7
 10
214.15439069969241
 20
14.83261544303096
 40
6.1081542968750009
 41
1
 50
90
  1
φ
  0
LINE
  8
_0-2_ADD_LINE
  6
CONTINUOUS
 62
    7
 10
357.3815814860875
 20
251.69052929734016
 11
357.3815814860875
 21
240.45779576624787
  0
POINT
  8
_0-2_ADD_LINE
 62
    7
 10
96.485067485930358
 20
114.64011156786532
  0
POINT
  8
_0-2_ADD_LINE
 62
    7
 10
124.48506748593036
 20
114.64011156786532
  0
TEXT
  8
_0-2_ADD_LINE
 62
    7
 10
103.21029226792038
 20
115.06394690410119
 40
6.1081542968750009
 41
1
 50
0
  1
φ
  0
LINE
  8
_0-3_
  6
CONTINUOUS
 62
    7
 10
96.485067485930358
 20
114.64011156786532
 11
124.48506748593036
 21
114.64011156786532
  0
TEXT
  8
_0-3_
 62
    4
 10
109.3230378205507
 20
115.57559515475249
 40
5
 41
1
 50
0
  1
28
  0
LINE
  8
_0-2_ADD_LINE
  6
CONTINUOUS
 62
    7
 10
124.48506748593036
 20
114.64011156786532
 11
124.48506748593036
 21
76.00153817584706
  0
LINE
  8
_0-2_ADD_LINE
  6
CONTINUOUS
 62
    7
 10
96.485067485930358
 20
114.64011156786532
 11
96.485067485930358
 21
76.00153817584706
  0
LINE
  8
_0-2_ADD_LINE
  6
CONTINUOUS
 62
    7
 10
313.38158148608761
 20
251.69052929734016
 11
313.38158148608761
 21
236.45779576624787
  0
LINE
  8
_0-2_ADD_LINE
  6
CONTINUOUS
 62
    7
 10
283.38158148608761
 20
232.45779576624787
 11
299.38158148608761
 21
232.45779576624787
  0
LINE
  8
_0-2_ADD_LINE
  6
CONTINUOUS
 62
    7
 10
283.38158148608761
 20
212.45779576624787
 11
299.38158148608761
 21
212.45779576624787
  0
POINT
  8
_0-2_ADD_LINE
 62
    7
 10
303.38158148608761
 20
261.69052929734016
  0
POINT
  8
_0-2_ADD_LINE
 62
    7
 10
357.3815814860875
 20
261.69052929734016
  0
LINE
  8
_0-3_
  6
CONTINUOUS
 62
    7
 10
303.38158148608761
 20
261.69052929734016
 11
357.3815814860875
 21
261.69052929734016
  0
TEXT
  8
_0-3_
 62
    4
 10
327.88158148608755
 20
262.69052929734016
 40
5
 41
1
 50
0
  1
54
  0
POINT
  8
_0-2_ADD_LINE
 62
    7
 10
357.3815814860875
 20
251.69052929734016
  0
LINE
  8
_0-3_
  6
CONTINUOUS
 62
    7
 10
357.3815814860875
 20
251.69052929734016
 11
313.38158148608761
 21
251.69052929734016
  0
TEXT
  8
_0-2_ADD_LINE
 62
    4
 10
332.88158148608755
 20
252.69052929734016
 40
5
 41
1
 50
0
  1
44
  0
POINT
  8
_0-2_ADD_LINE
 62
    7
 10
313.38158148608761
 20
251.69052929734016
  0
LINE
  8
_0-2_ADD_LINE
  6
CONTINUOUS
 62
    7
 10
303.38158148608761
 20
261.69052929734016
 11
303.38158148608761
 21
236.45779576624787
  0
LINE
  8
_0-2_ADD_LINE
  6
CONTINUOUS
 62
    7
 10
357.3815814860875
 20
261.69052929734016
 11
357.3815814860875
 21
240.45779576624787
  0
LINE
  8
_0-3_
  6
CONTINUOUS
 62
    7
 10
11.923583770033133
 20
140.45779576624784
 11
11.923583770033133
 21
236.4577957662479
  0
TEXT
  8
_0-3_
 62
    4
 10
10.923583770033133
 20
185.95779576624787
 40
5
 41
1
 50
90
  1
96
  0
POINT
  8
_0-2_ADD_LINE
 62
    7
 10
11.923583770033133
 20
140.45779576624784
  0
POINT
  8
_0-2_ADD_LINE
 62
    7
 10
11.923583770033133
 20
236.4577957662479
  0
LINE
  8
_0-2_ADD_LINE
  6
CONTINUOUS
 62
    7
 10
11.923583770033133
 20
236.4577957662479
 11
99.952393581528781
 21
236.4577957662479
  0
LINE
  8
_0-2_ADD_LINE
  6
CONTINUOUS
 62
    7
 10
11.923583770033133
 20
140.45779576624784
 11
59.686857322707738
 21
140.45779576624784
  0
POINT
  8
_0-2_ADD_LINE
 62
    7
 10
100.48506748593036
 20
5.001538175847287
  0
POINT
  8
_0-2_ADD_LINE
 62
    7
 10
120.48506748593036
 20
5.001538175847287
  0
LINE
  8
_0-2_ADD_LINE
  6
CONTINUOUS
 62
    7
 10
120.48506748593036
 20
5.001538175847287
 11
120.48506748593036
 21
18.001538175847287
  0
LINE
  8
_0-3_
  6
CONTINUOUS
 62
    7
 10
100.48506748593036
 20
5.001538175847287
 11
120.48506748593036
 21
5.001538175847287
  0
TEXT
  8
_0-3_
 62
    4
 10
109.79028232865375
 20
6.0647276047280343
 40
5
 41
1
 50
0
  1
20
  0
LINE
  8
_0-2_ADD_LINE
  6
CONTINUOUS
 62
    7
 10
100.48506748593036
 20
5.001538175847287
 11
100.48506748593036
 21
18.001538175847287
  0
TEXT
  8
_0-2_ADD_LINE
 62
    7
 10
104.54324615352553
 20
5.6922739424622364
 40
6.1081542968750009
 41
1
 50
0
  1
φ
  0
POINT
  8
_0-2_ADD_LINE
 62
    7
 10
353.3815814860875
 20
193.45779576624787
  0
POINT
  8
_0-2_ADD_LINE
 62
    7
 10
357.3815814860875
 20
193.45779576624787
  0
LINE
  8
_0-3_
  6
CONTINUOUS
 62
    7
 10
353.3815814860875
 20
193.45779576624787
 11
357.3815814860875
 21
193.45779576624787
  0
TEXT
  8
_0-3_
 62
    4
 10
354.1315814860875
 20
194.45779576624787
 40
5
 41
1
 50
0
  1
4
  0
LINE
  8
_0-2_ADD_LINE
  6
CONTINUOUS
 62
    7
 10
357.3815814860875
 20
193.45779576624787
 11
357.3815814860875
 21
206.45779576624787
  0
LINE
  8
_0-2_ADD_LINE
  6
CONTINUOUS
 62
    7
 10
353.3815814860875
 20
193.45779576624787
 11
353.3815814860875
 21
206.45779576624787
  0
TEXT
  8
_0-3_
 62
    7
 10
135.16691074515126
 20
-54.188953352434851
 40
6.1081542968750009
 41
1
 50
0
  1
ポリッシュ
  0
TEXT
  8
_0-3_
 62
    7
 10
321.93216695212038
 20
-41.80563917926429
 40
6.1081542968750009
 41
1
 50
0
  1
TFP40-A400-003
  0
ENDSEC
  0
EOF
