  0
SECTION
  2
HEADER
  9
$ACADVER
  1
AC1009
  9
$INSBASE
 10
0
 20
0
 30
0
  9
$EXTMIN
 10
0
 20
0
  9
$EXTMAX
 10
594
 20
420
  9
$LIMMIN
 10
0
 20
0
  9
$LIMMAX
 10
594
 20
420
  9
$LTSCALE
 40
2
  0
ENDSEC
  0
SECTION
  2
TABLES
  0
TABLE
  2
LTYPE
 70
     9
  0
LTYPE
  2
CONTINUOUS
 70
    64
  3
実線
 72
    65
 73
     0
 40
0.0
  0
LTYPE
  2
DASHED1
 70
    64
  3
--  --  --  --  --  --  --  --  
 72
    65
 73
     2
 40
2.5
 49
1.25
 49
-1.25
  0
LTYPE
  2
DASHED2
 70
    64
  3
----    ----    ----    ----    
 72
    65
 73
     2
 40
5.0
 49
2.5
 49
-2.5
  0
LTYPE
  2
DASHED3
 70
    64
  3
------  ------  ------  ------  
 72
    65
 73
     2
 40
5.0
 49
3.75
 49
-1.25
  0
LTYPE
  2
CENTER1
 70
    64
  3
----- - ----- - ----- - ----- - 
 72
    65
 73
     4
 40
10.0
 49
6.25
 49
-1.25
 49
1.25
 49
-1.25
  0
LTYPE
  2
CENTER2
 70
    64
  3
----------  --  ----------  --  
 72
    65
 73
     4
 40
20.0
 49
12.5
 49
-2.5
 49
2.5
 49
-2.5
  0
LTYPE
  2
PHANTOM1
 70
    64
  3
--- - - --- - - --- - - --- - - 
 72
    65
 73
     6
 40
10.0
 49
3.25
 49
-1.25
 49
1.25
 49
-1.25
 49
1.25
 49
-1.25
  0
LTYPE
  2
PHANTOM2
 70
    64
  3
--------  -  -  --------  -  -  
 72
    65
 73
     6
 40
20.0
 49
10.0
 49
-2.5
 49
1.25
 49
-2.5
 49
1.25
 49
-2.5
  0
LTYPE
  2
DOT
 70
    64
  3
-   -   -   -   -   -   -   -   
 72
    65
 73
     2
 40
2.5
 49
0.625
 49
-1.875
  0
LTYPE
  2
DUMMY
 70
    64
  3
ダミー
 72
    65
 73
     0
 40
0.0
  0
LTYPE
  2
RAND1
 70
    64
  3
ランダム線1
 72
    65
 73
     4
 40
10.0
 49
1.0
 49
-2.0
 49
3.0
 49
-4.0
  0
LTYPE
  2
RAND2
 70
    64
  3
ランダム線2
 72
    65
 73
     4
 40
14.0
 49
2.0
 49
-3.0
 49
4.0
 49
-5.0
  0
LTYPE
  2
RAND3
 70
    64
  3
ランダム線3
 72
    65
 73
     4
 40
18.0
 49
3.0
 49
-4.0
 49
5.0
 49
-6.0
  0
LTYPE
  2
RAND4
 70
    64
  3
ランダム線4
 72
    65
 73
     4
 40
22.0
 49
4.0
 49
-5.0
 49
6.0
 49
-7.0
  0
LTYPE
  2
RAND5
 70
    64
  3
ランダム線5
 72
    65
 73
     4
 40
26.0
 49
5.0
 49
-6.0
 49
7.0
 49
-8.0
  0
LTYPE
  2
LONG1
 70
    64
  3
----------  --  ----------  --  
 72
    65
 73
     4
 40
40.0
 49
32.5
 49
-2.5
 49
2.5
 49
-2.5
  0
LTYPE
  2
LONG2
 70
    64
  3
--------  -  -  --------  -  -  
 72
    65
 73
     6
 40
40.0
 49
30.0
 49
-2.5
 49
1.25
 49
-2.5
 49
1.25
 49
-2.5
  0
LTYPE
  2
LONG3
 70
    64
  3
+++++++++++++++..+++++++++++++++
 72
    65
 73
     2
 40
40.0
 49
37.5
 49
-2.5
  0
LTYPE
  2
LONG4
 70
    64
  3
+++++++++++++++..+++++++++++++++
 72
    65
 73
     2
 40
80.0
 49
75.0
 49
-5.0
  0
LTYPE
  2
LONG5
 70
    64
  3
----------  --  ----------  --  
 72
    65
 73
     4
 40
60.0
 49
37.5
 49
-7.5
 49
7.5
 49
-7.5
  0
LTYPE
  2
dashed
 70
   64
  3
-------   -------------   ------
 72
   65
 73
    2
 40
7.5
 49
6
 49
-1.5
  0
LTYPE
  2
dashed_spaced
 70
   64
  3
----        --------        ----
 72
   65
 73
    2
 40
12
 49
6
 49
-6
  0
LTYPE
  2
long_dashed_dotted
 70
   64
  3
------------- --- --------------
 72
   65
 73
    4
 40
15.25
 49
12
 49
-1.5
 49
0.25
 49
-1.5
  0
LTYPE
  2
long_dashed_double-dotted
 70
   64
  3
----------- --- --- ------------
 72
   65
 73
    6
 40
17
 49
12
 49
-1.5
 49
0.25
 49
-1.5
 49
0.25
 49
-1.5
  0
LTYPE
  2
long_dashed_triplicate-dotted
 70
   64
  3
--------- --- --- --- ----------
 72
   65
 73
    8
 40
18.75
 49
12
 49
-1.5
 49
0.25
 49
-1.5
 49
0.25
 49
-1.5
 49
0.25
 49
-1.5
  0
LTYPE
  2
dotted
 70
   64
  3
   -       -       -       -    
 72
   65
 73
    2
 40
1.75
 49
0.25
 49
-1.5
  0
LTYPE
  2
chain
 70
   64
  3
-------------- -- --------------
 72
   65
 73
    4
 40
18.5
 49
12
 49
-1.5
 49
3.5
 49
-1.5
  0
LTYPE
  2
chain_double_dash
 70
   64
  3
------------ -- -- -------------
 72
   65
 73
    6
 40
23.5
 49
12
 49
-1.5
 49
3.5
 49
-1.5
 49
3.5
 49
-1.5
  0
LTYPE
  2
dashed_dotted
 70
   64
  3
-----------     -     ----------
 72
   65
 73
    4
 40
9.25
 49
6
 49
-1.5
 49
0.25
 49
-1.5
  0
LTYPE
  2
double-dashed_dotted
 70
   64
  3
------   -----------   -   -----
 72
   65
 73
    6
 40
16.75
 49
6
 49
-1.5
 49
6
 49
-1.5
 49
0.25
 49
-1.5
  0
LTYPE
  2
dashed_double-dotted
 70
   64
  3
---------    -    -    ---------
 72
   65
 73
    6
 40
11
 49
6
 49
-1.5
 49
0.25
 49
-1.5
 49
0.25
 49
-1.5
  0
LTYPE
  2
double-dashed_double-dotted
 70
   64
  3
-----   ---------   -   -   ----
 72
   65
 73
    8
 40
18.5
 49
6
 49
-1.5
 49
6
 49
-1.5
 49
0.25
 49
-1.5
 49
0.25
 49
-1.5
  0
LTYPE
  2
dashed_triplicate-dotted
 70
   64
  3
-------    -    -    -    ------
 72
   65
 73
    8
 40
12.75
 49
6
 49
-1.5
 49
0.25
 49
-1.5
 49
0.25
 49
-1.5
 49
0.25
 49
-1.5
  0
LTYPE
  2
double-dashed_triplicate-dotted
 70
   64
  3
-----  ---------  -  -  -  -----
 72
   65
 73
   10
 40
20.25
 49
6
 49
-1.5
 49
6
 49
-1.5
 49
0.25
 49
-1.5
 49
0.25
 49
-1.5
 49
0.25
 49
-1.5
  0
LTYPE
  2
undefined
 70
   64
  3
--------------------------------
 72
   65
 73
    0
 40
0
  0
LTYPE
  2
STYLE_01
 70
   64
  3
----        --------        ----
 72
   65
 73
    2
 40
0.4166399999999997
 49
0.2082799999999999
 49
-0.2083599999999999
  0
LTYPE
  2
STYLE_02
 70
   64
  3
------     -----------     -----
 72
   65
 73
    2
 40
0.694425
 49
0.48607
 49
-0.2083550000000001
  0
LTYPE
  2
STYLE_03
 70
   64
  3
-------   -------------   ------
 72
   65
 73
    2
 40
1.25
 49
1.0416400000000001
 49
-0.2083599999999999
  0
LTYPE
  2
STYLE_04
 70
   64
  3
-------  --------------  -------
 72
   65
 73
    2
 40
1.5277099999999999
 49
1.3194249999999998
 49
-0.208285
  0
LTYPE
  2
STYLE_05
 70
   64
  3
---           -----           --
 72
   65
 73
    2
 40
0.20828
 49
0.069425
 49
-0.138855
  0
LTYPE
  2
STYLE_06
 70
   64
  3
----------      --    ----------
 72
   65
 73
    4
 40
1.0416399999999999
 49
0.625
 49
-0.2082799999999999
 49
0.06943
 49
-0.13893
  0
LTYPE
  2
STYLE_07
 70
   64
  3
-----    -----------    -  -----
 72
   65
 73
    6
 40
1.8749999999999998
 49
0.625
 49
-0.2082799999999999
 49
0.6250000000000001
 49
-0.2083599999999999
 49
0.06943
 49
-0.1389299999999998
  0
LTYPE
  2
STYLE_08
 70
   64
  3
--------     --    --    -------
 72
   65
 73
    6
 40
1.2499999999999996
 49
0.625
 49
-0.2082799999999999
 49
0.06943
 49
-0.13893
 49
0.0694299999999997
 49
-0.13893
  0
LTYPE
  2
STYLE_09
 70
   64
  3
------------  ----  ------------
 72
   65
 73
    4
 40
5
 49
3.75
 49
-0.2777849999999997
 49
0.6944300000000003
 49
-0.2777849999999997
  0
LTYPE
  2
STYLE_10
 70
   64
  3
----------- ---- ---  ----------
 72
   65
 73
    6
 40
5.9375
 49
3.75
 49
-0.2777849999999997
 49
0.6944300000000003
 49
-0.2777849999999997
 49
0.625
 49
-0.3125
  0
ENDTAB
  0
TABLE
  2
STYLE
  5
3
100
AcDbSymbolTable
 70
     1
  0
STYLE
  5
10
100
AcDbSymbolTableRecord
100
AcDbTextStyleTableRecord
  2
STANDARD
 70
     0
 40
0.0
 41
1.0
 50
0.0
 71
     0
 42
0.2
  3
txt
  4
bigfont.shx
  0
STYLE
  5
26
100
AcDbSymbolTableRecord
100
AcDbTextStyleTableRecord
  2
TATEGAKI
 70
    68
 40
0.0
 41
1.0
 50
0.0
 71
     0
 42
1.0
  3
txt
  4
bigfont.shx
  0
ENDTAB
  0
TABLE
  2
LAYER
 70
    5
  0
LAYER
  2
_0-0_0
 70
   64
 62
    7
  6
CONTINUOUS
  0
LAYER
  2
_0-1_1_5
 70
   64
 62
    7
  6
CONTINUOUS
  0
LAYER
  2
_0-2_ADD_LINE
 70
   64
 62
    7
  6
CONTINUOUS
  0
LAYER
  2
_0-3_
 70
   64
 62
    7
  6
CONTINUOUS
  0
LAYER
  2
ADD_LINE
 70
   64
 62
    7
  6
CONTINUOUS
  0
ENDTAB
  0
ENDSEC
  0
SECTION
  2
BLOCKS
  0
ENDSEC
  0
SECTION
  2
ENTITIES
  0
TEXT
  8
_0-3_
 62
    7
 10
135.16691074515126
 20
-66.290244160930513
 40
6.1081542968750009
 41
1
 50
0
  1
ステンレススチール
  0
LINE
  8
_0-0_0
  6
CONTINUOUS
 62
    7
 10
-87.019906738806753
 20
335.75937008357874
 11
-87.019906738806753
 21
-84.240629916421256
  0
LINE
  8
_0-0_0
  6
CONTINUOUS
 62
    7
 10
-87.019906738806753
 20
-84.240629916421256
 11
506.98009326119325
 21
-84.240629916421312
  0
LINE
  8
_0-0_0
  6
CONTINUOUS
 62
    7
 10
506.98009326119325
 20
-84.240629916421312
 11
506.98009326119325
 21
335.75937008357869
  0
LINE
  8
_0-0_0
  6
CONTINUOUS
 62
    7
 10
506.98009326119325
 20
335.75937008357869
 11
-87.019906738806753
 21
335.75937008357874
  0
TEXT
  8
_0-3_
 62
    7
 10
121.25741447433936
 20
-62.900519036372998
 40
4
 41
1
 50
0
  1
材質
  0
TEXT
  8
_0-3_
 62
    7
 10
121.25741447433936
 20
-50.417785461709059
 40
4
 41
1
 50
0
  1
仕上げ
  0
TEXT
  8
_0-3_
 62
    7
 10
121.25741447433936
 20
-38.559188565778356
 40
4
 41
1
 50
0
  1
品名
  0
LINE
  8
_0-3_
  6
CONTINUOUS
 62
    7
 10
305.33333332004827
 20
-68.800541471740075
 11
305.33333332004827
 21
-32.800541471740019
  0
LINE
  8
_0-3_
  6
CONTINUOUS
 62
    7
 10
492.00000000004832
 20
-32.800541471740019
 11
118.30557488476475
 21
-32.800541471740019
  0
LINE
  8
_0-3_
  6
CONTINUOUS
 62
    7
 10
492.00000000004832
 20
-44.800541471740019
 11
118.30557488476475
 21
-44.800541471740019
  0
LINE
  8
_0-3_
  6
CONTINUOUS
 62
    7
 10
492.00000000004832
 20
-56.800541471740019
 11
118.30557488476475
 21
-56.800541471740019
  0
LINE
  8
_0-3_
  6
CONTINUOUS
 62
    7
 10
118.30557488476475
 20
-68.800541471740019
 11
118.30557488476475
 21
-32.800541471740019
  0
TEXT
  8
_0-3_
 62
    7
 10
307.90644669306869
 20
-39.060319445408652
 40
4
 41
1
 50
0
  1
品番
  0
TEXT
  8
_0-3_
 62
    7
 10
307.90644669306869
 20
-50.739042164100738
 40
4
 41
1
 50
0
  1
縮尺
  0
TEXT
  8
_0-3_
 62
    7
 10
-66.888093986564627
 20
-76.72518315284276
 40
5
 41
1
 50
0
  1
120718SH
  0
LINE
  8
_0-3_
  6
CONTINUOUS
 62
    7
 10
-67.999999999951683
 20
321.1994585282601
 11
-67.999999999951683
 21
-68.800541471740019
  0
LINE
  8
_0-3_
  6
CONTINUOUS
 62
    7
 10
-67.999999999951683
 20
-68.800541471740019
 11
492.00000000004832
 21
-68.800541471740075
  0
LINE
  8
_0-3_
  6
CONTINUOUS
 62
    7
 10
492.00000000004832
 20
-68.800541471740075
 11
492.00000000004832
 21
321.19945852826004
  0
LINE
  8
_0-3_
  6
CONTINUOUS
 62
    7
 10
492.00000000004832
 20
321.19945852826004
 11
-67.999999999951683
 21
321.1994585282601
  0
TEXT
  8
_0-3_
 62
    7
 10
135.16691074515126
 20
-41.881749615713943
 40
6.1081542968750009
 41
1
 50
0
  1
タオルバー
  0
TEXT
  8
_0-3_
 62
    7
 10
321.84362785127729
 20
-66.996859894418549
 40
6.2000000000000002
 41
1
 50
0
  1
大洋金物株式会社  ティーエフプラス事業部
  0
TEXT
  8
_0-3_
 62
    7
 10
322.25649152470066
 20
-54.000366323889125
 40
6.1081542968750009
 41
1
 50
0
  1
1/2
  0
TEXT
  8
_0-3_
 62
    7
 10
135.16691074515126
 20
-54.188953352434794
 40
6.1081542968750009
 41
1
 50
0
  1
サテン
  0
TEXT
  8
_0-2_ADD_LINE
 62
    4
 10
394.56311436961249
 20
179.90584064815391
 40
5
 41
1
 50
0
  1
3.5x40
  0
TEXT
  8
_0-2_ADD_LINE
 62
    4
 10
394.56311436961249
 20
187.52371599266382
 40
5
 41
1
 50
0
  1
タッピングビス
  0
LINE
  8
_0-2_ADD_LINE
  6
CONTINUOUS
 62
    7
 10
397.98050259197009
 20
222.32474474411021
 11
397.98050259197009
 21
195.71434452407104
  0
LINE
  8
_0-1_1_5
  6
CONTINUOUS
 62
    7
 10
329.40861294756712
 20
214.46447770684085
 11
324.40861294756712
 21
214.46447770684085
  0
LINE
  8
_0-1_1_5
  6
CONTINUOUS
 62
    7
 10
324.40861294756712
 20
214.46447770684085
 11
324.40861294756712
 21
230.46447770684085
  0
LINE
  8
_0-1_1_5
  6
CONTINUOUS
 62
    7
 10
324.40861294756712
 20
230.46447770684085
 11
384.40861294756701
 21
230.46447770684085
  0
LINE
  8
_0-1_1_5
  6
CONTINUOUS
 62
    7
 10
384.40861294756701
 20
230.46447770684085
 11
384.40861294756701
 21
214.46447770684085
  0
LINE
  8
_0-1_1_5
  6
CONTINUOUS
 62
    7
 10
384.40861294756701
 20
214.46447770684085
 11
337.40861294756712
 21
214.46447770684085
  0
LINE
  8
_0-1_1_5
  6
CONTINUOUS
 62
    7
 10
329.40861294756712
 20
222.46447770684085
 11
329.40861294756712
 21
147.96468515208176
  0
LINE
  8
_0-1_1_5
  6
CONTINUOUS
 62
    7
 10
337.40861294756712
 20
222.46447770684085
 11
337.40861294756712
 21
147.97758655893529
  0
ARC
  8
_0-1_1_5
  6
CONTINUOUS
 62
    7
 10
333.39238892116066
 20
147.96468515208176
 40
4
 50
180
 51
0
  0
ARC
  8
_0-1_1_5
  6
CONTINUOUS
 62
    7
 10
333.40861294756712
 20
222.46447770684085
 40
4
 50
0
 51
180
  0
LINE
  8
_0-1_1_5
  6
CONTINUOUS
 62
    7
 10
406.26001914569582
 20
224.21437970113678
 11
411.88550383326287
 21
222.46447770684085
  0
LINE
  8
_0-1_1_5
  6
DASHED2
 62
    7
 10
384.40861294756689
 20
228.34202235539937
 11
379.65861294756712
 21
228.34202235539937
  0
LINE
  8
_0-1_1_5
  6
DASHED2
 62
    7
 10
379.65861294756712
 20
228.34202235539937
 11
379.65861294756712
 21
227.34202235539928
  0
LINE
  8
_0-1_1_5
  6
DASHED2
 62
    7
 10
379.65861294756712
 20
227.34202235539928
 11
375.15861294756701
 21
227.34202235539928
  0
LINE
  8
_0-1_1_5
  6
DASHED2
 62
    7
 10
375.15861294756701
 20
227.34202235539928
 11
375.15861294756701
 21
228.34202235539937
  0
LINE
  8
_0-1_1_5
  6
DASHED2
 62
    7
 10
375.15861294756701
 20
228.34202235539937
 11
369.40861294756689
 21
228.34202235539937
  0
LINE
  8
_0-1_1_5
  6
DASHED2
 62
    7
 10
369.40861294756689
 20
228.34202235539937
 11
369.40861294756689
 21
227.34202235539928
  0
LINE
  8
_0-1_1_5
  6
DASHED2
 62
    7
 10
369.40861294756689
 20
227.34202235539928
 11
371.90861294756689
 21
224.84202235539928
  0
LINE
  8
_0-1_1_5
  6
DASHED2
 62
    7
 10
371.90861294756689
 20
224.84202235539928
 11
384.40861294756712
 21
224.84202235539928
  0
LINE
  8
_0-1_1_5
  6
DASHED2
 62
    7
 10
384.40861294756701
 20
224.84202235539928
 11
384.40861294756701
 21
219.84202235539928
  0
LINE
  8
_0-1_1_5
  6
CONTINUOUS
 62
    7
 10
383.40861294756689
 20
220.71457571254504
 11
406.2605730743436
 21
220.71457571254504
  0
LINE
  8
_0-1_1_5
  6
CONTINUOUS
 62
    7
 10
383.40861294756689
 20
224.21437970113678
 11
406.26001914569582
 21
224.21437970113678
  0
LINE
  8
_0-1_1_5
  6
CONTINUOUS
 62
    7
 10
387.979548107857
 20
220.83138596558888
 11
389.38578079758679
 21
224.3311899541807
  0
LINE
  8
_0-1_1_5
  6
CONTINUOUS
 62
    7
 10
402.04187500515468
 20
220.83138596558888
 11
403.4481076948843
 21
224.3311899541807
  0
LINE
  8
_0-1_1_5
  6
CONTINUOUS
 62
    7
 10
404.85434038461415
 20
220.83138596558888
 11
406.2605730743436
 21
224.3311899541807
  0
LINE
  8
_0-1_1_5
  6
CONTINUOUS
 62
    7
 10
403.4481076948843
 20
220.83138596558888
 11
404.85434038461415
 21
224.3311899541807
  0
LINE
  8
_0-1_1_5
  6
CONTINUOUS
 62
    7
 10
400.63564231542466
 20
220.83138596558888
 11
402.04187500515468
 21
224.3311899541807
  0
LINE
  8
_0-1_1_5
  6
CONTINUOUS
 62
    7
 10
386.57331541812755
 20
220.83138596558888
 11
387.979548107857
 21
224.3311899541807
  0
LINE
  8
_0-1_1_5
  6
CONTINUOUS
 62
    7
 10
399.22940962569498
 20
220.83138596558888
 11
400.63564231542466
 21
224.3311899541807
  0
LINE
  8
_0-1_1_5
  6
CONTINUOUS
 62
    7
 10
397.82317693596542
 20
220.83138596558888
 11
399.22940962569498
 21
224.3311899541807
  0
LINE
  8
_0-1_1_5
  6
CONTINUOUS
 62
    7
 10
396.41694424623552
 20
220.83138596558888
 11
397.82317693596542
 21
224.3311899541807
  0
LINE
  8
_0-1_1_5
  6
CONTINUOUS
 62
    7
 10
395.01071155650573
 20
220.83138596558888
 11
396.41694424623552
 21
224.3311899541807
  0
LINE
  8
_0-1_1_5
  6
CONTINUOUS
 62
    7
 10
393.60447886677605
 20
220.83138596558888
 11
395.01071155650573
 21
224.3311899541807
  0
LINE
  8
_0-1_1_5
  6
CONTINUOUS
 62
    7
 10
392.19824617704649
 20
220.83138596558888
 11
393.60447886677605
 21
224.3311899541807
  0
LINE
  8
_0-1_1_5
  6
CONTINUOUS
 62
    7
 10
389.38578079758679
 20
220.83138596558888
 11
390.79201348731681
 21
224.3311899541807
  0
LINE
  8
_0-1_1_5
  6
CONTINUOUS
 62
    7
 10
390.79201348731681
 20
220.83138596558888
 11
392.19824617704649
 21
224.3311899541807
  0
LINE
  8
_0-1_1_5
  6
CONTINUOUS
 62
    7
 10
385.1670827283973
 20
220.83138596558888
 11
386.57331541812755
 21
224.3311899541807
  0
LINE
  8
_0-1_1_5
  6
CONTINUOUS
 62
    7
 10
383.76085003866785
 20
220.83138596558888
 11
385.1670827283973
 21
224.3311899541807
  0
LINE
  8
_0-1_1_5
  6
CONTINUOUS
 62
    7
 10
411.88550383326287
 20
222.46447770684085
 11
406.2605730743436
 21
220.71457571254504
  0
LINE
  8
_0-1_1_5
  6
DASHED2
 62
    7
 10
371.90861294756689
 20
219.84202235539928
 11
384.40861294756712
 21
219.84202235539928
  0
LINE
  8
_0-1_1_5
  6
DASHED2
 62
    7
 10
369.40861294756689
 20
217.34202235539928
 11
371.90861294756689
 21
219.84202235539928
  0
LINE
  8
_0-1_1_5
  6
DASHED2
 62
    7
 10
369.40861294756689
 20
216.34202235539934
 11
369.40861294756689
 21
217.34202235539928
  0
LINE
  8
_0-1_1_5
  6
DASHED2
 62
    7
 10
375.15861294756701
 20
216.34202235539934
 11
369.40861294756689
 21
216.34202235539934
  0
LINE
  8
_0-1_1_5
  6
DASHED2
 62
    7
 10
375.15861294756701
 20
217.34202235539928
 11
375.15861294756701
 21
216.34202235539934
  0
LINE
  8
_0-1_1_5
  6
DASHED2
 62
    7
 10
379.65861294756712
 20
217.34202235539928
 11
375.15861294756701
 21
217.34202235539928
  0
LINE
  8
_0-1_1_5
  6
DASHED2
 62
    7
 10
379.65861294756712
 20
216.34202235539934
 11
379.65861294756712
 21
217.34202235539928
  0
LINE
  8
_0-1_1_5
  6
DASHED2
 62
    7
 10
384.40861294756689
 20
216.34202235539934
 11
379.65861294756712
 21
216.34202235539934
  0
LINE
  8
_0-1_1_5
  6
DASHED2
 62
    7
 10
371.68655469273403
 20
220.71457571254533
 11
387.40861294756701
 21
220.71457571254504
  0
LINE
  8
_0-1_1_5
  6
DASHED2
 62
    7
 10
371.68655469273403
 20
224.21437970113678
 11
387.40861294756701
 21
224.21437970113678
  0
LINE
  8
_0-1_1_5
  6
DASHED2
 62
    7
 10
369.93645668702982
 20
225.96447770684094
 11
371.68655469273403
 21
224.21437970113678
  0
LINE
  8
_0-1_1_5
  6
DASHED2
 62
    7
 10
371.68655469273403
 20
224.21437970113678
 11
371.68655469273403
 21
220.71457571254504
  0
LINE
  8
_0-1_1_5
  6
DASHED2
 62
    7
 10
371.68655469273403
 20
222.69955247283141
 11
372.34215196947855
 21
224.3311899541807
  0
LINE
  8
_0-1_1_5
  6
DASHED2
 62
    7
 10
372.33591927974896
 20
220.83138596558888
 11
373.74215196947887
 21
224.3311899541807
  0
LINE
  8
_0-1_1_5
  6
DASHED2
 62
    7
 10
373.73591927974894
 20
220.83138596558888
 11
375.14215196947873
 21
224.3311899541807
  0
LINE
  8
_0-1_1_5
  6
DASHED2
 62
    7
 10
375.13591927974915
 20
220.83138596558888
 11
376.5421519694786
 21
224.3311899541807
  0
LINE
  8
_0-1_1_5
  6
DASHED2
 62
    7
 10
376.53591927974901
 20
220.83138596558888
 11
377.94215196947857
 21
224.3311899541807
  0
LINE
  8
_0-1_1_5
  6
DASHED2
 62
    7
 10
377.93591927974887
 20
220.83138596558888
 11
379.34215196947844
 21
224.3311899541807
  0
LINE
  8
_0-1_1_5
  6
DASHED2
 62
    7
 10
379.33591927974885
 20
220.83138596558888
 11
380.74215196947875
 21
224.3311899541807
  0
LINE
  8
_0-1_1_5
  6
DASHED2
 62
    7
 10
380.73591927974871
 20
220.83138596558888
 11
382.14215196947862
 21
224.3311899541807
  0
LINE
  8
_0-1_1_5
  6
DASHED2
 62
    7
 10
382.13591927974903
 20
220.83138596558888
 11
383.54215196947848
 21
224.3311899541807
  0
LINE
  8
_0-1_1_5
  6
STYLE_01
 62
    7
 10
369.93645668702982
 20
218.96447770684097
 11
371.68655469273358
 21
220.71457571254504
  0
LINE
  8
_0-1_1_5
  6
DASHED2
 62
    7
 10
369.40861294756689
 20
217.34202235539928
 11
369.40861294756689
 21
227.34202235539928
  0
ARC
  8
_0-1_1_5
  6
DASHED1
 62
    7
 10
333.40861294756712
 20
222.46447770684085
 40
4
 50
180
 51
0
  0
ARC
  8
_0-1_1_5
  6
DASHED1
 62
    7
 10
333.39238892116066
 20
147.96468515208176
 40
4
 50
0
 51
180
  0
CIRCLE
  8
_0-1_1_5
  6
CONTINUOUS
 62
    7
 10
64.689734151220705
 20
222.46447770684085
 40
8
  0
CIRCLE
  8
_0-1_1_5
  6
CONTINUOUS
 62
    7
 10
144.68973415122048
 20
222.46447770684085
 40
8
  0
LINE
  8
_0-1_1_5
  6
CONTINUOUS
 62
    7
 10
32.689734151220705
 20
226.46447770684085
 11
57.76153092094512
 21
226.46447770684085
  0
LINE
  8
_0-1_1_5
  6
CONTINUOUS
 62
    7
 10
32.689734151220705
 20
218.46447770684085
 11
57.76153092094512
 21
218.46447770684085
  0
LINE
  8
_0-1_1_5
  6
CONTINUOUS
 62
    7
 10
20.189734151220705
 20
205.78464965078632
 11
20.189734151220705
 21
164.46447770684085
  0
LINE
  8
_0-1_1_5
  6
CONTINUOUS
 62
    7
 10
12.189734151220705
 20
205.96447770684085
 11
12.189734151220705
 21
164.46447770684085
  0
ARC
  8
_0-1_1_5
  6
CONTINUOUS
 62
    7
 10
32.689734151220705
 20
205.96447770684085
 40
20.5
 50
90
 51
180
  0
ARC
  8
_0-1_1_5
  6
CONTINUOUS
 62
    7
 10
32.689734151220705
 20
205.96447770684085
 40
12.5
 50
90
 51
180
  0
LINE
  8
_0-1_1_5
  6
CONTINUOUS
 62
    7
 10
176.64614061177156
 20
143.96447770684085
 11
32.689734151220705
 21
143.96447770684085
  0
LINE
  8
_0-1_1_5
  6
CONTINUOUS
 62
    7
 10
176.64614061177156
 20
151.96447770684085
 11
32.689734151220705
 21
151.96447770684085
  0
ARC
  8
_0-1_1_5
  6
CONTINUOUS
 62
    7
 10
32.689734151220705
 20
164.46447770684085
 40
12.5
 50
180
 51
270
  0
ARC
  8
_0-1_1_5
  6
CONTINUOUS
 62
    7
 10
32.689734151220705
 20
164.46447770684085
 40
20.5
 50
180
 51
270
  0
LINE
  8
_0-1_1_5
  6
CONTINUOUS
 62
    7
 10
176.64614061177156
 20
226.46447770684085
 11
151.61793738149606
 21
226.46447770684085
  0
LINE
  8
_0-1_1_5
  6
CONTINUOUS
 62
    7
 10
176.64614061177156
 20
218.46447770684085
 11
151.61793738149606
 21
218.46447770684085
  0
LINE
  8
_0-1_1_5
  6
CONTINUOUS
 62
    7
 10
189.14614061177156
 20
205.78464965078632
 11
189.14614061177156
 21
164.46447770684085
  0
LINE
  8
_0-1_1_5
  6
CONTINUOUS
 62
    7
 10
197.14614061177156
 20
205.96447770684085
 11
197.14614061177156
 21
164.46447770684085
  0
ARC
  8
_0-1_1_5
  6
CONTINUOUS
 62
    7
 10
176.64614061177156
 20
205.96447770684085
 40
20.500000000000007
 50
0
 51
90
  0
ARC
  8
_0-1_1_5
  6
CONTINUOUS
 62
    7
 10
176.64614061177156
 20
205.96447770684085
 40
12.5
 50
0
 51
90
  0
ARC
  8
_0-1_1_5
  6
CONTINUOUS
 62
    7
 10
176.64614061177156
 20
164.46447770684085
 40
12.5
 50
270
 51
0
  0
ARC
  8
_0-1_1_5
  6
CONTINUOUS
 62
    7
 10
176.64614061177156
 20
164.46447770684085
 40
20.5
 50
270
 51
0
  0
LINE
  8
_0-1_1_5
  6
CENTER2
 62
    7
 10
60.689734151220705
 20
222.46447770684085
 11
68.689734151220705
 21
222.46447770684085
  0
LINE
  8
_0-1_1_5
  6
CENTER2
 62
    7
 10
60.689734151220705
 20
222.46447770684085
 11
68.689734151220705
 21
222.46447770684085
  0
LINE
  8
_0-1_1_5
  6
CENTER2
 62
    7
 10
64.689734151220705
 20
226.46447770684085
 11
64.689734151220705
 21
218.42438606328327
  0
LINE
  8
_0-1_1_5
  6
CENTER2
 62
    7
 10
140.6897341512207
 20
222.46447770684085
 11
148.6897341512207
 21
222.46447770684085
  0
LINE
  8
_0-1_1_5
  6
CENTER2
 62
    7
 10
140.6897341512207
 20
222.46447770684085
 11
148.6897341512207
 21
222.46447770684085
  0
LINE
  8
_0-1_1_5
  6
CENTER2
 62
    7
 10
144.6897341512207
 20
226.46447770684085
 11
144.6897341512207
 21
218.42438606328327
  0
ARC
  8
_0-1_1_5
  6
CONTINUOUS
 62
    7
 10
193.14614061177156
 20
39.572549711655768
 40
3.9999999999999858
 50
270
 51
90
  0
LINE
  8
_0-1_1_5
  6
CONTINUOUS
 62
    7
 10
152.67434540424983
 20
43.572143632172597
 11
152.67434540424983
 21
43.572143632172597
  0
LINE
  8
_0-1_1_5
  6
CONTINUOUS
 62
    7
 10
152.67434540424983
 20
43.572143632172597
 11
152.48705820105417
 21
43.501483673229131
  0
LINE
  8
_0-1_1_5
  6
CONTINUOUS
 62
    7
 10
152.48705820105417
 20
43.501483673229131
 11
152.30592920404533
 21
43.311445043999768
  0
LINE
  8
_0-1_1_5
  6
CONTINUOUS
 62
    7
 10
152.30592920404533
 20
43.311445043999768
 11
152.13646192614175
 21
43.007801972069458
  0
LINE
  8
_0-1_1_5
  6
CONTINUOUS
 62
    7
 10
152.13646192614175
 20
43.007801972069458
 11
151.98380554482793
 21
42.599780498527998
  0
LINE
  8
_0-1_1_5
  6
CONTINUOUS
 62
    7
 10
151.98380554482793
 20
42.599780498527998
 11
151.85259844700224
 21
42.099778149380114
  0
LINE
  8
_0-1_1_5
  6
CONTINUOUS
 62
    7
 10
151.85259844700224
 20
42.099778149380114
 11
151.74682729393814
 21
41.522987242991277
  0
LINE
  8
_0-1_1_5
  6
CONTINUOUS
 62
    7
 10
151.74682729393814
 20
41.522987242991277
 11
151.66970588859866
 21
40.886933279181818
  0
LINE
  8
_0-1_1_5
  6
CONTINUOUS
 62
    7
 10
151.66970588859866
 20
40.886933279181818
 11
151.62357752585976
 21
40.210942435783259
  0
LINE
  8
_0-1_1_5
  6
CONTINUOUS
 62
    7
 10
151.62357752585976
 20
40.210942435783259
 11
151.60984379268115
 21
39.515554352504395
  0
LINE
  8
_0-1_1_5
  6
CONTINUOUS
 62
    7
 10
151.60984379268115
 20
39.515554352504395
 11
151.62892198159591
 21
38.821898044372297
  0
LINE
  8
_0-1_1_5
  6
CONTINUOUS
 62
    7
 10
151.62892198159591
 20
38.821898044372297
 11
151.68023241148782
 21
38.151049907302543
  0
LINE
  8
_0-1_1_5
  6
CONTINUOUS
 62
    7
 10
151.68023241148782
 20
38.151049907302543
 11
151.76221604090901
 21
37.523393322474448
  0
LINE
  8
_0-1_1_5
  6
CONTINUOUS
 62
    7
 10
151.76221604090901
 20
37.523393322474448
 11
151.87238183876519
 21
36.957999317608461
  0
LINE
  8
_0-1_1_5
  6
CONTINUOUS
 62
    7
 10
151.87238183876519
 20
36.957999317608461
 11
152.00738247303514
 21
36.472047103439266
  0
LINE
  8
_0-1_1_5
  6
CONTINUOUS
 62
    7
 10
152.00738247303514
 20
36.472047103439266
 11
152.1631160177601
 21
36.080302092090704
  0
LINE
  8
_0-1_1_5
  6
CONTINUOUS
 62
    7
 10
152.1631160177601
 20
36.080302092090704
 11
152.33485058798868
 21
35.794667257500073
  0
LINE
  8
_0-1_1_5
  6
CONTINUOUS
 62
    7
 10
152.33485058798868
 20
35.794667257500073
 11
152.51736811570629
 21
35.623821469578189
  0
LINE
  8
_0-1_1_5
  6
CONTINUOUS
 62
    7
 10
152.51736811570629
 20
35.623821469578189
 11
152.6897341512207
 21
35.572549711655768
  0
LINE
  8
_0-1_1_5
  6
CONTINUOUS
 62
    7
 10
152.68973415122048
 20
35.572549711655768
 11
152.68973415122048
 21
30.572549711655768
  0
LINE
  8
_0-1_1_5
  6
CONTINUOUS
 62
    7
 10
152.68973415122048
 20
30.572549711655768
 11
136.68973415122048
 21
30.572549711655768
  0
LINE
  8
_0-1_1_5
  6
CONTINUOUS
 62
    7
 10
136.68973415122048
 20
30.572549711655768
 11
136.68973415122048
 21
90.572549711655753
  0
LINE
  8
_0-1_1_5
  6
CONTINUOUS
 62
    7
 10
136.68973415122048
 20
90.572549711655753
 11
152.68973415122048
 21
90.572549711655753
  0
LINE
  8
_0-1_1_5
  6
CONTINUOUS
 62
    7
 10
152.68973415122048
 20
90.572549711655753
 11
152.68973415122048
 21
43.572549711655711
  0
LINE
  8
_0-1_1_5
  6
CONTINUOUS
 62
    7
 10
193.14614061177156
 20
43.572549711655711
 11
152.68973415122048
 21
43.572549711655711
  0
LINE
  8
_0-1_1_5
  6
CONTINUOUS
 62
    7
 10
193.14614061177156
 20
35.572549711655768
 11
152.68973415122048
 21
35.572549711655768
  0
LINE
  8
_0-1_1_5
  6
CONTINUOUS
 62
    7
 10
56.689734151220705
 20
35.596766413239834
 11
56.689734151220705
 21
30.572549711655768
  0
LINE
  8
_0-1_1_5
  6
CONTINUOUS
 62
    7
 10
56.689734151220705
 20
30.572549711655768
 11
72.689734151220478
 21
30.572549711655768
  0
LINE
  8
_0-1_1_5
  6
CONTINUOUS
 62
    7
 10
72.689734151220478
 20
30.572549711655768
 11
72.689734151220478
 21
90.572549711655753
  0
LINE
  8
_0-1_1_5
  6
CONTINUOUS
 62
    7
 10
72.689734151220478
 20
90.572549711655753
 11
56.689734151220705
 21
90.572549711655753
  0
LINE
  8
_0-1_1_5
  6
CONTINUOUS
 62
    7
 10
56.689734151220705
 20
90.572549711655753
 11
56.689734151220705
 21
43.572549711655711
  0
LINE
  8
_0-1_1_5
  6
CONTINUOUS
 62
    7
 10
16.233327690669626
 20
43.572549711655711
 11
56.705124460613774
 21
43.572549711655711
  0
LINE
  8
_0-1_1_5
  6
CONTINUOUS
 62
    7
 10
16.233327690669626
 20
35.572549711655768
 11
56.801440039279555
 21
35.572549711655768
  0
ARC
  8
_0-1_1_5
  6
CONTINUOUS
 62
    7
 10
16.233327690669626
 20
39.572549711655768
 40
3.9999999999999858
 50
90
 51
270
  0
LINE
  8
_0-1_1_5
  6
CONTINUOUS
 62
    7
 10
56.689734151220705
 20
35.572549711655768
 11
56.689734151220705
 21
35.572549711655768
  0
LINE
  8
_0-1_1_5
  6
CONTINUOUS
 62
    7
 10
56.689734151220705
 20
35.572549711655768
 11
56.877274183100987
 21
35.633318699606932
  0
LINE
  8
_0-1_1_5
  6
CONTINUOUS
 62
    7
 10
56.877274183100987
 20
35.633318699606932
 11
57.05911590601243
 21
35.813779228512132
  0
LINE
  8
_0-1_1_5
  6
CONTINUOUS
 62
    7
 10
57.05911590601243
 20
35.813779228512132
 11
57.229734151220704
 21
36.108448096518011
  0
LINE
  8
_0-1_1_5
  6
CONTINUOUS
 62
    7
 10
57.229734151220704
 20
36.108448096518011
 11
57.383944769682167
 21
36.508371939179852
  0
LINE
  8
_0-1_1_5
  6
CONTINUOUS
 62
    7
 10
57.383944769682167
 20
36.508371939179852
 11
57.517062149789204
 21
37.001399272909609
  0
LINE
  8
_0-1_1_5
  6
CONTINUOUS
 62
    7
 10
57.517062149789204
 20
37.001399272909609
 11
57.625041587307898
 21
37.572549711655768
  0
LINE
  8
_0-1_1_5
  6
CONTINUOUS
 62
    7
 10
57.625041587307898
 20
37.572549711655768
 11
57.704602181669486
 21
38.20446913835309
  0
LINE
  8
_0-1_1_5
  6
CONTINUOUS
 62
    7
 10
57.704602181669486
 20
38.20446913835309
 11
57.753326524473891
 21
38.877957000988047
  0
LINE
  8
_0-1_1_5
  6
CONTINUOUS
 62
    7
 10
57.753326524473891
 20
38.877957000988047
 11
57.769734151220703
 21
39.572549711655768
  0
LINE
  8
_0-1_1_5
  6
CONTINUOUS
 62
    7
 10
57.769734151220703
 20
39.572549711655768
 11
57.753326524473891
 21
40.267142422323488
  0
LINE
  8
_0-1_1_5
  6
CONTINUOUS
 62
    7
 10
57.753326524473891
 20
40.267142422323488
 11
57.704602181669486
 21
40.940630284958438
  0
LINE
  8
_0-1_1_5
  6
CONTINUOUS
 62
    7
 10
57.704602181669486
 20
40.940630284958438
 11
57.625041587307898
 21
41.572549711655768
  0
LINE
  8
_0-1_1_5
  6
CONTINUOUS
 62
    7
 10
57.625041587307898
 20
41.572549711655768
 11
57.517062149789204
 21
42.143700150401919
  0
LINE
  8
_0-1_1_5
  6
CONTINUOUS
 62
    7
 10
57.517062149789204
 20
42.143700150401919
 11
57.383944769682167
 21
42.636727484131676
  0
LINE
  8
_0-1_1_5
  6
CONTINUOUS
 62
    7
 10
57.383944769682167
 20
42.636727484131676
 11
57.229734151220704
 21
43.036651326793518
  0
LINE
  8
_0-1_1_5
  6
CONTINUOUS
 62
    7
 10
57.229734151220704
 20
43.036651326793518
 11
57.05911590601243
 21
43.331320194799396
  0
LINE
  8
_0-1_1_5
  6
CONTINUOUS
 62
    7
 10
57.05911590601243
 20
43.331320194799396
 11
56.877274183100994
 21
43.511780723704597
  0
LINE
  8
_0-1_1_5
  6
CONTINUOUS
 62
    7
 10
56.877274183100994
 20
43.511780723704597
 11
56.705122898191576
 21
43.572143632172597
  0
LINE
  8
_0-1_1_5
  6
CONTINUOUS
 62
    7
 10
72.689734151220478
 20
43.572143632172612
 11
136.68973415122048
 21
43.572143632172612
  0
LINE
  8
_0-1_1_5
  6
CONTINUOUS
 62
    7
 10
72.689734151220478
 20
35.572143632172612
 11
136.68973415122048
 21
35.572143632172612
  0
ARC
  8
_0-1_1_5
  6
DASHED1
 62
    7
 10
193.14614061177156
 20
39.572549711655768
 40
3.9999999999999858
 50
90
 51
270
  0
ARC
  8
_0-1_1_5
  6
DASHED1
 62
    7
 10
16.233327690669626
 20
39.572549711655768
 40
3.9999999999999858
 50
270
 51
90
  0
LINE
  8
_0-1_1_5
  6
CONTINUOUS
 62
    7
 10
64.689734151220705
 20
90.572549711655753
 11
64.689734151220705
 21
106.72704369883886
  0
LINE
  8
_0-1_1_5
  6
CONTINUOUS
 62
    7
 10
62.939832156924808
 20
112.42395590978458
 11
64.689734151220705
 21
118.04944059735163
  0
LINE
  8
_0-1_1_5
  6
DASHED2
 62
    7
 10
58.812189502662136
 20
90.572549711655654
 11
58.812189502662136
 21
85.822549711655881
  0
LINE
  8
_0-1_1_5
  6
DASHED2
 62
    7
 10
58.812189502662136
 20
85.822549711655881
 11
59.812189502662363
 21
85.822549711655881
  0
LINE
  8
_0-1_1_5
  6
DASHED2
 62
    7
 10
59.812189502662363
 20
85.822549711655881
 11
59.812189502662363
 21
81.322549711655768
  0
LINE
  8
_0-1_1_5
  6
DASHED2
 62
    7
 10
59.812189502662363
 20
81.322549711655768
 11
58.812189502662136
 21
81.322549711655768
  0
LINE
  8
_0-1_1_5
  6
DASHED2
 62
    7
 10
58.812189502662136
 20
81.322549711655768
 11
58.812189502662136
 21
75.572549711655654
  0
LINE
  8
_0-1_1_5
  6
DASHED2
 62
    7
 10
58.812189502662136
 20
75.572549711655654
 11
59.812189502662363
 21
75.572549711655654
  0
LINE
  8
_0-1_1_5
  6
DASHED2
 62
    7
 10
59.812189502662363
 20
75.572549711655654
 11
62.31218950266225
 21
78.072549711655654
  0
LINE
  8
_0-1_1_5
  6
DASHED2
 62
    7
 10
62.31218950266225
 20
78.072549711655654
 11
62.312189502662363
 21
90.572549711655881
  0
LINE
  8
_0-1_1_5
  6
DASHED2
 62
    7
 10
62.312189502662363
 20
90.572549711655768
 11
67.312189502662363
 21
90.572549711655768
  0
LINE
  8
_0-1_1_5
  6
CONTINUOUS
 62
    7
 10
66.439636145516602
 20
89.572549711655654
 11
66.439636145516602
 21
112.42450983843236
  0
LINE
  8
_0-1_1_5
  6
CONTINUOUS
 62
    7
 10
62.939832156924808
 20
89.572549711655654
 11
62.939832156924808
 21
112.42395590978458
  0
LINE
  8
_0-1_1_5
  6
CONTINUOUS
 62
    7
 10
66.322825892472679
 20
94.143484871945759
 11
62.823021903880885
 21
95.54971756167555
  0
LINE
  8
_0-1_1_5
  6
CONTINUOUS
 62
    7
 10
66.322825892472679
 20
108.20581176924344
 11
62.823021903880885
 21
109.61204445897306
  0
LINE
  8
_0-1_1_5
  6
CONTINUOUS
 62
    7
 10
66.322825892472679
 20
111.01827714870291
 11
62.823021903880885
 21
112.42450983843236
  0
LINE
  8
_0-1_1_5
  6
CONTINUOUS
 62
    7
 10
66.322825892472679
 20
109.61204445897306
 11
62.823021903880885
 21
111.01827714870291
  0
LINE
  8
_0-1_1_5
  6
CONTINUOUS
 62
    7
 10
66.322825892472679
 20
106.79957907951342
 11
62.823021903880885
 21
108.20581176924344
  0
LINE
  8
_0-1_1_5
  6
CONTINUOUS
 62
    7
 10
66.322825892472679
 20
92.737252182216309
 11
62.823021903880885
 21
94.143484871945759
  0
LINE
  8
_0-1_1_5
  6
CONTINUOUS
 62
    7
 10
66.322825892472679
 20
105.39334638978374
 11
62.823021903880885
 21
106.79957907951342
  0
LINE
  8
_0-1_1_5
  6
CONTINUOUS
 62
    7
 10
66.322825892472679
 20
103.98711370005418
 11
62.823021903880885
 21
105.39334638978374
  0
LINE
  8
_0-1_1_5
  6
CONTINUOUS
 62
    7
 10
66.322825892472679
 20
102.58088101032428
 11
62.823021903880885
 21
103.98711370005418
  0
LINE
  8
_0-1_1_5
  6
CONTINUOUS
 62
    7
 10
66.322825892472679
 20
101.17464832059449
 11
62.823021903880885
 21
102.58088101032428
  0
LINE
  8
_0-1_1_5
  6
CONTINUOUS
 62
    7
 10
66.322825892472679
 20
99.768415630864808
 11
62.823021903880885
 21
101.17464832059449
  0
LINE
  8
_0-1_1_5
  6
CONTINUOUS
 62
    7
 10
66.322825892472679
 20
98.362182941135245
 11
62.823021903880885
 21
99.768415630864808
  0
LINE
  8
_0-1_1_5
  6
CONTINUOUS
 62
    7
 10
66.322825892472679
 20
95.54971756167555
 11
62.823021903880885
 21
96.955950251405568
  0
LINE
  8
_0-1_1_5
  6
CONTINUOUS
 62
    7
 10
66.322825892472679
 20
96.955950251405568
 11
62.823021903880885
 21
98.362182941135245
  0
LINE
  8
_0-1_1_5
  6
CONTINUOUS
 62
    7
 10
66.322825892472679
 20
91.331019492486064
 11
62.823021903880885
 21
92.737252182216309
  0
LINE
  8
_0-1_1_5
  6
CONTINUOUS
 62
    7
 10
66.322825892472679
 20
89.924786802756614
 11
62.823021903880885
 21
91.331019492486064
  0
LINE
  8
_0-1_1_5
  6
CONTINUOUS
 62
    7
 10
64.689734151220705
 20
118.04944059735163
 11
66.439636145516602
 21
112.42450983843236
  0
LINE
  8
_0-1_1_5
  6
DASHED2
 62
    7
 10
67.31218950266225
 20
78.072549711655654
 11
67.312189502662363
 21
90.572549711655881
  0
LINE
  8
_0-1_1_5
  6
DASHED2
 62
    7
 10
69.81218950266225
 20
75.572549711655654
 11
67.31218950266225
 21
78.072549711655654
  0
LINE
  8
_0-1_1_5
  6
DASHED2
 62
    7
 10
70.812189502662136
 20
75.572549711655654
 11
69.81218950266225
 21
75.572549711655654
  0
LINE
  8
_0-1_1_5
  6
DASHED2
 62
    7
 10
70.812189502662136
 20
81.322549711655768
 11
70.812189502662136
 21
75.572549711655654
  0
LINE
  8
_0-1_1_5
  6
DASHED2
 62
    7
 10
69.81218950266225
 20
81.322549711655768
 11
70.812189502662136
 21
81.322549711655768
  0
LINE
  8
_0-1_1_5
  6
DASHED2
 62
    7
 10
69.812189502662363
 20
85.822549711655881
 11
69.81218950266225
 21
81.322549711655768
  0
LINE
  8
_0-1_1_5
  6
DASHED2
 62
    7
 10
70.812189502662136
 20
85.822549711655881
 11
69.812189502662363
 21
85.822549711655881
  0
LINE
  8
_0-1_1_5
  6
DASHED2
 62
    7
 10
70.812189502662136
 20
90.572549711655654
 11
70.812189502662136
 21
85.822549711655881
  0
LINE
  8
_0-1_1_5
  6
DASHED2
 62
    7
 10
66.439636145516147
 20
77.850491456822795
 11
66.439636145516602
 21
93.572549711655768
  0
LINE
  8
_0-1_1_5
  6
DASHED2
 62
    7
 10
62.939832156924808
 20
77.850491456822795
 11
62.939832156924808
 21
93.572549711655768
  0
LINE
  8
_0-1_1_5
  6
DASHED2
 62
    7
 10
61.189734151220591
 20
76.100393451118578
 11
62.939832156924808
 21
77.850491456822795
  0
LINE
  8
_0-1_1_5
  6
DASHED2
 62
    7
 10
62.939832156924808
 20
77.850491456822795
 11
66.439636145516488
 21
77.850491456822795
  0
LINE
  8
_0-1_1_5
  6
DASHED2
 62
    7
 10
64.454659385230116
 20
77.850491456822795
 11
62.823021903880885
 21
78.50608873356731
  0
LINE
  8
_0-1_1_5
  6
DASHED2
 62
    7
 10
66.322825892472679
 20
78.499856043837724
 11
62.823021903880885
 21
79.906088733567628
  0
LINE
  8
_0-1_1_5
  6
DASHED2
 62
    7
 10
66.322825892472679
 20
79.899856043837701
 11
62.823021903880885
 21
81.306088733567492
  0
LINE
  8
_0-1_1_5
  6
DASHED2
 62
    7
 10
66.322825892472679
 20
81.299856043837906
 11
62.823021903880885
 21
82.706088733567356
  0
LINE
  8
_0-1_1_5
  6
DASHED2
 62
    7
 10
66.322825892472679
 20
82.699856043837769
 11
62.823021903880885
 21
84.106088733567333
  0
LINE
  8
_0-1_1_5
  6
DASHED2
 62
    7
 10
66.322825892472679
 20
84.099856043837633
 11
62.823021903880885
 21
85.506088733567196
  0
LINE
  8
_0-1_1_5
  6
DASHED2
 62
    7
 10
66.322825892472679
 20
85.49985604383761
 11
62.823021903880885
 21
86.906088733567515
  0
LINE
  8
_0-1_1_5
  6
DASHED2
 62
    7
 10
66.322825892472679
 20
86.899856043837474
 11
62.823021903880885
 21
88.306088733567378
  0
LINE
  8
_0-1_1_5
  6
DASHED2
 62
    7
 10
66.322825892472679
 20
88.299856043837792
 11
62.823021903880885
 21
89.706088733567242
  0
LINE
  8
_0-1_1_5
  6
STYLE_01
 62
    7
 10
68.189734151220591
 20
76.100393451118578
 11
66.439636145516488
 21
77.85049145682234
  0
LINE
  8
_0-1_1_5
  6
DASHED2
 62
    7
 10
69.81218950266225
 20
75.572549711655654
 11
59.812189502662363
 21
75.572549711655654
  0
LINE
  8
_0-1_1_5
  6
CONTINUOUS
 62
    7
 10
144.6897341512207
 20
90.572549711655753
 11
144.6897341512207
 21
106.72704369883886
  0
LINE
  8
_0-1_1_5
  6
CONTINUOUS
 62
    7
 10
142.93983215692481
 20
112.42395590978458
 11
144.6897341512207
 21
118.04944059735163
  0
LINE
  8
_0-1_1_5
  6
DASHED2
 62
    7
 10
138.81218950266214
 20
90.572549711655654
 11
138.81218950266214
 21
85.822549711655881
  0
LINE
  8
_0-1_1_5
  6
DASHED2
 62
    7
 10
138.81218950266214
 20
85.822549711655881
 11
139.81218950266236
 21
85.822549711655881
  0
LINE
  8
_0-1_1_5
  6
DASHED2
 62
    7
 10
139.81218950266236
 20
85.822549711655881
 11
139.81218950266236
 21
81.322549711655768
  0
LINE
  8
_0-1_1_5
  6
DASHED2
 62
    7
 10
139.81218950266236
 20
81.322549711655768
 11
138.81218950266214
 21
81.322549711655768
  0
LINE
  8
_0-1_1_5
  6
DASHED2
 62
    7
 10
138.81218950266214
 20
81.322549711655768
 11
138.81218950266214
 21
75.572549711655654
  0
LINE
  8
_0-1_1_5
  6
DASHED2
 62
    7
 10
138.81218950266214
 20
75.572549711655654
 11
139.81218950266236
 21
75.572549711655654
  0
LINE
  8
_0-1_1_5
  6
DASHED2
 62
    7
 10
139.81218950266236
 20
75.572549711655654
 11
142.31218950266225
 21
78.072549711655654
  0
LINE
  8
_0-1_1_5
  6
DASHED2
 62
    7
 10
142.31218950266225
 20
78.072549711655654
 11
142.31218950266236
 21
90.572549711655881
  0
LINE
  8
_0-1_1_5
  6
DASHED2
 62
    7
 10
142.31218950266236
 20
90.572549711655768
 11
147.31218950266236
 21
90.572549711655768
  0
LINE
  8
_0-1_1_5
  6
CONTINUOUS
 62
    7
 10
146.4396361455166
 20
89.572549711655654
 11
146.4396361455166
 21
112.42450983843236
  0
LINE
  8
_0-1_1_5
  6
CONTINUOUS
 62
    7
 10
142.93983215692481
 20
89.572549711655654
 11
142.93983215692481
 21
112.42395590978458
  0
LINE
  8
_0-1_1_5
  6
CONTINUOUS
 62
    7
 10
146.32282589247268
 20
94.143484871945759
 11
142.82302190388089
 21
95.54971756167555
  0
LINE
  8
_0-1_1_5
  6
CONTINUOUS
 62
    7
 10
146.32282589247268
 20
108.20581176924344
 11
142.82302190388089
 21
109.61204445897306
  0
LINE
  8
_0-1_1_5
  6
CONTINUOUS
 62
    7
 10
146.32282589247268
 20
111.01827714870291
 11
142.82302190388089
 21
112.42450983843236
  0
LINE
  8
_0-1_1_5
  6
CONTINUOUS
 62
    7
 10
146.32282589247268
 20
109.61204445897306
 11
142.82302190388089
 21
111.01827714870291
  0
LINE
  8
_0-1_1_5
  6
CONTINUOUS
 62
    7
 10
146.32282589247268
 20
106.79957907951342
 11
142.82302190388089
 21
108.20581176924344
  0
LINE
  8
_0-1_1_5
  6
CONTINUOUS
 62
    7
 10
146.32282589247268
 20
92.737252182216309
 11
142.82302190388089
 21
94.143484871945759
  0
LINE
  8
_0-1_1_5
  6
CONTINUOUS
 62
    7
 10
146.32282589247268
 20
105.39334638978374
 11
142.82302190388089
 21
106.79957907951342
  0
LINE
  8
_0-1_1_5
  6
CONTINUOUS
 62
    7
 10
146.32282589247268
 20
103.98711370005418
 11
142.82302190388089
 21
105.39334638978374
  0
LINE
  8
_0-1_1_5
  6
CONTINUOUS
 62
    7
 10
146.32282589247268
 20
102.58088101032428
 11
142.82302190388089
 21
103.98711370005418
  0
LINE
  8
_0-1_1_5
  6
CONTINUOUS
 62
    7
 10
146.32282589247268
 20
101.17464832059449
 11
142.82302190388089
 21
102.58088101032428
  0
LINE
  8
_0-1_1_5
  6
CONTINUOUS
 62
    7
 10
146.32282589247268
 20
99.768415630864808
 11
142.82302190388089
 21
101.17464832059449
  0
LINE
  8
_0-1_1_5
  6
CONTINUOUS
 62
    7
 10
146.32282589247268
 20
98.362182941135245
 11
142.82302190388089
 21
99.768415630864808
  0
LINE
  8
_0-1_1_5
  6
CONTINUOUS
 62
    7
 10
146.32282589247268
 20
95.54971756167555
 11
142.82302190388089
 21
96.955950251405568
  0
LINE
  8
_0-1_1_5
  6
CONTINUOUS
 62
    7
 10
146.32282589247268
 20
96.955950251405568
 11
142.82302190388089
 21
98.362182941135245
  0
LINE
  8
_0-1_1_5
  6
CONTINUOUS
 62
    7
 10
146.32282589247268
 20
91.331019492486064
 11
142.82302190388089
 21
92.737252182216309
  0
LINE
  8
_0-1_1_5
  6
CONTINUOUS
 62
    7
 10
146.32282589247268
 20
89.924786802756614
 11
142.82302190388089
 21
91.331019492486064
  0
LINE
  8
_0-1_1_5
  6
CONTINUOUS
 62
    7
 10
144.6897341512207
 20
118.04944059735163
 11
146.4396361455166
 21
112.42450983843236
  0
LINE
  8
_0-1_1_5
  6
DASHED2
 62
    7
 10
147.31218950266225
 20
78.072549711655654
 11
147.31218950266236
 21
90.572549711655881
  0
LINE
  8
_0-1_1_5
  6
DASHED2
 62
    7
 10
149.81218950266225
 20
75.572549711655654
 11
147.31218950266225
 21
78.072549711655654
  0
LINE
  8
_0-1_1_5
  6
DASHED2
 62
    7
 10
150.81218950266214
 20
75.572549711655654
 11
149.81218950266225
 21
75.572549711655654
  0
LINE
  8
_0-1_1_5
  6
DASHED2
 62
    7
 10
150.81218950266214
 20
81.322549711655768
 11
150.81218950266214
 21
75.572549711655654
  0
LINE
  8
_0-1_1_5
  6
DASHED2
 62
    7
 10
149.81218950266225
 20
81.322549711655768
 11
150.81218950266214
 21
81.322549711655768
  0
LINE
  8
_0-1_1_5
  6
DASHED2
 62
    7
 10
149.81218950266236
 20
85.822549711655881
 11
149.81218950266225
 21
81.322549711655768
  0
LINE
  8
_0-1_1_5
  6
DASHED2
 62
    7
 10
150.81218950266214
 20
85.822549711655881
 11
149.81218950266236
 21
85.822549711655881
  0
LINE
  8
_0-1_1_5
  6
DASHED2
 62
    7
 10
150.81218950266214
 20
90.572549711655654
 11
150.81218950266214
 21
85.822549711655881
  0
LINE
  8
_0-1_1_5
  6
DASHED2
 62
    7
 10
146.43963614551615
 20
77.850491456822795
 11
146.4396361455166
 21
93.572549711655768
  0
LINE
  8
_0-1_1_5
  6
DASHED2
 62
    7
 10
142.93983215692481
 20
77.850491456822795
 11
142.93983215692481
 21
93.572549711655768
  0
LINE
  8
_0-1_1_5
  6
DASHED2
 62
    7
 10
141.18973415122059
 20
76.100393451118578
 11
142.93983215692481
 21
77.850491456822795
  0
LINE
  8
_0-1_1_5
  6
DASHED2
 62
    7
 10
142.93983215692481
 20
77.850491456822795
 11
146.43963614551649
 21
77.850491456822795
  0
LINE
  8
_0-1_1_5
  6
DASHED2
 62
    7
 10
144.45465938523012
 20
77.850491456822795
 11
142.82302190388089
 21
78.50608873356731
  0
LINE
  8
_0-1_1_5
  6
DASHED2
 62
    7
 10
146.32282589247268
 20
78.499856043837724
 11
142.82302190388089
 21
79.906088733567628
  0
LINE
  8
_0-1_1_5
  6
DASHED2
 62
    7
 10
146.32282589247268
 20
79.899856043837701
 11
142.82302190388089
 21
81.306088733567492
  0
LINE
  8
_0-1_1_5
  6
DASHED2
 62
    7
 10
146.32282589247268
 20
81.299856043837906
 11
142.82302190388089
 21
82.706088733567356
  0
LINE
  8
_0-1_1_5
  6
DASHED2
 62
    7
 10
146.32282589247268
 20
82.699856043837769
 11
142.82302190388089
 21
84.106088733567333
  0
LINE
  8
_0-1_1_5
  6
DASHED2
 62
    7
 10
146.32282589247268
 20
84.099856043837633
 11
142.82302190388089
 21
85.506088733567196
  0
LINE
  8
_0-1_1_5
  6
DASHED2
 62
    7
 10
146.32282589247268
 20
85.49985604383761
 11
142.82302190388089
 21
86.906088733567515
  0
LINE
  8
_0-1_1_5
  6
DASHED2
 62
    7
 10
146.32282589247268
 20
86.899856043837474
 11
142.82302190388089
 21
88.306088733567378
  0
LINE
  8
_0-1_1_5
  6
DASHED2
 62
    7
 10
146.32282589247268
 20
88.299856043837792
 11
142.82302190388089
 21
89.706088733567242
  0
LINE
  8
_0-1_1_5
  6
STYLE_01
 62
    7
 10
148.18973415122059
 20
76.100393451118578
 11
146.43963614551649
 21
77.85049145682234
  0
LINE
  8
_0-1_1_5
  6
DASHED2
 62
    7
 10
149.81218950266225
 20
75.572549711655654
 11
139.81218950266236
 21
75.572549711655654
  0
POINT
  8
_0-2_ADD_LINE
 62
    7
 10
136.68973415122048
 20
10.572549711655711
  0
POINT
  8
_0-2_ADD_LINE
 62
    7
 10
152.68973415122048
 20
10.572549711655711
  0
LINE
  8
_0-1_1_5
  6
CONTINUOUS
 62
    7
 10
136.68973415122048
 20
10.572549711655711
 11
152.68973415122048
 21
10.572549711655711
  0
TEXT
  8
_0-1_1_5
 62
    4
 10
144.4661256427834
 20
11.554902448971404
 40
5
 41
1
 50
0
  1
16
  0
TEXT
  8
_0-2_ADD_LINE
 62
    7
 10
139.35765108531103
 20
11.435049885575751
 40
6.1081542968750009
 41
1
 50
0
  1
φ
  0
LINE
  8
_0-2_ADD_LINE
  6
CONTINUOUS
 62
    7
 10
152.68973415122048
 20
10.572549711655711
 11
152.68973415122048
 21
28.572549711655768
  0
LINE
  8
_0-2_ADD_LINE
  6
CONTINUOUS
 62
    7
 10
136.68973415122048
 20
10.572549711655711
 11
136.68973415122048
 21
28.572549711655768
  0
POINT
  8
_0-2_ADD_LINE
 62
    7
 10
333.40861294756712
 20
250.46447770684085
  0
POINT
  8
_0-2_ADD_LINE
 62
    7
 10
384.40861294756701
 20
250.46447770684085
  0
LINE
  8
_0-1_1_5
  6
CONTINUOUS
 62
    7
 10
333.40861294756712
 20
250.46447770684085
 11
384.40861294756701
 21
250.46447770684085
  0
TEXT
  8
_0-1_1_5
 62
    4
 10
356.40861294756706
 20
251.46447770684085
 40
5
 41
1
 50
0
  1
51
  0
LINE
  8
_0-2_ADD_LINE
  6
CONTINUOUS
 62
    7
 10
384.40861294756701
 20
260.46447770684085
 11
384.40861294756701
 21
234.46447770684085
  0
POINT
  8
_0-2_ADD_LINE
 62
    7
 10
64.689734151220705
 20
250.46447770684085
  0
POINT
  8
_0-2_ADD_LINE
 62
    7
 10
144.6897341512207
 20
250.46447770684085
  0
LINE
  8
_0-3_
  6
CONTINUOUS
 62
    7
 10
64.689734151220705
 20
250.46447770684085
 11
144.6897341512207
 21
250.46447770684085
  0
TEXT
  8
_0-3_
 62
    4
 10
102.1897341512207
 20
251.46447770684085
 40
5
 41
1
 50
0
  1
80
  0
POINT
  8
_0-2_ADD_LINE
 62
    7
 10
12.189734151220705
 20
260.46447770684085
  0
POINT
  8
_0-2_ADD_LINE
 62
    7
 10
197.14614061177156
 20
260.46447770684085
  0
LINE
  8
_0-3_
  6
CONTINUOUS
 62
    7
 10
12.189734151220705
 20
260.46447770684085
 11
197.14614061177156
 21
260.46447770684085
  0
TEXT
  8
_0-3_
 62
    4
 10
100.91793738149613
 20
261.46447770684085
 40
5
 41
1
 50
0
  1
185
  0
LINE
  8
_0-2_ADD_LINE
  6
CONTINUOUS
 62
    7
 10
197.14614061177156
 20
260.46447770684085
 11
197.14614061177156
 21
213.30473431692164
  0
LINE
  8
_0-2_ADD_LINE
  6
CONTINUOUS
 62
    7
 10
144.6897341512207
 20
250.46447770684085
 11
144.6897341512207
 21
234.46447770684085
  0
LINE
  8
_0-2_ADD_LINE
  6
CONTINUOUS
 62
    7
 10
64.689734151220705
 20
250.46447770684085
 11
64.689734151220705
 21
234.46447770684085
  0
LINE
  8
_0-2_ADD_LINE
  6
CONTINUOUS
 62
    7
 10
12.189734151220705
 20
260.46447770684085
 11
12.189734151220705
 21
213.30473431692164
  0
LINE
  8
_0-2_ADD_LINE
  6
CONTINUOUS
 62
    7
 10
-7.8102658487792951
 20
230.46447770684085
 11
30.689734151220705
 21
230.46447770684085
  0
LINE
  8
_0-2_ADD_LINE
  6
CONTINUOUS
 62
    7
 10
-7.8102658487792951
 20
143.96447770684085
 11
30.689734151220705
 21
143.96447770684085
  0
LINE
  8
_0-2_ADD_LINE
  6
CONTINUOUS
 62
    7
 10
217.14614061177156
 20
226.46447770684085
 11
180.64614061177156
 21
226.46447770684085
  0
LINE
  8
_0-2_ADD_LINE
  6
CONTINUOUS
 62
    7
 10
217.14614061177156
 20
143.96447770684085
 11
180.64614061177156
 21
143.96447770684085
  0
LINE
  8
_0-2_ADD_LINE
  6
CONTINUOUS
 62
    7
 10
333.40861294756712
 20
250.46447770684085
 11
333.40861294756712
 21
234.46447770684085
  0
LINE
  8
_0-2_ADD_LINE
  6
CONTINUOUS
 62
    7
 10
324.40861294756712
 20
260.46447770684085
 11
324.40861294756712
 21
234.46447770684085
  0
LINE
  8
_0-2_ADD_LINE
  6
CONTINUOUS
 62
    7
 10
384.40861294756701
 20
250.46447770684085
 11
384.40861294756701
 21
234.46447770684085
  0
LINE
  8
_0-2_ADD_LINE
  6
CONTINUOUS
 62
    7
 10
217.08712871484227
 20
43.556325685249305
 11
197.14614061177156
 21
43.556325685249305
  0
LINE
  8
_0-2_ADD_LINE
  6
CONTINUOUS
 62
    7
 10
217.08712871484227
 20
35.556325685249305
 11
197.14614061177156
 21
35.556325685249305
  0
POINT
  8
_0-2_ADD_LINE
 62
    7
 10
324.40861294756712
 20
260.46447770684085
  0
POINT
  8
_0-2_ADD_LINE
 62
    7
 10
384.40861294756701
 20
260.46447770684085
  0
LINE
  8
_0-3_
  6
CONTINUOUS
 62
    7
 10
324.40861294756712
 20
260.46447770684085
 11
384.40861294756701
 21
260.46447770684085
  0
TEXT
  8
_0-3_
 62
    4
 10
351.90861294756706
 20
261.46447770684085
 40
5
 41
1
 50
0
  1
60
  0
POINT
  8
_0-2_ADD_LINE
 62
    7
 10
217.14614061177156
 20
226.46447770684085
  0
POINT
  8
_0-2_ADD_LINE
 62
    7
 10
217.14614061177156
 20
143.96447770684085
  0
LINE
  8
_0-3_
  6
CONTINUOUS
 62
    7
 10
217.14614061177156
 20
226.46447770684085
 11
217.14614061177156
 21
143.96447770684085
  0
TEXT
  8
_0-3_
 62
    4
 10
216.14614061177156
 20
180.21447770684085
 40
5
 41
1
 50
90
  1
82.5
  0
POINT
  8
_0-2_ADD_LINE
 62
    7
 10
217.08712871484227
 20
35.556325685249305
  0
LINE
  8
_0-3_
  6
CONTINUOUS
 62
    7
 10
217.08712871484227
 20
35.556325685249305
 11
217.08712871484227
 21
43.556325685249305
  0
TEXT
  8
_0-3_
 62
    4
 10
216.53097127529423
 20
51.05177894778916
 40
5
 41
1
 50
90
  1
8
  0
POINT
  8
_0-2_ADD_LINE
 62
    7
 10
217.08712871484227
 20
43.556325685249305
  0
LINE
  8
_0-2_ADD_LINE
  6
CONTINUOUS
 62
    7
 10
217.08712871484227
 20
43.556325685249305
 11
217.08712871484227
 21
55.000270967492611
  0
TEXT
  8
_0-2_ADD_LINE
 62
    7
 10
216.74317269219182
 20
45.14599392940238
 40
6.1081542968750009
 41
1
 50
90
  1
φ
  0
POINT
  8
_0-2_ADD_LINE
 62
    7
 10
-7.8102658487792951
 20
143.96447770684085
  0
POINT
  8
_0-2_ADD_LINE
 62
    7
 10
-7.8102658487792951
 20
230.46447770684085
  0
LINE
  8
_0-1_1_5
  6
CONTINUOUS
 62
    7
 10
-7.8102658487792951
 20
143.96447770684085
 11
-7.8102658487792951
 21
230.46447770684085
  0
TEXT
  8
_0-1_1_5
 62
    4
 10
-8.8102658487792951
 20
182.21447770684085
 40
5
 41
1
 50
90
  1
86.5
  0
TEXT
  8
_0-3_
 62
    7
 10
321.93216695212038
 20
-41.80563917926429
 40
6.1081542968750009
 41
1
 50
0
  1
TFP40-A500-002
  0
ENDSEC
  0
EOF
