  0
SECTION
  2
HEADER
  9
$ACADVER
  1
AC1009
  9
$INSBASE
 10
0
 20
0
 30
0
  9
$EXTMIN
 10
0
 20
0
  9
$EXTMAX
 10
594
 20
420
  9
$LIMMIN
 10
0
 20
0
  9
$LIMMAX
 10
594
 20
420
  9
$LTSCALE
 40
2
  0
ENDSEC
  0
SECTION
  2
TABLES
  0
TABLE
  2
LTYPE
 70
     9
  0
LTYPE
  2
CONTINUOUS
 70
    64
  3
実線
 72
    65
 73
     0
 40
0.0
  0
LTYPE
  2
DASHED1
 70
    64
  3
--  --  --  --  --  --  --  --  
 72
    65
 73
     2
 40
2.5
 49
1.25
 49
-1.25
  0
LTYPE
  2
DASHED2
 70
    64
  3
----    ----    ----    ----    
 72
    65
 73
     2
 40
5.0
 49
2.5
 49
-2.5
  0
LTYPE
  2
DASHED3
 70
    64
  3
------  ------  ------  ------  
 72
    65
 73
     2
 40
5.0
 49
3.75
 49
-1.25
  0
LTYPE
  2
CENTER1
 70
    64
  3
----- - ----- - ----- - ----- - 
 72
    65
 73
     4
 40
10.0
 49
6.25
 49
-1.25
 49
1.25
 49
-1.25
  0
LTYPE
  2
CENTER2
 70
    64
  3
----------  --  ----------  --  
 72
    65
 73
     4
 40
20.0
 49
12.5
 49
-2.5
 49
2.5
 49
-2.5
  0
LTYPE
  2
PHANTOM1
 70
    64
  3
--- - - --- - - --- - - --- - - 
 72
    65
 73
     6
 40
10.0
 49
3.25
 49
-1.25
 49
1.25
 49
-1.25
 49
1.25
 49
-1.25
  0
LTYPE
  2
PHANTOM2
 70
    64
  3
--------  -  -  --------  -  -  
 72
    65
 73
     6
 40
20.0
 49
10.0
 49
-2.5
 49
1.25
 49
-2.5
 49
1.25
 49
-2.5
  0
LTYPE
  2
DOT
 70
    64
  3
-   -   -   -   -   -   -   -   
 72
    65
 73
     2
 40
2.5
 49
0.625
 49
-1.875
  0
LTYPE
  2
DUMMY
 70
    64
  3
ダミー
 72
    65
 73
     0
 40
0.0
  0
LTYPE
  2
RAND1
 70
    64
  3
ランダム線1
 72
    65
 73
     4
 40
10.0
 49
1.0
 49
-2.0
 49
3.0
 49
-4.0
  0
LTYPE
  2
RAND2
 70
    64
  3
ランダム線2
 72
    65
 73
     4
 40
14.0
 49
2.0
 49
-3.0
 49
4.0
 49
-5.0
  0
LTYPE
  2
RAND3
 70
    64
  3
ランダム線3
 72
    65
 73
     4
 40
18.0
 49
3.0
 49
-4.0
 49
5.0
 49
-6.0
  0
LTYPE
  2
RAND4
 70
    64
  3
ランダム線4
 72
    65
 73
     4
 40
22.0
 49
4.0
 49
-5.0
 49
6.0
 49
-7.0
  0
LTYPE
  2
RAND5
 70
    64
  3
ランダム線5
 72
    65
 73
     4
 40
26.0
 49
5.0
 49
-6.0
 49
7.0
 49
-8.0
  0
LTYPE
  2
LONG1
 70
    64
  3
----------  --  ----------  --  
 72
    65
 73
     4
 40
40.0
 49
32.5
 49
-2.5
 49
2.5
 49
-2.5
  0
LTYPE
  2
LONG2
 70
    64
  3
--------  -  -  --------  -  -  
 72
    65
 73
     6
 40
40.0
 49
30.0
 49
-2.5
 49
1.25
 49
-2.5
 49
1.25
 49
-2.5
  0
LTYPE
  2
LONG3
 70
    64
  3
+++++++++++++++..+++++++++++++++
 72
    65
 73
     2
 40
40.0
 49
37.5
 49
-2.5
  0
LTYPE
  2
LONG4
 70
    64
  3
+++++++++++++++..+++++++++++++++
 72
    65
 73
     2
 40
80.0
 49
75.0
 49
-5.0
  0
LTYPE
  2
LONG5
 70
    64
  3
----------  --  ----------  --  
 72
    65
 73
     4
 40
60.0
 49
37.5
 49
-7.5
 49
7.5
 49
-7.5
  0
LTYPE
  2
dashed
 70
   64
  3
-------   -------------   ------
 72
   65
 73
    2
 40
7.5
 49
6
 49
-1.5
  0
LTYPE
  2
dashed_spaced
 70
   64
  3
----        --------        ----
 72
   65
 73
    2
 40
12
 49
6
 49
-6
  0
LTYPE
  2
long_dashed_dotted
 70
   64
  3
------------- --- --------------
 72
   65
 73
    4
 40
15.25
 49
12
 49
-1.5
 49
0.25
 49
-1.5
  0
LTYPE
  2
long_dashed_double-dotted
 70
   64
  3
----------- --- --- ------------
 72
   65
 73
    6
 40
17
 49
12
 49
-1.5
 49
0.25
 49
-1.5
 49
0.25
 49
-1.5
  0
LTYPE
  2
long_dashed_triplicate-dotted
 70
   64
  3
--------- --- --- --- ----------
 72
   65
 73
    8
 40
18.75
 49
12
 49
-1.5
 49
0.25
 49
-1.5
 49
0.25
 49
-1.5
 49
0.25
 49
-1.5
  0
LTYPE
  2
dotted
 70
   64
  3
   -       -       -       -    
 72
   65
 73
    2
 40
1.75
 49
0.25
 49
-1.5
  0
LTYPE
  2
chain
 70
   64
  3
-------------- -- --------------
 72
   65
 73
    4
 40
18.5
 49
12
 49
-1.5
 49
3.5
 49
-1.5
  0
LTYPE
  2
chain_double_dash
 70
   64
  3
------------ -- -- -------------
 72
   65
 73
    6
 40
23.5
 49
12
 49
-1.5
 49
3.5
 49
-1.5
 49
3.5
 49
-1.5
  0
LTYPE
  2
dashed_dotted
 70
   64
  3
-----------     -     ----------
 72
   65
 73
    4
 40
9.25
 49
6
 49
-1.5
 49
0.25
 49
-1.5
  0
LTYPE
  2
double-dashed_dotted
 70
   64
  3
------   -----------   -   -----
 72
   65
 73
    6
 40
16.75
 49
6
 49
-1.5
 49
6
 49
-1.5
 49
0.25
 49
-1.5
  0
LTYPE
  2
dashed_double-dotted
 70
   64
  3
---------    -    -    ---------
 72
   65
 73
    6
 40
11
 49
6
 49
-1.5
 49
0.25
 49
-1.5
 49
0.25
 49
-1.5
  0
LTYPE
  2
double-dashed_double-dotted
 70
   64
  3
-----   ---------   -   -   ----
 72
   65
 73
    8
 40
18.5
 49
6
 49
-1.5
 49
6
 49
-1.5
 49
0.25
 49
-1.5
 49
0.25
 49
-1.5
  0
LTYPE
  2
dashed_triplicate-dotted
 70
   64
  3
-------    -    -    -    ------
 72
   65
 73
    8
 40
12.75
 49
6
 49
-1.5
 49
0.25
 49
-1.5
 49
0.25
 49
-1.5
 49
0.25
 49
-1.5
  0
LTYPE
  2
double-dashed_triplicate-dotted
 70
   64
  3
-----  ---------  -  -  -  -----
 72
   65
 73
   10
 40
20.25
 49
6
 49
-1.5
 49
6
 49
-1.5
 49
0.25
 49
-1.5
 49
0.25
 49
-1.5
 49
0.25
 49
-1.5
  0
LTYPE
  2
undefined
 70
   64
  3
--------------------------------
 72
   65
 73
    0
 40
0
  0
LTYPE
  2
STYLE_01
 70
   64
  3
----        --------        ----
 72
   65
 73
    2
 40
0.4166399999999997
 49
0.2082799999999999
 49
-0.2083599999999999
  0
LTYPE
  2
STYLE_02
 70
   64
  3
------     -----------     -----
 72
   65
 73
    2
 40
0.694425
 49
0.48607
 49
-0.2083550000000001
  0
LTYPE
  2
STYLE_03
 70
   64
  3
-------   -------------   ------
 72
   65
 73
    2
 40
1.25
 49
1.0416400000000001
 49
-0.2083599999999999
  0
LTYPE
  2
STYLE_04
 70
   64
  3
-------  --------------  -------
 72
   65
 73
    2
 40
1.5277099999999999
 49
1.3194249999999998
 49
-0.208285
  0
LTYPE
  2
STYLE_05
 70
   64
  3
---           -----           --
 72
   65
 73
    2
 40
0.20828
 49
0.069425
 49
-0.138855
  0
LTYPE
  2
STYLE_06
 70
   64
  3
----------      --    ----------
 72
   65
 73
    4
 40
1.0416399999999999
 49
0.625
 49
-0.2082799999999999
 49
0.06943
 49
-0.13893
  0
LTYPE
  2
STYLE_07
 70
   64
  3
-----    -----------    -  -----
 72
   65
 73
    6
 40
1.8749999999999998
 49
0.625
 49
-0.2082799999999999
 49
0.6250000000000001
 49
-0.2083599999999999
 49
0.06943
 49
-0.1389299999999998
  0
LTYPE
  2
STYLE_08
 70
   64
  3
--------     --    --    -------
 72
   65
 73
    6
 40
1.2499999999999996
 49
0.625
 49
-0.2082799999999999
 49
0.06943
 49
-0.13893
 49
0.0694299999999997
 49
-0.13893
  0
LTYPE
  2
STYLE_09
 70
   64
  3
------------  ----  ------------
 72
   65
 73
    4
 40
5
 49
3.75
 49
-0.2777849999999997
 49
0.6944300000000003
 49
-0.2777849999999997
  0
LTYPE
  2
STYLE_10
 70
   64
  3
----------- ---- ---  ----------
 72
   65
 73
    6
 40
5.9375
 49
3.75
 49
-0.2777849999999997
 49
0.6944300000000003
 49
-0.2777849999999997
 49
0.625
 49
-0.3125
  0
ENDTAB
  0
TABLE
  2
STYLE
  5
3
100
AcDbSymbolTable
 70
     1
  0
STYLE
  5
10
100
AcDbSymbolTableRecord
100
AcDbTextStyleTableRecord
  2
STANDARD
 70
     0
 40
0.0
 41
1.0
 50
0.0
 71
     0
 42
0.2
  3
txt
  4
bigfont.shx
  0
STYLE
  5
26
100
AcDbSymbolTableRecord
100
AcDbTextStyleTableRecord
  2
TATEGAKI
 70
    68
 40
0.0
 41
1.0
 50
0.0
 71
     0
 42
1.0
  3
txt
  4
bigfont.shx
  0
ENDTAB
  0
TABLE
  2
LAYER
 70
    5
  0
LAYER
  2
_0-0_0
 70
   64
 62
    7
  6
CONTINUOUS
  0
LAYER
  2
_0-1_1_5
 70
   64
 62
    7
  6
CONTINUOUS
  0
LAYER
  2
_0-2_ADD_LINE
 70
   64
 62
    7
  6
CONTINUOUS
  0
LAYER
  2
_0-3_
 70
   64
 62
    7
  6
CONTINUOUS
  0
LAYER
  2
ADD_LINE
 70
   64
 62
    7
  6
CONTINUOUS
  0
ENDTAB
  0
ENDSEC
  0
SECTION
  2
BLOCKS
  0
ENDSEC
  0
SECTION
  2
ENTITIES
  0
LINE
  8
_0-2_ADD_LINE
  6
CONTINUOUS
 62
    7
 10
-40.841098145815749
 20
239.67752788554878
 11
-40.841098145815749
 21
212.53494786615016
  0
POINT
  8
_0-2_ADD_LINE
 62
    7
 10
259.15890185418425
 20
110.88897308438501
  0
LINE
  8
_0-2_ADD_LINE
  6
CONTINUOUS
 62
    7
 10
259.15890185418425
 20
110.88897308438501
 11
259.15890185418425
 21
73.247847963143499
  0
LINE
  8
_0-1_1_5
  6
CONTINUOUS
 62
    7
 10
363.42532748813301
 20
194.57403332813834
 11
363.42532748813301
 21
178.57403332813831
  0
LINE
  8
_0-1_1_5
  6
CONTINUOUS
 62
    7
 10
363.42532748813301
 20
194.57403332813834
 11
422.42532748813301
 21
194.57403332813834
  0
LINE
  8
_0-1_1_5
  6
CONTINUOUS
 62
    7
 10
363.42532748813301
 20
178.57403332813831
 11
422.42532748813301
 21
178.57403332813831
  0
LINE
  8
_0-1_1_5
  6
CONTINUOUS
 62
    7
 10
471.87437463436595
 20
176.679923520366
 11
466.24944387544679
 21
178.42982551466196
  0
LINE
  8
_0-1_1_5
  6
CONTINUOUS
 62
    7
 10
471.87437463436595
 20
176.679923520366
 11
466.24944387544679
 21
174.93002152607016
  0
LINE
  8
_0-1_1_5
  6
CONTINUOUS
 62
    7
 10
427.67542549383688
 20
174.93002152607016
 11
466.24944387544679
 21
174.93002152607016
  0
LINE
  8
_0-1_1_5
  6
CONTINUOUS
 62
    7
 10
427.71224777076372
 20
178.42982551466196
 11
466.24888994679895
 21
178.42982551466196
  0
LINE
  8
_0-1_1_5
  6
CONTINUOUS
 62
    7
 10
438.12479008085211
 20
175.04683177911403
 11
439.53102277058156
 21
178.54663576770582
  0
LINE
  8
_0-1_1_5
  6
CONTINUOUS
 62
    7
 10
439.53102277058156
 20
175.04683177911403
 11
440.93725546031169
 21
178.54663576770582
  0
LINE
  8
_0-1_1_5
  6
CONTINUOUS
 62
    7
 10
440.93725546031169
 20
175.04683177911403
 11
442.34348815004114
 21
178.54663576770582
  0
LINE
  8
_0-1_1_5
  6
CONTINUOUS
 62
    7
 10
442.34348815004114
 20
175.04683177911403
 11
443.74972083977104
 21
178.54663576770582
  0
LINE
  8
_0-1_1_5
  6
CONTINUOUS
 62
    7
 10
443.74972083977104
 20
175.04683177911403
 11
445.15595352950049
 21
178.54663576770582
  0
LINE
  8
_0-1_1_5
  6
CONTINUOUS
 62
    7
 10
445.15595352950049
 20
175.04683177911403
 11
446.56218621923063
 21
178.54663576770582
  0
LINE
  8
_0-1_1_5
  6
CONTINUOUS
 62
    7
 10
450.78088428841988
 20
175.04683177911403
 11
452.18711697814956
 21
178.54663576770582
  0
LINE
  8
_0-1_1_5
  6
CONTINUOUS
 62
    7
 10
449.37465159868998
 20
175.04683177911403
 11
450.78088428841988
 21
178.54663576770582
  0
LINE
  8
_0-1_1_5
  6
CONTINUOUS
 62
    7
 10
452.18711697814956
 20
175.04683177911403
 11
453.59334966787924
 21
178.54663576770582
  0
LINE
  8
_0-1_1_5
  6
CONTINUOUS
 62
    7
 10
453.59334966787924
 20
175.04683177911403
 11
454.99958235760892
 21
178.54663576770582
  0
LINE
  8
_0-1_1_5
  6
CONTINUOUS
 62
    7
 10
454.99958235760892
 20
175.04683177911403
 11
456.40581504733859
 21
178.54663576770582
  0
LINE
  8
_0-1_1_5
  6
CONTINUOUS
 62
    7
 10
456.40581504733859
 20
175.04683177911403
 11
457.8120477370685
 21
178.54663576770582
  0
LINE
  8
_0-1_1_5
  6
CONTINUOUS
 62
    7
 10
457.8120477370685
 20
175.04683177911403
 11
459.21828042679817
 21
178.54663576770582
  0
LINE
  8
_0-1_1_5
  6
CONTINUOUS
 62
    7
 10
459.21828042679817
 20
175.04683177911403
 11
460.62451311652785
 21
178.54663576770582
  0
LINE
  8
_0-1_1_5
  6
CONTINUOUS
 62
    7
 10
446.56218621923063
 20
175.04683177911403
 11
447.96841890896007
 21
178.54663576770582
  0
LINE
  8
_0-1_1_5
  6
CONTINUOUS
 62
    7
 10
460.62451311652785
 20
175.04683177911403
 11
462.03074580625776
 21
178.54663576770582
  0
LINE
  8
_0-1_1_5
  6
CONTINUOUS
 62
    7
 10
463.43697849598743
 20
175.04683177911403
 11
464.84321118571734
 21
178.54663576770582
  0
LINE
  8
_0-1_1_5
  6
CONTINUOUS
 62
    7
 10
464.84321118571734
 20
175.04683177911403
 11
466.24944387544679
 21
178.54663576770582
  0
LINE
  8
_0-1_1_5
  6
CONTINUOUS
 62
    7
 10
462.03074580625776
 20
175.04683177911403
 11
463.43697849598743
 21
178.54663576770582
  0
LINE
  8
_0-1_1_5
  6
CONTINUOUS
 62
    7
 10
447.96841890896007
 20
175.04683177911403
 11
449.37465159868998
 21
178.54663576770582
  0
LINE
  8
_0-1_1_5
  6
CONTINUOUS
 62
    7
 10
471.87437463436595
 20
196.46814313591062
 11
466.24944387544679
 21
198.21804513020658
  0
LINE
  8
_0-1_1_5
  6
CONTINUOUS
 62
    7
 10
471.87437463436595
 20
196.46814313591062
 11
466.24944387544679
 21
194.71824114161478
  0
LINE
  8
_0-1_1_5
  6
CONTINUOUS
 62
    7
 10
427.67542549383688
 20
194.71824114161478
 11
466.24944387544679
 21
194.71824114161478
  0
LINE
  8
_0-1_1_5
  6
CONTINUOUS
 62
    7
 10
427.71224777076372
 20
198.21804513020658
 11
466.24888994679895
 21
198.21804513020658
  0
LINE
  8
_0-1_1_5
  6
CONTINUOUS
 62
    7
 10
438.12479008085211
 20
194.83505139465862
 11
439.53102277058156
 21
198.33485538325044
  0
LINE
  8
_0-1_1_5
  6
CONTINUOUS
 62
    7
 10
439.53102277058156
 20
194.83505139465862
 11
440.93725546031169
 21
198.33485538325044
  0
LINE
  8
_0-1_1_5
  6
CONTINUOUS
 62
    7
 10
440.93725546031169
 20
194.83505139465862
 11
442.34348815004114
 21
198.33485538325044
  0
LINE
  8
_0-1_1_5
  6
CONTINUOUS
 62
    7
 10
442.34348815004114
 20
194.83505139465862
 11
443.74972083977104
 21
198.33485538325044
  0
LINE
  8
_0-1_1_5
  6
CONTINUOUS
 62
    7
 10
443.74972083977104
 20
194.83505139465862
 11
445.15595352950049
 21
198.33485538325044
  0
LINE
  8
_0-1_1_5
  6
CONTINUOUS
 62
    7
 10
445.15595352950049
 20
194.83505139465862
 11
446.56218621923063
 21
198.33485538325044
  0
LINE
  8
_0-1_1_5
  6
CONTINUOUS
 62
    7
 10
450.78088428841988
 20
194.83505139465862
 11
452.18711697814956
 21
198.33485538325044
  0
LINE
  8
_0-1_1_5
  6
CONTINUOUS
 62
    7
 10
449.37465159868998
 20
194.83505139465862
 11
450.78088428841988
 21
198.33485538325044
  0
LINE
  8
_0-1_1_5
  6
CONTINUOUS
 62
    7
 10
452.18711697814956
 20
194.83505139465862
 11
453.59334966787924
 21
198.33485538325044
  0
LINE
  8
_0-1_1_5
  6
CONTINUOUS
 62
    7
 10
453.59334966787924
 20
194.83505139465862
 11
454.99958235760892
 21
198.33485538325044
  0
LINE
  8
_0-1_1_5
  6
CONTINUOUS
 62
    7
 10
454.99958235760892
 20
194.83505139465862
 11
456.40581504733859
 21
198.33485538325044
  0
LINE
  8
_0-1_1_5
  6
CONTINUOUS
 62
    7
 10
456.40581504733859
 20
194.83505139465862
 11
457.8120477370685
 21
198.33485538325044
  0
LINE
  8
_0-1_1_5
  6
CONTINUOUS
 62
    7
 10
457.8120477370685
 20
194.83505139465862
 11
459.21828042679817
 21
198.33485538325044
  0
LINE
  8
_0-1_1_5
  6
CONTINUOUS
 62
    7
 10
459.21828042679817
 20
194.83505139465862
 11
460.62451311652785
 21
198.33485538325044
  0
LINE
  8
_0-1_1_5
  6
CONTINUOUS
 62
    7
 10
446.56218621923063
 20
194.83505139465862
 11
447.96841890896007
 21
198.33485538325044
  0
LINE
  8
_0-1_1_5
  6
CONTINUOUS
 62
    7
 10
460.62451311652785
 20
194.83505139465862
 11
462.03074580625776
 21
198.33485538325044
  0
LINE
  8
_0-1_1_5
  6
CONTINUOUS
 62
    7
 10
463.43697849598743
 20
194.83505139465862
 11
464.84321118571734
 21
198.33485538325044
  0
LINE
  8
_0-1_1_5
  6
CONTINUOUS
 62
    7
 10
464.84321118571734
 20
194.83505139465862
 11
466.24944387544679
 21
198.33485538325044
  0
LINE
  8
_0-1_1_5
  6
CONTINUOUS
 62
    7
 10
462.03074580625776
 20
194.83505139465862
 11
463.43697849598743
 21
198.33485538325044
  0
LINE
  8
_0-1_1_5
  6
CONTINUOUS
 62
    7
 10
447.96841890896007
 20
194.83505139465862
 11
449.37465159868998
 21
198.33485538325044
  0
LINE
  8
_0-1_1_5
  6
CONTINUOUS
 62
    7
 10
436.72479008085202
 20
194.83505139465862
 11
438.13102277058169
 21
198.33485538325044
  0
LINE
  8
_0-1_1_5
  6
CONTINUOUS
 62
    7
 10
435.32479008085215
 20
194.83505139465862
 11
436.73102277058183
 21
198.33485538325044
  0
LINE
  8
_0-1_1_5
  6
CONTINUOUS
 62
    7
 10
433.92479008085206
 20
194.83505139465862
 11
435.33102277058174
 21
198.33485538325044
  0
LINE
  8
_0-1_1_5
  6
CONTINUOUS
 62
    7
 10
432.5247900808522
 20
194.83505139465862
 11
433.93102277058188
 21
198.33485538325044
  0
LINE
  8
_0-1_1_5
  6
CONTINUOUS
 62
    7
 10
435.32479008085215
 20
175.04683177911403
 11
436.73102277058183
 21
178.54663576770582
  0
LINE
  8
_0-1_1_5
  6
CONTINUOUS
 62
    7
 10
433.92479008085206
 20
175.04683177911403
 11
435.33102277058174
 21
178.54663576770582
  0
LINE
  8
_0-1_1_5
  6
CONTINUOUS
 62
    7
 10
432.5247900808522
 20
175.04683177911403
 11
433.93102277058188
 21
178.54663576770582
  0
LINE
  8
_0-1_1_5
  6
CONTINUOUS
 62
    7
 10
436.72479008085202
 20
175.04683177911403
 11
438.13102277058169
 21
178.54663576770582
  0
LINE
  8
_0-1_1_5
  6
CENTER2
 62
    7
 10
431.12479008085234
 20
175.04683177911403
 11
432.53102277058179
 21
178.54663576770582
  0
LINE
  8
_0-1_1_5
  6
CENTER2
 62
    7
 10
429.72479008085224
 20
175.04683177911403
 11
431.13102277058192
 21
178.54663576770582
  0
LINE
  8
_0-1_1_5
  6
CENTER2
 62
    7
 10
428.32479008085215
 20
175.04683177911403
 11
429.73102277058206
 21
178.54663576770582
  0
LINE
  8
_0-1_1_5
  6
CENTER2
 62
    7
 10
427.67542549383711
 20
176.91499828635659
 11
428.33102277058174
 21
178.54663576770582
  0
LINE
  8
_0-1_1_5
  6
CENTER2
 62
    7
 10
425.92532748813301
 20
180.17992352036606
 11
427.67542549383711
 21
178.42982551466196
  0
LINE
  8
_0-1_1_5
  6
CENTER2
 62
    7
 10
425.92532748813301
 20
173.17992352036612
 11
427.67542549383688
 21
174.93002152607016
  0
LINE
  8
_0-1_1_5
  6
CENTER2
 62
    7
 10
427.67542549383711
 20
178.42982551466196
 11
427.67542549383711
 21
174.93002152607016
  0
LINE
  8
_0-1_1_5
  6
CENTER2
 62
    7
 10
431.12479008085234
 20
194.83505139465862
 11
432.53102277058179
 21
198.33485538325044
  0
LINE
  8
_0-1_1_5
  6
CENTER2
 62
    7
 10
429.72479008085224
 20
194.83505139465862
 11
431.13102277058192
 21
198.33485538325044
  0
LINE
  8
_0-1_1_5
  6
CENTER2
 62
    7
 10
428.32479008085215
 20
194.83505139465862
 11
429.73102277058206
 21
198.33485538325044
  0
LINE
  8
_0-1_1_5
  6
CENTER2
 62
    7
 10
427.67542549383711
 20
196.70321790190121
 11
428.33102277058174
 21
198.33485538325044
  0
LINE
  8
_0-1_1_5
  6
CENTER2
 62
    7
 10
425.92532748813301
 20
199.96814313591068
 11
427.67542549383711
 21
198.21804513020658
  0
LINE
  8
_0-1_1_5
  6
CENTER2
 62
    7
 10
425.92532748813301
 20
192.96814313591071
 11
427.67542549383688
 21
194.71824114161478
  0
LINE
  8
_0-1_1_5
  6
CENTER2
 62
    7
 10
427.67542549383711
 20
198.21804513020658
 11
427.67542549383711
 21
194.71824114161478
  0
LINE
  8
_0-1_1_5
  6
CENTER2
 62
    7
 10
432.42532748813301
 20
206.57403332813846
 11
425.92532748813301
 21
202.82125657840589
  0
LINE
  8
_0-1_1_5
  6
CENTER2
 62
    7
 10
425.92532748813301
 20
202.82125657840589
 11
425.92532748813301
 21
170.32681007787099
  0
LINE
  8
_0-1_1_5
  6
CENTER2
 62
    7
 10
425.92532748813301
 20
173.17992352036612
 11
425.92532748813301
 21
180.17992352036606
  0
LINE
  8
_0-1_1_5
  6
CENTER2
 62
    7
 10
425.92532748813301
 20
192.96814313591071
 11
425.92532748813301
 21
199.96814313591068
  0
LINE
  8
_0-1_1_5
  6
CENTER2
 62
    7
 10
432.42532748813301
 20
166.57403332813843
 11
425.92532748813301
 21
170.32681007787099
  0
TEXT
  8
_0-3_
 62
    7
 10
135.16691074515126
 20
-66.290244160930513
 40
6.1081542968750009
 41
1
 50
0
  1
ステンレススチール
  0
LINE
  8
_0-0_0
  6
CONTINUOUS
 62
    7
 10
-87.019906738806753
 20
335.75937008357874
 11
-87.019906738806753
 21
-84.240629916421256
  0
LINE
  8
_0-0_0
  6
CONTINUOUS
 62
    7
 10
-87.019906738806753
 20
-84.240629916421256
 11
506.98009326119325
 21
-84.240629916421312
  0
LINE
  8
_0-0_0
  6
CONTINUOUS
 62
    7
 10
506.98009326119325
 20
-84.240629916421312
 11
506.98009326119325
 21
335.75937008357869
  0
LINE
  8
_0-0_0
  6
CONTINUOUS
 62
    7
 10
506.98009326119325
 20
335.75937008357869
 11
-87.019906738806753
 21
335.75937008357874
  0
TEXT
  8
_0-3_
 62
    7
 10
121.25741447433936
 20
-62.900519036372998
 40
4
 41
1
 50
0
  1
材質
  0
TEXT
  8
_0-3_
 62
    7
 10
121.25741447433936
 20
-50.417785461709059
 40
4
 41
1
 50
0
  1
仕上げ
  0
TEXT
  8
_0-3_
 62
    7
 10
121.25741447433936
 20
-38.559188565778356
 40
4
 41
1
 50
0
  1
品名
  0
LINE
  8
_0-3_
  6
CONTINUOUS
 62
    7
 10
305.33333332004827
 20
-68.800541471740075
 11
305.33333332004827
 21
-32.800541471740019
  0
LINE
  8
_0-3_
  6
CONTINUOUS
 62
    7
 10
492.00000000004832
 20
-32.800541471740019
 11
118.30557488476475
 21
-32.800541471740019
  0
LINE
  8
_0-3_
  6
CONTINUOUS
 62
    7
 10
492.00000000004832
 20
-44.800541471740019
 11
118.30557488476475
 21
-44.800541471740019
  0
LINE
  8
_0-3_
  6
CONTINUOUS
 62
    7
 10
492.00000000004832
 20
-56.800541471740019
 11
118.30557488476475
 21
-56.800541471740019
  0
LINE
  8
_0-3_
  6
CONTINUOUS
 62
    7
 10
118.30557488476475
 20
-68.800541471740019
 11
118.30557488476475
 21
-32.800541471740019
  0
TEXT
  8
_0-3_
 62
    7
 10
307.90644669306869
 20
-39.060319445408652
 40
4
 41
1
 50
0
  1
品番
  0
TEXT
  8
_0-3_
 62
    7
 10
307.90644669306869
 20
-50.739042164100738
 40
4
 41
1
 50
0
  1
縮尺
  0
TEXT
  8
_0-3_
 62
    7
 10
-66.888093986564627
 20
-76.72518315284276
 40
5
 41
1
 50
0
  1
120718SH
  0
LINE
  8
_0-3_
  6
CONTINUOUS
 62
    7
 10
-67.999999999951683
 20
321.1994585282601
 11
-67.999999999951683
 21
-68.800541471740019
  0
LINE
  8
_0-3_
  6
CONTINUOUS
 62
    7
 10
-67.999999999951683
 20
-68.800541471740019
 11
492.00000000004832
 21
-68.800541471740075
  0
LINE
  8
_0-3_
  6
CONTINUOUS
 62
    7
 10
492.00000000004832
 20
-68.800541471740075
 11
492.00000000004832
 21
321.19945852826004
  0
LINE
  8
_0-3_
  6
CONTINUOUS
 62
    7
 10
492.00000000004832
 20
321.19945852826004
 11
-67.999999999951683
 21
321.1994585282601
  0
TEXT
  8
_0-3_
 62
    7
 10
135.16691074515126
 20
-41.881749615713943
 40
6.1081542968750009
 41
1
 50
0
  1
タオルバー
  0
TEXT
  8
_0-3_
 62
    7
 10
321.84362785127729
 20
-66.996859894418549
 40
6.2000000000000002
 41
1
 50
0
  1
大洋金物株式会社  ティーエフプラス事業部
  0
LINE
  8
_0-1_1_5
  6
CENTER2
 62
    7
 10
298.15890185418419
 20
59.979909486326846
 11
270.15890185418414
 21
59.979909486326846
  0
LINE
  8
_0-1_1_5
  6
CONTINUOUS
 62
    7
 10
284.15890185418414
 20
105.92895663255976
 11
282.40899985988813
 21
100.30402587364061
  0
LINE
  8
_0-1_1_5
  6
CONTINUOUS
 62
    7
 10
284.15890185418414
 20
105.92895663255976
 11
285.90880384848003
 21
100.30402587364061
  0
LINE
  8
_0-1_1_5
  6
CONTINUOUS
 62
    7
 10
285.90880384848003
 20
61.730007492030666
 11
285.90880384848003
 21
100.30402587364061
  0
LINE
  8
_0-1_1_5
  6
CONTINUOUS
 62
    7
 10
282.40899985988813
 20
61.766829768957564
 11
282.40899985988813
 21
100.30347194499281
  0
LINE
  8
_0-1_1_5
  6
CONTINUOUS
 62
    7
 10
285.79199359543617
 20
72.179372079045947
 11
282.29218960684432
 21
73.585604768775397
  0
LINE
  8
_0-1_1_5
  6
CONTINUOUS
 62
    7
 10
285.79199359543617
 20
73.585604768775397
 11
282.29218960684432
 21
74.991837458505529
  0
LINE
  8
_0-1_1_5
  6
CONTINUOUS
 62
    7
 10
285.79199359543617
 20
74.991837458505529
 11
282.29218960684432
 21
76.398070148234979
  0
LINE
  8
_0-1_1_5
  6
CONTINUOUS
 62
    7
 10
285.79199359543617
 20
76.398070148234979
 11
282.29218960684432
 21
77.804302837964883
  0
LINE
  8
_0-1_1_5
  6
CONTINUOUS
 62
    7
 10
285.79199359543617
 20
77.804302837964883
 11
282.29218960684432
 21
79.210535527694333
  0
LINE
  8
_0-1_1_5
  6
CONTINUOUS
 62
    7
 10
285.79199359543617
 20
79.210535527694333
 11
282.29218960684432
 21
80.616768217424465
  0
LINE
  8
_0-1_1_5
  6
CONTINUOUS
 62
    7
 10
285.79199359543617
 20
84.835466286613681
 11
282.29218960684432
 21
86.241698976343415
  0
LINE
  8
_0-1_1_5
  6
CONTINUOUS
 62
    7
 10
285.79199359543617
 20
83.429233596883805
 11
282.29218960684432
 21
84.835466286613681
  0
LINE
  8
_0-1_1_5
  6
CONTINUOUS
 62
    7
 10
285.79199359543617
 20
86.241698976343415
 11
282.29218960684432
 21
87.647931666073006
  0
LINE
  8
_0-1_1_5
  6
CONTINUOUS
 62
    7
 10
285.79199359543617
 20
87.647931666073006
 11
282.29218960684432
 21
89.05416435580274
  0
LINE
  8
_0-1_1_5
  6
CONTINUOUS
 62
    7
 10
285.79199359543617
 20
89.05416435580274
 11
282.29218960684432
 21
90.460397045532403
  0
LINE
  8
_0-1_1_5
  6
CONTINUOUS
 62
    7
 10
285.79199359543617
 20
90.460397045532403
 11
282.29218960684432
 21
91.86662973526235
  0
LINE
  8
_0-1_1_5
  6
CONTINUOUS
 62
    7
 10
285.79199359543617
 20
91.86662973526235
 11
282.29218960684432
 21
93.272862424992013
  0
LINE
  8
_0-1_1_5
  6
CONTINUOUS
 62
    7
 10
285.79199359543617
 20
93.272862424992013
 11
282.29218960684432
 21
94.679095114721676
  0
LINE
  8
_0-1_1_5
  6
CONTINUOUS
 62
    7
 10
285.79199359543617
 20
80.616768217424465
 11
282.29218960684432
 21
82.023000907153929
  0
LINE
  8
_0-1_1_5
  6
CONTINUOUS
 62
    7
 10
285.79199359543617
 20
94.679095114721676
 11
282.29218960684432
 21
96.085327804451623
  0
LINE
  8
_0-1_1_5
  6
CONTINUOUS
 62
    7
 10
285.79199359543617
 20
97.491560494181286
 11
282.29218960684432
 21
98.897793183911162
  0
LINE
  8
_0-1_1_5
  6
CONTINUOUS
 62
    7
 10
285.79199359543617
 20
98.897793183911162
 11
282.29218960684432
 21
100.30402587364061
  0
LINE
  8
_0-1_1_5
  6
CONTINUOUS
 62
    7
 10
285.79199359543617
 20
96.085327804451623
 11
282.29218960684432
 21
97.491560494181286
  0
LINE
  8
_0-1_1_5
  6
CONTINUOUS
 62
    7
 10
285.79199359543617
 20
82.023000907153929
 11
282.29218960684432
 21
83.429233596883805
  0
LINE
  8
_0-1_1_5
  6
CONTINUOUS
 62
    7
 10
285.79199359543617
 20
70.7793720790458
 11
282.29218960684432
 21
72.185604768775534
  0
LINE
  8
_0-1_1_5
  6
CONTINUOUS
 62
    7
 10
285.79199359543617
 20
69.379372079045936
 11
282.29218960684432
 21
70.78560476877567
  0
LINE
  8
_0-1_1_5
  6
CONTINUOUS
 62
    7
 10
285.79199359543617
 20
67.979372079045902
 11
282.29218960684432
 21
69.385604768775522
  0
LINE
  8
_0-1_1_5
  6
CENTER2
 62
    7
 10
285.79199359543617
 20
66.579372079046038
 11
282.29218960684432
 21
67.985604768775659
  0
LINE
  8
_0-1_1_5
  6
CENTER2
 62
    7
 10
285.79199359543617
 20
63.779372079046027
 11
282.29218960684432
 21
65.185604768775761
  0
LINE
  8
_0-1_1_5
  6
CENTER2
 62
    7
 10
285.79199359543617
 20
62.37937207904605
 11
282.29218960684432
 21
63.785604768775897
  0
LINE
  8
_0-1_1_5
  6
CENTER2
 62
    7
 10
283.92382708819349
 20
61.73000749203095
 11
282.29218960684432
 21
62.385604768775636
  0
LINE
  8
_0-1_1_5
  6
CENTER2
 62
    7
 10
280.65890185418408
 20
59.979909486326846
 11
282.40899985988813
 21
61.73000749203095
  0
LINE
  8
_0-1_1_5
  6
CENTER2
 62
    7
 10
287.65890185418408
 20
59.979909486326846
 11
285.90880384848003
 21
61.730007492030666
  0
LINE
  8
_0-1_1_5
  6
CENTER2
 62
    7
 10
282.40899985988813
 20
61.73000749203095
 11
285.90880384848003
 21
61.73000749203095
  0
LINE
  8
_0-1_1_5
  6
CENTER2
 62
    7
 10
298.15890185418419
 20
59.979909486326846
 11
298.15890185418419
 21
66.47990948632679
  0
LINE
  8
_0-1_1_5
  6
CENTER2
 62
    7
 10
270.15890185418414
 20
59.979909486326846
 11
270.15890185418414
 21
66.47990948632679
  0
LINE
  8
_0-1_1_5
  6
CONTINUOUS
 62
    7
 10
-15.841098145815863
 20
105.92895663255983
 11
-17.591000140111873
 21
100.30402587364068
  0
LINE
  8
_0-1_1_5
  6
CONTINUOUS
 62
    7
 10
-15.841098145815863
 20
105.92895663255983
 11
-14.091196151519966
 21
100.30402587364068
  0
LINE
  8
_0-1_1_5
  6
CONTINUOUS
 62
    7
 10
-14.091196151519966
 20
61.730007492030722
 11
-14.091196151519966
 21
100.30402587364068
  0
LINE
  8
_0-1_1_5
  6
CONTINUOUS
 62
    7
 10
-17.591000140111873
 20
61.766829768957649
 11
-17.591000140111873
 21
100.30347194499288
  0
LINE
  8
_0-1_1_5
  6
CONTINUOUS
 62
    7
 10
-14.208006404563776
 20
72.179372079046004
 11
-17.707810393155683
 21
73.585604768775454
  0
LINE
  8
_0-1_1_5
  6
CONTINUOUS
 62
    7
 10
-14.208006404563776
 20
73.585604768775454
 11
-17.707810393155683
 21
74.991837458505614
  0
LINE
  8
_0-1_1_5
  6
CONTINUOUS
 62
    7
 10
-14.208006404563776
 20
74.991837458505614
 11
-17.707810393155683
 21
76.398070148235064
  0
LINE
  8
_0-1_1_5
  6
CONTINUOUS
 62
    7
 10
-14.208006404563776
 20
76.398070148235064
 11
-17.707810393155683
 21
77.80430283796494
  0
LINE
  8
_0-1_1_5
  6
CONTINUOUS
 62
    7
 10
-14.208006404563776
 20
77.80430283796494
 11
-17.707810393155683
 21
79.21053552769439
  0
LINE
  8
_0-1_1_5
  6
CONTINUOUS
 62
    7
 10
-14.208006404563776
 20
79.21053552769439
 11
-17.707810393155683
 21
80.61676821742455
  0
LINE
  8
_0-1_1_5
  6
CONTINUOUS
 62
    7
 10
-14.208006404563776
 20
84.835466286613752
 11
-17.707810393155683
 21
86.241698976343486
  0
LINE
  8
_0-1_1_5
  6
CONTINUOUS
 62
    7
 10
-14.208006404563776
 20
83.429233596883876
 11
-17.707810393155683
 21
84.835466286613752
  0
LINE
  8
_0-1_1_5
  6
CONTINUOUS
 62
    7
 10
-14.208006404563776
 20
86.241698976343486
 11
-17.707810393155683
 21
87.647931666073077
  0
LINE
  8
_0-1_1_5
  6
CONTINUOUS
 62
    7
 10
-14.208006404563776
 20
87.647931666073077
 11
-17.707810393155683
 21
89.054164355802811
  0
LINE
  8
_0-1_1_5
  6
CONTINUOUS
 62
    7
 10
-14.208006404563776
 20
89.054164355802811
 11
-17.707810393155683
 21
90.460397045532474
  0
LINE
  8
_0-1_1_5
  6
CONTINUOUS
 62
    7
 10
-14.208006404563776
 20
90.460397045532474
 11
-17.707810393155683
 21
91.866629735262421
  0
LINE
  8
_0-1_1_5
  6
CONTINUOUS
 62
    7
 10
-14.208006404563776
 20
91.866629735262421
 11
-17.707810393155683
 21
93.272862424992084
  0
LINE
  8
_0-1_1_5
  6
CONTINUOUS
 62
    7
 10
-14.208006404563776
 20
93.272862424992084
 11
-17.707810393155683
 21
94.679095114721747
  0
LINE
  8
_0-1_1_5
  6
CONTINUOUS
 62
    7
 10
-14.208006404563776
 20
80.61676821742455
 11
-17.707810393155683
 21
82.023000907154
  0
LINE
  8
_0-1_1_5
  6
CONTINUOUS
 62
    7
 10
-14.208006404563776
 20
94.679095114721747
 11
-17.707810393155683
 21
96.085327804451694
  0
LINE
  8
_0-1_1_5
  6
CONTINUOUS
 62
    7
 10
-14.208006404563776
 20
97.491560494181357
 11
-17.707810393155683
 21
98.897793183911233
  0
LINE
  8
_0-1_1_5
  6
CONTINUOUS
 62
    7
 10
-14.208006404563776
 20
98.897793183911233
 11
-17.707810393155683
 21
100.30402587364068
  0
LINE
  8
_0-1_1_5
  6
CONTINUOUS
 62
    7
 10
-14.208006404563776
 20
96.085327804451694
 11
-17.707810393155683
 21
97.491560494181357
  0
LINE
  8
_0-1_1_5
  6
CONTINUOUS
 62
    7
 10
-14.208006404563776
 20
82.023000907154
 11
-17.707810393155683
 21
83.429233596883876
  0
LINE
  8
_0-1_1_5
  6
CONTINUOUS
 62
    7
 10
-14.208006404563776
 20
70.779372079045856
 11
-17.707810393155683
 21
72.18560476877559
  0
LINE
  8
_0-1_1_5
  6
CONTINUOUS
 62
    7
 10
-14.208006404563776
 20
69.379372079045993
 11
-17.707810393155683
 21
70.785604768775727
  0
LINE
  8
_0-1_1_5
  6
CONTINUOUS
 62
    7
 10
-14.208006404563776
 20
67.979372079045987
 11
-17.707810393155683
 21
69.385604768775579
  0
LINE
  8
_0-1_1_5
  6
CONTINUOUS
 62
    7
 10
-14.208006404563776
 20
66.579372079046124
 11
-17.707810393155683
 21
67.985604768775715
  0
LINE
  8
_0-1_1_5
  6
CENTER2
 62
    7
 10
-14.208006404563776
 20
63.779372079046112
 11
-17.707810393155683
 21
65.185604768775846
  0
LINE
  8
_0-1_1_5
  6
CENTER2
 62
    7
 10
-14.208006404563776
 20
62.379372079046107
 11
-17.707810393155683
 21
63.785604768775983
  0
LINE
  8
_0-1_1_5
  6
CENTER2
 62
    7
 10
-16.076172911806452
 20
61.730007492031007
 11
-17.707810393155683
 21
62.385604768775693
  0
LINE
  8
_0-1_1_5
  6
CENTER2
 62
    7
 10
-19.341098145815977
 20
59.979909486326932
 11
-17.591000140111873
 21
61.730007492031007
  0
LINE
  8
_0-1_1_5
  6
CENTER2
 62
    7
 10
-12.341098145815863
 20
59.979909486326932
 11
-14.091196151519966
 21
61.730007492030722
  0
LINE
  8
_0-1_1_5
  6
CENTER2
 62
    7
 10
-17.591000140111873
 20
61.730007492031007
 11
-14.091196151519966
 21
61.730007492031007
  0
LINE
  8
_0-1_1_5
  6
CENTER2
 62
    7
 10
-1.8410981458157494
 20
59.979909486326932
 11
-29.841098145815863
 21
59.979909486326932
  0
LINE
  8
_0-1_1_5
  6
CENTER2
 62
    7
 10
-29.841098145815863
 20
59.979909486326932
 11
-29.841098145815863
 21
66.479909486326846
  0
LINE
  8
_0-1_1_5
  6
CENTER2
 62
    7
 10
-1.8410981458157494
 20
59.979909486326932
 11
-1.8410981458157494
 21
66.479909486326846
  0
CIRCLE
  8
_0-1_1_5
  6
CONTINUOUS
 62
    7
 10
284.15890185418414
 20
186.57403332813831
 40
8
  0
LINE
  8
_0-1_1_5
  6
CENTER2
 62
    7
 10
289.15890185418414
 20
196.46814313591062
 11
279.15890185418414
 21
196.46814313591062
  0
LINE
  8
_0-1_1_5
  6
CENTER2
 62
    7
 10
284.15890185418414
 20
200.46814313591062
 11
284.15890185418414
 21
192.46814313591068
  0
LINE
  8
_0-1_1_5
  6
CENTER2
 62
    7
 10
288.15890185418414
 20
196.46814313591062
 11
288.15890185418414
 21
196.46814313591062
  0
LINE
  8
_0-1_1_5
  6
CENTER2
 62
    7
 10
288.15890185418414
 20
196.46814313591062
 11
288.09813286623296
 21
197.0238173044448
  0
LINE
  8
_0-1_1_5
  6
CENTER2
 62
    7
 10
288.09813286623296
 20
197.0238173044448
 11
287.91767233732776
 21
197.56260759455276
  0
LINE
  8
_0-1_1_5
  6
CENTER2
 62
    7
 10
287.91767233732776
 20
197.56260759455276
 11
287.62300346932187
 21
198.06814313591062
  0
LINE
  8
_0-1_1_5
  6
CENTER2
 62
    7
 10
287.62300346932187
 20
198.06814313591062
 11
287.22307962666002
 21
198.52506348690756
  0
LINE
  8
_0-1_1_5
  6
CENTER2
 62
    7
 10
287.22307962666002
 20
198.52506348690756
 11
286.73005229293028
 21
198.91948535389136
  0
LINE
  8
_0-1_1_5
  6
CENTER2
 62
    7
 10
286.73005229293028
 20
198.91948535389136
 11
286.15890185418414
 21
199.23942442802084
  0
LINE
  8
_0-1_1_5
  6
CENTER2
 62
    7
 10
286.15890185418414
 20
199.23942442802084
 11
285.52698242748681
 21
199.47515952242554
  0
LINE
  8
_0-1_1_5
  6
CENTER2
 62
    7
 10
285.52698242748681
 20
199.47515952242554
 11
284.85349456485187
 21
199.61952794554969
  0
LINE
  8
_0-1_1_5
  6
CENTER2
 62
    7
 10
284.85349456485187
 20
199.61952794554969
 11
284.15890185418414
 21
199.66814313591061
  0
LINE
  8
_0-1_1_5
  6
CENTER2
 62
    7
 10
284.15890185418414
 20
199.66814313591061
 11
283.4643091435164
 21
199.61952794554969
  0
LINE
  8
_0-1_1_5
  6
CENTER2
 62
    7
 10
283.4643091435164
 20
199.61952794554969
 11
282.79082128088146
 21
199.47515952242554
  0
LINE
  8
_0-1_1_5
  6
CENTER2
 62
    7
 10
282.79082128088146
 20
199.47515952242554
 11
282.15890185418414
 21
199.23942442802084
  0
LINE
  8
_0-1_1_5
  6
CENTER2
 62
    7
 10
282.15890185418414
 20
199.23942442802084
 11
281.58775141543799
 21
198.91948535389136
  0
LINE
  8
_0-1_1_5
  6
CENTER2
 62
    7
 10
281.58775141543799
 20
198.91948535389136
 11
281.09472408170825
 21
198.52506348690756
  0
LINE
  8
_0-1_1_5
  6
CENTER2
 62
    7
 10
281.09472408170825
 20
198.52506348690756
 11
280.6948002390464
 21
198.06814313591062
  0
LINE
  8
_0-1_1_5
  6
CENTER2
 62
    7
 10
280.6948002390464
 20
198.06814313591062
 11
280.40013137104052
 21
197.56260759455276
  0
LINE
  8
_0-1_1_5
  6
CENTER2
 62
    7
 10
280.40013137104052
 20
197.56260759455276
 11
280.21967084213532
 21
197.0238173044448
  0
LINE
  8
_0-1_1_5
  6
CENTER2
 62
    7
 10
280.21967084213532
 20
197.0238173044448
 11
280.15890185418414
 21
196.46814313591062
  0
LINE
  8
_0-1_1_5
  6
CENTER2
 62
    7
 10
280.15890185418414
 20
196.46814313591062
 11
280.21967084213532
 21
195.91246896737644
  0
LINE
  8
_0-1_1_5
  6
CENTER2
 62
    7
 10
280.21967084213532
 20
195.91246896737644
 11
280.40013137104052
 21
195.37367867726849
  0
LINE
  8
_0-1_1_5
  6
CENTER2
 62
    7
 10
280.40013137104052
 20
195.37367867726849
 11
280.6948002390464
 21
194.86814313591063
  0
LINE
  8
_0-1_1_5
  6
CENTER2
 62
    7
 10
280.6948002390464
 20
194.86814313591063
 11
281.09472408170819
 21
194.41122278491369
  0
LINE
  8
_0-1_1_5
  6
CENTER2
 62
    7
 10
281.09472408170819
 20
194.41122278491369
 11
281.58775141543799
 21
194.01680091792988
  0
LINE
  8
_0-1_1_5
  6
CENTER2
 62
    7
 10
281.58775141543799
 20
194.01680091792988
 11
282.15890185418414
 21
193.69686184380043
  0
LINE
  8
_0-1_1_5
  6
CENTER2
 62
    7
 10
282.15890185418414
 20
193.69686184380043
 11
282.79082128088146
 21
193.46112674939573
  0
LINE
  8
_0-1_1_5
  6
CENTER2
 62
    7
 10
282.79082128088146
 20
193.46112674939573
 11
283.4643091435164
 21
193.31675832627155
  0
LINE
  8
_0-1_1_5
  6
CENTER2
 62
    7
 10
283.4643091435164
 20
193.31675832627155
 11
284.15890185418414
 21
193.26814313591063
  0
LINE
  8
_0-1_1_5
  6
CENTER2
 62
    7
 10
284.15890185418414
 20
193.26814313591063
 11
284.85349456485187
 21
193.31675832627155
  0
LINE
  8
_0-1_1_5
  6
CENTER2
 62
    7
 10
284.85349456485187
 20
193.31675832627155
 11
285.52698242748681
 21
193.4611267493957
  0
LINE
  8
_0-1_1_5
  6
CENTER2
 62
    7
 10
285.52698242748681
 20
193.4611267493957
 11
286.15890185418414
 21
193.69686184380041
  0
LINE
  8
_0-1_1_5
  6
CENTER2
 62
    7
 10
286.15890185418414
 20
193.69686184380041
 11
286.73005229293028
 21
194.01680091792988
  0
LINE
  8
_0-1_1_5
  6
CENTER2
 62
    7
 10
286.73005229293028
 20
194.01680091792988
 11
287.22307962666002
 21
194.41122278491369
  0
LINE
  8
_0-1_1_5
  6
CENTER2
 62
    7
 10
287.22307962666002
 20
194.41122278491369
 11
287.62300346932187
 21
194.8681431359106
  0
LINE
  8
_0-1_1_5
  6
CENTER2
 62
    7
 10
287.62300346932187
 20
194.8681431359106
 11
287.91767233732776
 21
195.37367867726846
  0
LINE
  8
_0-1_1_5
  6
CENTER2
 62
    7
 10
287.91767233732776
 20
195.37367867726846
 11
288.09813286623296
 21
195.91246896737644
  0
LINE
  8
_0-1_1_5
  6
CENTER2
 62
    7
 10
288.09813286623296
 20
195.91246896737644
 11
288.15890185418414
 21
196.46814313591059
  0
LINE
  8
_0-1_1_5
  6
CENTER2
 62
    7
 10
288.15890185418414
 20
196.46814313591059
 11
288.15890185418414
 21
196.46814313591062
  0
LINE
  8
_0-1_1_5
  6
CENTER2
 62
    7
 10
288.15890185418414
 20
176.679923520366
 11
288.15890185418414
 21
176.679923520366
  0
LINE
  8
_0-1_1_5
  6
CENTER2
 62
    7
 10
288.15890185418414
 20
176.679923520366
 11
288.09813286623296
 21
177.23559768890019
  0
LINE
  8
_0-1_1_5
  6
CENTER2
 62
    7
 10
288.09813286623296
 20
177.23559768890019
 11
287.91767233732776
 21
177.77438797900814
  0
LINE
  8
_0-1_1_5
  6
CENTER2
 62
    7
 10
287.91767233732776
 20
177.77438797900814
 11
287.62300346932187
 21
178.279923520366
  0
LINE
  8
_0-1_1_5
  6
CENTER2
 62
    7
 10
287.62300346932187
 20
178.279923520366
 11
287.22307962666002
 21
178.73684387136294
  0
LINE
  8
_0-1_1_5
  6
CENTER2
 62
    7
 10
287.22307962666002
 20
178.73684387136294
 11
286.73005229293028
 21
179.13126573834674
  0
LINE
  8
_0-1_1_5
  6
CENTER2
 62
    7
 10
286.73005229293028
 20
179.13126573834674
 11
286.15890185418414
 21
179.45120481247622
  0
LINE
  8
_0-1_1_5
  6
CENTER2
 62
    7
 10
286.15890185418414
 20
179.45120481247622
 11
285.52698242748681
 21
179.68693990688092
  0
LINE
  8
_0-1_1_5
  6
CENTER2
 62
    7
 10
285.52698242748681
 20
179.68693990688092
 11
284.85349456485187
 21
179.83130833000507
  0
LINE
  8
_0-1_1_5
  6
CENTER2
 62
    7
 10
284.85349456485187
 20
179.83130833000507
 11
284.15890185418414
 21
179.87992352036599
  0
LINE
  8
_0-1_1_5
  6
CENTER2
 62
    7
 10
284.15890185418414
 20
179.87992352036599
 11
283.4643091435164
 21
179.83130833000507
  0
LINE
  8
_0-1_1_5
  6
CENTER2
 62
    7
 10
283.4643091435164
 20
179.83130833000507
 11
282.79082128088146
 21
179.68693990688092
  0
LINE
  8
_0-1_1_5
  6
CENTER2
 62
    7
 10
282.79082128088146
 20
179.68693990688092
 11
282.15890185418414
 21
179.45120481247622
  0
LINE
  8
_0-1_1_5
  6
CENTER2
 62
    7
 10
282.15890185418414
 20
179.45120481247622
 11
281.58775141543799
 21
179.13126573834674
  0
LINE
  8
_0-1_1_5
  6
CENTER2
 62
    7
 10
281.58775141543799
 20
179.13126573834674
 11
281.09472408170825
 21
178.73684387136294
  0
LINE
  8
_0-1_1_5
  6
CENTER2
 62
    7
 10
281.09472408170825
 20
178.73684387136294
 11
280.6948002390464
 21
178.279923520366
  0
LINE
  8
_0-1_1_5
  6
CENTER2
 62
    7
 10
280.6948002390464
 20
178.279923520366
 11
280.40013137104052
 21
177.77438797900814
  0
LINE
  8
_0-1_1_5
  6
CENTER2
 62
    7
 10
280.40013137104052
 20
177.77438797900814
 11
280.21967084213532
 21
177.23559768890019
  0
LINE
  8
_0-1_1_5
  6
CENTER2
 62
    7
 10
280.21967084213532
 20
177.23559768890019
 11
280.15890185418414
 21
176.679923520366
  0
LINE
  8
_0-1_1_5
  6
CENTER2
 62
    7
 10
280.15890185418414
 20
176.679923520366
 11
280.21967084213532
 21
176.12424935183182
  0
LINE
  8
_0-1_1_5
  6
CENTER2
 62
    7
 10
280.21967084213532
 20
176.12424935183182
 11
280.40013137104052
 21
175.58545906172387
  0
LINE
  8
_0-1_1_5
  6
CENTER2
 62
    7
 10
280.40013137104052
 20
175.58545906172387
 11
280.6948002390464
 21
175.07992352036601
  0
LINE
  8
_0-1_1_5
  6
CENTER2
 62
    7
 10
280.6948002390464
 20
175.07992352036601
 11
281.09472408170819
 21
174.62300316936907
  0
LINE
  8
_0-1_1_5
  6
CENTER2
 62
    7
 10
281.09472408170819
 20
174.62300316936907
 11
281.58775141543799
 21
174.22858130238527
  0
LINE
  8
_0-1_1_5
  6
CENTER2
 62
    7
 10
281.58775141543799
 20
174.22858130238527
 11
282.15890185418414
 21
173.90864222825581
  0
LINE
  8
_0-1_1_5
  6
CENTER2
 62
    7
 10
282.15890185418414
 20
173.90864222825581
 11
282.79082128088146
 21
173.67290713385111
  0
LINE
  8
_0-1_1_5
  6
CENTER2
 62
    7
 10
282.79082128088146
 20
173.67290713385111
 11
283.4643091435164
 21
173.52853871072693
  0
LINE
  8
_0-1_1_5
  6
CENTER2
 62
    7
 10
283.4643091435164
 20
173.52853871072693
 11
284.15890185418414
 21
173.47992352036601
  0
LINE
  8
_0-1_1_5
  6
CENTER2
 62
    7
 10
284.15890185418414
 20
173.47992352036601
 11
284.85349456485187
 21
173.52853871072693
  0
LINE
  8
_0-1_1_5
  6
CENTER2
 62
    7
 10
284.85349456485187
 20
173.52853871072693
 11
285.52698242748681
 21
173.67290713385108
  0
LINE
  8
_0-1_1_5
  6
CENTER2
 62
    7
 10
285.52698242748681
 20
173.67290713385108
 11
286.15890185418414
 21
173.90864222825579
  0
LINE
  8
_0-1_1_5
  6
CENTER2
 62
    7
 10
286.15890185418414
 20
173.90864222825579
 11
286.73005229293028
 21
174.22858130238527
  0
LINE
  8
_0-1_1_5
  6
CENTER2
 62
    7
 10
286.73005229293028
 20
174.22858130238527
 11
287.22307962666002
 21
174.62300316936907
  0
LINE
  8
_0-1_1_5
  6
CENTER2
 62
    7
 10
287.22307962666002
 20
174.62300316936907
 11
287.62300346932187
 21
175.07992352036598
  0
LINE
  8
_0-1_1_5
  6
CENTER2
 62
    7
 10
287.62300346932187
 20
175.07992352036598
 11
287.91767233732776
 21
175.58545906172384
  0
LINE
  8
_0-1_1_5
  6
CENTER2
 62
    7
 10
287.91767233732776
 20
175.58545906172384
 11
288.09813286623296
 21
176.12424935183182
  0
LINE
  8
_0-1_1_5
  6
CENTER2
 62
    7
 10
288.09813286623296
 20
176.12424935183182
 11
288.15890185418414
 21
176.67992352036597
  0
LINE
  8
_0-1_1_5
  6
CENTER2
 62
    7
 10
288.15890185418414
 20
176.67992352036597
 11
288.15890185418414
 21
176.679923520366
  0
LINE
  8
_0-1_1_5
  6
CENTER2
 62
    7
 10
289.15890185418414
 20
176.679923520366
 11
279.15890185418414
 21
176.679923520366
  0
LINE
  8
_0-1_1_5
  6
CENTER2
 62
    7
 10
284.15890185418414
 20
172.67992352036603
 11
284.15890185418414
 21
180.67992352036606
  0
LINE
  8
_0-1_1_5
  6
CENTER2
 62
    7
 10
273.15890185418414
 20
206.57403332813831
 11
295.15890185418414
 21
206.57403332813831
  0
LINE
  8
_0-1_1_5
  6
CENTER2
 62
    7
 10
295.15890185418414
 20
206.57403332813831
 11
298.15890185418414
 21
203.57403332813834
  0
LINE
  8
_0-1_1_5
  6
CENTER2
 62
    7
 10
298.15890185418414
 20
169.57403332813831
 11
298.15890185418414
 21
203.57403332813834
  0
LINE
  8
_0-1_1_5
  6
CENTER2
 62
    7
 10
298.15890185418414
 20
169.57403332813831
 11
295.15890185418414
 21
166.57403332813831
  0
LINE
  8
_0-1_1_5
  6
CENTER2
 62
    7
 10
273.15890185418414
 20
166.57403332813831
 11
295.15890185418414
 21
166.57403332813831
  0
LINE
  8
_0-1_1_5
  6
CENTER2
 62
    7
 10
273.15890185418414
 20
166.57403332813831
 11
270.15890185418414
 21
169.57403332813831
  0
LINE
  8
_0-1_1_5
  6
CENTER2
 62
    7
 10
270.15890185418414
 20
203.57403332813834
 11
270.15890185418414
 21
169.57403332813831
  0
LINE
  8
_0-1_1_5
  6
CENTER2
 62
    7
 10
270.15890185418414
 20
203.57403332813834
 11
273.15890185418414
 21
206.57403332813831
  0
CIRCLE
  8
_0-1_1_5
  6
CONTINUOUS
 62
    7
 10
-15.841098145815863
 20
186.57403332813831
 40
8
  0
LINE
  8
_0-1_1_5
  6
CENTER2
 62
    7
 10
-10.841098145815863
 20
196.46814313591062
 11
-20.841098145815863
 21
196.46814313591062
  0
LINE
  8
_0-1_1_5
  6
CENTER2
 62
    7
 10
-15.841098145815863
 20
200.46814313591062
 11
-15.841098145815863
 21
192.46814313591068
  0
LINE
  8
_0-1_1_5
  6
CENTER2
 62
    7
 10
-11.841098145815863
 20
196.46814313591062
 11
-11.841098145815863
 21
196.46814313591062
  0
LINE
  8
_0-1_1_5
  6
CENTER2
 62
    7
 10
-11.841098145815863
 20
196.46814313591062
 11
-11.901867133767031
 21
197.0238173044448
  0
LINE
  8
_0-1_1_5
  6
CENTER2
 62
    7
 10
-11.901867133767031
 20
197.0238173044448
 11
-12.082327662672229
 21
197.56260759455276
  0
LINE
  8
_0-1_1_5
  6
CENTER2
 62
    7
 10
-12.082327662672229
 20
197.56260759455276
 11
-12.376996530678108
 21
198.06814313591062
  0
LINE
  8
_0-1_1_5
  6
CENTER2
 62
    7
 10
-12.376996530678108
 20
198.06814313591062
 11
-12.776920373339951
 21
198.52506348690756
  0
LINE
  8
_0-1_1_5
  6
CENTER2
 62
    7
 10
-12.776920373339951
 20
198.52506348690756
 11
-13.269947707069706
 21
198.91948535389136
  0
LINE
  8
_0-1_1_5
  6
CENTER2
 62
    7
 10
-13.269947707069706
 20
198.91948535389136
 11
-13.841098145815863
 21
199.23942442802084
  0
LINE
  8
_0-1_1_5
  6
CENTER2
 62
    7
 10
-13.841098145815863
 20
199.23942442802084
 11
-14.473017572513188
 21
199.47515952242554
  0
LINE
  8
_0-1_1_5
  6
CENTER2
 62
    7
 10
-14.473017572513188
 20
199.47515952242554
 11
-15.146505435148141
 21
199.61952794554969
  0
LINE
  8
_0-1_1_5
  6
CENTER2
 62
    7
 10
-15.146505435148141
 20
199.61952794554969
 11
-15.841098145815863
 21
199.66814313591061
  0
LINE
  8
_0-1_1_5
  6
CENTER2
 62
    7
 10
-15.841098145815863
 20
199.66814313591061
 11
-16.535690856483583
 21
199.61952794554969
  0
LINE
  8
_0-1_1_5
  6
CENTER2
 62
    7
 10
-16.535690856483583
 20
199.61952794554969
 11
-17.209178719118537
 21
199.47515952242554
  0
LINE
  8
_0-1_1_5
  6
CENTER2
 62
    7
 10
-17.209178719118537
 20
199.47515952242554
 11
-17.841098145815863
 21
199.23942442802084
  0
LINE
  8
_0-1_1_5
  6
CENTER2
 62
    7
 10
-17.841098145815863
 20
199.23942442802084
 11
-18.412248584562018
 21
198.91948535389136
  0
LINE
  8
_0-1_1_5
  6
CENTER2
 62
    7
 10
-18.412248584562018
 20
198.91948535389136
 11
-18.905275918291775
 21
198.52506348690756
  0
LINE
  8
_0-1_1_5
  6
CENTER2
 62
    7
 10
-18.905275918291775
 20
198.52506348690756
 11
-19.305199760953617
 21
198.06814313591062
  0
LINE
  8
_0-1_1_5
  6
CENTER2
 62
    7
 10
-19.305199760953617
 20
198.06814313591062
 11
-19.599868628959495
 21
197.56260759455276
  0
LINE
  8
_0-1_1_5
  6
CENTER2
 62
    7
 10
-19.599868628959495
 20
197.56260759455276
 11
-19.780329157864696
 21
197.0238173044448
  0
LINE
  8
_0-1_1_5
  6
CENTER2
 62
    7
 10
-19.780329157864696
 20
197.0238173044448
 11
-19.841098145815863
 21
196.46814313591062
  0
LINE
  8
_0-1_1_5
  6
CENTER2
 62
    7
 10
-19.841098145815863
 20
196.46814313591062
 11
-19.780329157864696
 21
195.91246896737644
  0
LINE
  8
_0-1_1_5
  6
CENTER2
 62
    7
 10
-19.780329157864696
 20
195.91246896737644
 11
-19.599868628959499
 21
195.37367867726849
  0
LINE
  8
_0-1_1_5
  6
CENTER2
 62
    7
 10
-19.599868628959499
 20
195.37367867726849
 11
-19.30519976095362
 21
194.86814313591063
  0
LINE
  8
_0-1_1_5
  6
CENTER2
 62
    7
 10
-19.30519976095362
 20
194.86814313591063
 11
-18.905275918291782
 21
194.41122278491369
  0
LINE
  8
_0-1_1_5
  6
CENTER2
 62
    7
 10
-18.905275918291782
 20
194.41122278491369
 11
-18.412248584562025
 21
194.01680091792988
  0
LINE
  8
_0-1_1_5
  6
CENTER2
 62
    7
 10
-18.412248584562025
 20
194.01680091792988
 11
-17.84109814581587
 21
193.69686184380043
  0
LINE
  8
_0-1_1_5
  6
CENTER2
 62
    7
 10
-17.84109814581587
 20
193.69686184380043
 11
-17.209178719118547
 21
193.46112674939573
  0
LINE
  8
_0-1_1_5
  6
CENTER2
 62
    7
 10
-17.209178719118547
 20
193.46112674939573
 11
-16.535690856483594
 21
193.31675832627155
  0
LINE
  8
_0-1_1_5
  6
CENTER2
 62
    7
 10
-16.535690856483594
 20
193.31675832627155
 11
-15.841098145815874
 21
193.26814313591063
  0
LINE
  8
_0-1_1_5
  6
CENTER2
 62
    7
 10
-15.841098145815874
 20
193.26814313591063
 11
-15.146505435148153
 21
193.31675832627155
  0
LINE
  8
_0-1_1_5
  6
CENTER2
 62
    7
 10
-15.146505435148153
 20
193.31675832627155
 11
-14.4730175725132
 21
193.4611267493957
  0
LINE
  8
_0-1_1_5
  6
CENTER2
 62
    7
 10
-14.4730175725132
 20
193.4611267493957
 11
-13.841098145815875
 21
193.69686184380041
  0
LINE
  8
_0-1_1_5
  6
CENTER2
 62
    7
 10
-13.841098145815875
 20
193.69686184380041
 11
-13.269947707069717
 21
194.01680091792988
  0
LINE
  8
_0-1_1_5
  6
CENTER2
 62
    7
 10
-13.269947707069717
 20
194.01680091792988
 11
-12.77692037333996
 21
194.41122278491369
  0
LINE
  8
_0-1_1_5
  6
CENTER2
 62
    7
 10
-12.77692037333996
 20
194.41122278491369
 11
-12.376996530678117
 21
194.8681431359106
  0
LINE
  8
_0-1_1_5
  6
CENTER2
 62
    7
 10
-12.376996530678117
 20
194.8681431359106
 11
-12.082327662672235
 21
195.37367867726846
  0
LINE
  8
_0-1_1_5
  6
CENTER2
 62
    7
 10
-12.082327662672235
 20
195.37367867726846
 11
-11.901867133767034
 21
195.91246896737644
  0
LINE
  8
_0-1_1_5
  6
CENTER2
 62
    7
 10
-11.901867133767034
 20
195.91246896737644
 11
-11.841098145815863
 21
196.46814313591059
  0
LINE
  8
_0-1_1_5
  6
CENTER2
 62
    7
 10
-11.841098145815863
 20
196.46814313591059
 11
-11.841098145815863
 21
196.46814313591062
  0
LINE
  8
_0-1_1_5
  6
CENTER2
 62
    7
 10
-11.841098145815863
 20
176.679923520366
 11
-11.841098145815863
 21
176.679923520366
  0
LINE
  8
_0-1_1_5
  6
CENTER2
 62
    7
 10
-11.841098145815863
 20
176.679923520366
 11
-11.901867133767031
 21
177.23559768890019
  0
LINE
  8
_0-1_1_5
  6
CENTER2
 62
    7
 10
-11.901867133767031
 20
177.23559768890019
 11
-12.082327662672229
 21
177.77438797900814
  0
LINE
  8
_0-1_1_5
  6
CENTER2
 62
    7
 10
-12.082327662672229
 20
177.77438797900814
 11
-12.376996530678108
 21
178.279923520366
  0
LINE
  8
_0-1_1_5
  6
CENTER2
 62
    7
 10
-12.376996530678108
 20
178.279923520366
 11
-12.776920373339951
 21
178.73684387136294
  0
LINE
  8
_0-1_1_5
  6
CENTER2
 62
    7
 10
-12.776920373339951
 20
178.73684387136294
 11
-13.269947707069706
 21
179.13126573834674
  0
LINE
  8
_0-1_1_5
  6
CENTER2
 62
    7
 10
-13.269947707069706
 20
179.13126573834674
 11
-13.841098145815863
 21
179.45120481247622
  0
LINE
  8
_0-1_1_5
  6
CENTER2
 62
    7
 10
-13.841098145815863
 20
179.45120481247622
 11
-14.473017572513188
 21
179.68693990688092
  0
LINE
  8
_0-1_1_5
  6
CENTER2
 62
    7
 10
-14.473017572513188
 20
179.68693990688092
 11
-15.146505435148141
 21
179.83130833000507
  0
LINE
  8
_0-1_1_5
  6
CENTER2
 62
    7
 10
-15.146505435148141
 20
179.83130833000507
 11
-15.841098145815863
 21
179.87992352036599
  0
LINE
  8
_0-1_1_5
  6
CENTER2
 62
    7
 10
-15.841098145815863
 20
179.87992352036599
 11
-16.535690856483583
 21
179.83130833000507
  0
LINE
  8
_0-1_1_5
  6
CENTER2
 62
    7
 10
-16.535690856483583
 20
179.83130833000507
 11
-17.209178719118537
 21
179.68693990688092
  0
LINE
  8
_0-1_1_5
  6
CENTER2
 62
    7
 10
-17.209178719118537
 20
179.68693990688092
 11
-17.841098145815863
 21
179.45120481247622
  0
LINE
  8
_0-1_1_5
  6
CENTER2
 62
    7
 10
-17.841098145815863
 20
179.45120481247622
 11
-18.412248584562018
 21
179.13126573834674
  0
LINE
  8
_0-1_1_5
  6
CENTER2
 62
    7
 10
-18.412248584562018
 20
179.13126573834674
 11
-18.905275918291775
 21
178.73684387136294
  0
LINE
  8
_0-1_1_5
  6
CENTER2
 62
    7
 10
-18.905275918291775
 20
178.73684387136294
 11
-19.305199760953617
 21
178.279923520366
  0
LINE
  8
_0-1_1_5
  6
CENTER2
 62
    7
 10
-19.305199760953617
 20
178.279923520366
 11
-19.599868628959495
 21
177.77438797900814
  0
LINE
  8
_0-1_1_5
  6
CENTER2
 62
    7
 10
-19.599868628959495
 20
177.77438797900814
 11
-19.780329157864696
 21
177.23559768890019
  0
LINE
  8
_0-1_1_5
  6
CENTER2
 62
    7
 10
-19.780329157864696
 20
177.23559768890019
 11
-19.841098145815863
 21
176.679923520366
  0
LINE
  8
_0-1_1_5
  6
CENTER2
 62
    7
 10
-19.841098145815863
 20
176.679923520366
 11
-19.780329157864696
 21
176.12424935183182
  0
LINE
  8
_0-1_1_5
  6
CENTER2
 62
    7
 10
-19.780329157864696
 20
176.12424935183182
 11
-19.599868628959499
 21
175.58545906172387
  0
LINE
  8
_0-1_1_5
  6
CENTER2
 62
    7
 10
-19.599868628959499
 20
175.58545906172387
 11
-19.30519976095362
 21
175.07992352036601
  0
LINE
  8
_0-1_1_5
  6
CENTER2
 62
    7
 10
-19.30519976095362
 20
175.07992352036601
 11
-18.905275918291782
 21
174.62300316936907
  0
LINE
  8
_0-1_1_5
  6
CENTER2
 62
    7
 10
-18.905275918291782
 20
174.62300316936907
 11
-18.412248584562025
 21
174.22858130238527
  0
LINE
  8
_0-1_1_5
  6
CENTER2
 62
    7
 10
-18.412248584562025
 20
174.22858130238527
 11
-17.84109814581587
 21
173.90864222825581
  0
LINE
  8
_0-1_1_5
  6
CENTER2
 62
    7
 10
-17.84109814581587
 20
173.90864222825581
 11
-17.209178719118547
 21
173.67290713385111
  0
LINE
  8
_0-1_1_5
  6
CENTER2
 62
    7
 10
-17.209178719118547
 20
173.67290713385111
 11
-16.535690856483594
 21
173.52853871072693
  0
LINE
  8
_0-1_1_5
  6
CENTER2
 62
    7
 10
-16.535690856483594
 20
173.52853871072693
 11
-15.841098145815874
 21
173.47992352036601
  0
LINE
  8
_0-1_1_5
  6
CENTER2
 62
    7
 10
-15.841098145815874
 20
173.47992352036601
 11
-15.146505435148153
 21
173.52853871072693
  0
LINE
  8
_0-1_1_5
  6
CENTER2
 62
    7
 10
-15.146505435148153
 20
173.52853871072693
 11
-14.4730175725132
 21
173.67290713385108
  0
LINE
  8
_0-1_1_5
  6
CENTER2
 62
    7
 10
-14.4730175725132
 20
173.67290713385108
 11
-13.841098145815875
 21
173.90864222825579
  0
LINE
  8
_0-1_1_5
  6
CENTER2
 62
    7
 10
-13.841098145815875
 20
173.90864222825579
 11
-13.269947707069717
 21
174.22858130238527
  0
LINE
  8
_0-1_1_5
  6
CENTER2
 62
    7
 10
-13.269947707069717
 20
174.22858130238527
 11
-12.77692037333996
 21
174.62300316936907
  0
LINE
  8
_0-1_1_5
  6
CENTER2
 62
    7
 10
-12.77692037333996
 20
174.62300316936907
 11
-12.376996530678117
 21
175.07992352036598
  0
LINE
  8
_0-1_1_5
  6
CENTER2
 62
    7
 10
-12.376996530678117
 20
175.07992352036598
 11
-12.082327662672235
 21
175.58545906172384
  0
LINE
  8
_0-1_1_5
  6
CENTER2
 62
    7
 10
-12.082327662672235
 20
175.58545906172384
 11
-11.901867133767034
 21
176.12424935183182
  0
LINE
  8
_0-1_1_5
  6
CENTER2
 62
    7
 10
-11.901867133767034
 20
176.12424935183182
 11
-11.841098145815863
 21
176.67992352036597
  0
LINE
  8
_0-1_1_5
  6
CENTER2
 62
    7
 10
-11.841098145815863
 20
176.67992352036597
 11
-11.841098145815863
 21
176.679923520366
  0
LINE
  8
_0-1_1_5
  6
CENTER2
 62
    7
 10
-10.841098145815863
 20
176.679923520366
 11
-20.841098145815863
 21
176.679923520366
  0
LINE
  8
_0-1_1_5
  6
CENTER2
 62
    7
 10
-15.841098145815863
 20
172.67992352036603
 11
-15.841098145815863
 21
180.67992352036606
  0
LINE
  8
_0-1_1_5
  6
CENTER2
 62
    7
 10
-26.841098145815749
 20
206.57403332813831
 11
-4.8410981458158631
 21
206.57403332813831
  0
LINE
  8
_0-1_1_5
  6
CENTER2
 62
    7
 10
-4.8410981458158631
 20
206.57403332813831
 11
-1.8410981458158631
 21
203.57403332813834
  0
LINE
  8
_0-1_1_5
  6
CENTER2
 62
    7
 10
-1.8410981458158631
 20
169.57403332813831
 11
-1.8410981458158631
 21
203.57403332813834
  0
LINE
  8
_0-1_1_5
  6
CENTER2
 62
    7
 10
-1.8410981458158631
 20
169.57403332813831
 11
-4.8410981458158631
 21
166.57403332813831
  0
LINE
  8
_0-1_1_5
  6
CENTER2
 62
    7
 10
-26.841098145815749
 20
166.57403332813831
 11
-4.8410981458158631
 21
166.57403332813831
  0
LINE
  8
_0-1_1_5
  6
CENTER2
 62
    7
 10
-26.841098145815749
 20
166.57403332813831
 11
-29.841098145815863
 21
169.57403332813831
  0
LINE
  8
_0-1_1_5
  6
CENTER2
 62
    7
 10
-29.841098145815863
 20
203.57403332813834
 11
-29.841098145815863
 21
169.57403332813831
  0
LINE
  8
_0-1_1_5
  6
CENTER2
 62
    7
 10
-29.841098145815863
 20
203.57403332813834
 11
-26.841098145815749
 21
206.57403332813831
  0
LINE
  8
_0-1_1_5
  6
CONTINUOUS
 62
    7
 10
-9.5961001474174736
 20
191.57403332813831
 11
277.91390385578575
 21
191.57403332813831
  0
LINE
  8
_0-1_1_5
  6
CONTINUOUS
 62
    7
 10
-9.5961001474174736
 20
181.57403332813831
 11
277.91390385578575
 21
181.57403332813831
  0
TEXT
  8
_0-3_
 62
    7
 10
322.25649152470066
 20
-54.000366323889125
 40
6.1081542968750009
 41
1
 50
0
  1
1/2
  0
POINT
  8
_0-2_ADD_LINE
 62
    7
 10
-15.841098145815863
 20
230.46352335414701
  0
POINT
  8
_0-2_ADD_LINE
 62
    7
 10
284.15890185418414
 20
230.46352335414701
  0
LINE
  8
_0-2_ADD_LINE
  6
CONTINUOUS
 62
    7
 10
-15.841098145815863
 20
230.46352335414701
 11
-15.841098145815863
 21
212.02705390700831
  0
LINE
  8
_0-2_ADD_LINE
  6
CONTINUOUS
 62
    7
 10
284.15890185418414
 20
230.46352335414701
 11
284.15890185418414
 21
212.02705390700831
  0
LINE
  8
_0-1_1_5
  6
CONTINUOUS
 62
    7
 10
-15.841098145815863
 20
230.46352335414701
 11
284.15890185418414
 21
230.46352335414701
  0
TEXT
  8
_0-1_1_5
 62
    4
 10
130.40890185418414
 20
231.46352335414701
 40
5
 41
1
 50
0
  1
300
  0
POINT
  8
_0-2_ADD_LINE
 62
    7
 10
328.70480406866511
 20
66.47990948632679
  0
LINE
  8
_0-2_ADD_LINE
  6
CONTINUOUS
 62
    7
 10
328.70480406866511
 20
66.47990948632679
 11
312.65890185418402
 21
66.47990948632679
  0
POINT
  8
_0-2_ADD_LINE
 62
    7
 10
341.14870966194025
 20
194.57403332813834
  0
POINT
  8
_0-2_ADD_LINE
 62
    7
 10
341.14870966194025
 20
178.57403332813831
  0
LINE
  8
_0-2_ADD_LINE
  6
CONTINUOUS
 62
    7
 10
341.14870966194025
 20
194.57403332813834
 11
356.34172615078603
 21
194.57403332813834
  0
LINE
  8
_0-2_ADD_LINE
  6
CONTINUOUS
 62
    7
 10
341.14870966194025
 20
178.57403332813831
 11
356.34172615078603
 21
178.57403332813831
  0
LINE
  8
_0-1_1_5
  6
CONTINUOUS
 62
    7
 10
341.14870966194025
 20
194.57403332813834
 11
341.14870966194025
 21
178.57403332813831
  0
TEXT
  8
_0-1_1_5
 62
    4
 10
340.14870966194025
 20
184.07403332813831
 40
5
 41
1
 50
90
  1
16
  0
POINT
  8
_0-2_ADD_LINE
 62
    7
 10
422.42532748813301
 20
130.07403332813834
  0
POINT
  8
_0-2_ADD_LINE
 62
    7
 10
432.42532748813301
 20
130.07403332813834
  0
LINE
  8
_0-2_ADD_LINE
  6
CONTINUOUS
 62
    7
 10
422.42532748813301
 20
130.07403332813834
 11
422.42532748813301
 21
157.07403332813834
  0
LINE
  8
_0-2_ADD_LINE
  6
CONTINUOUS
 62
    7
 10
432.42532748813301
 20
130.07403332813834
 11
432.42532748813301
 21
157.07403332813834
  0
LINE
  8
_0-1_1_5
  6
CONTINUOUS
 62
    7
 10
422.42532748813301
 20
130.07403332813834
 11
432.42532748813301
 21
130.07403332813834
  0
TEXT
  8
_0-1_1_5
 62
    4
 10
411.6595266569791
 20
131.08042783937174
 40
5
 41
1
 50
0
  1
10
  0
LINE
  8
_0-2_ADD_LINE
  6
CONTINUOUS
 62
    7
 10
422.42532748813301
 20
130.07403332813834
 11
409.12099748962066
 21
130.07403332813834
  0
TEXT
  8
_0-2_ADD_LINE
 62
    4
 10
442.34360223690385
 20
102.90366225145492
 40
5
 41
1
 50
0
  1
タッピングビス
  0
TEXT
  8
_0-2_ADD_LINE
 62
    4
 10
442.54922784311145
 20
94.837706868331736
 40
5
 41
1
 50
0
  1
3.5x35
  0
LINE
  8
_0-2_ADD_LINE
  6
CONTINUOUS
 62
    7
 10
453.39754697737044
 20
176.7251748815446
 11
453.39754697737044
 21
110.1991743314467
  0
POINT
  8
_0-2_ADD_LINE
 62
    7
 10
432.42532748813301
 20
230.49130092143628
  0
LINE
  8
_0-2_ADD_LINE
  6
CONTINUOUS
 62
    7
 10
432.42532748813301
 20
230.49130092143628
 11
432.42532748813301
 21
215.07403332813834
  0
ARC
  8
_0-1_1_5
  6
CONTINUOUS
 62
    7
 10
-15.841098145815863
 20
186.57403332813831
 40
25
 50
11.53695903281548
 51
348.4630409671845
  0
ARC
  8
_0-1_1_5
  6
CONTINUOUS
 62
    7
 10
284.15890185418414
 20
186.57403332813831
 40
25
 50
191.53695903281547
 51
168.46304096718453
  0
LINE
  8
_0-1_1_5
  6
CONTINUOUS
 62
    7
 10
422.42532748813301
 20
211.57403332813834
 11
432.42532748813301
 21
211.57403332813834
  0
LINE
  8
_0-1_1_5
  6
CONTINUOUS
 62
    7
 10
422.42532748813301
 20
211.57403332813834
 11
422.42532748813301
 21
161.57403332813834
  0
LINE
  8
_0-1_1_5
  6
CONTINUOUS
 62
    7
 10
432.42532748813301
 20
211.57403332813834
 11
432.42532748813301
 21
161.57403332813834
  0
LINE
  8
_0-1_1_5
  6
CONTINUOUS
 62
    7
 10
422.42532748813301
 20
161.57403332813834
 11
432.42532748813301
 21
161.57403332813834
  0
LINE
  8
_0-1_1_5
  6
CONTINUOUS
 62
    7
 10
259.15890185418425
 20
56.47990948632679
 11
259.15890185418425
 21
66.47990948632679
  0
LINE
  8
_0-1_1_5
  6
CONTINUOUS
 62
    7
 10
-40.841098145815749
 20
56.479909486326846
 11
-40.841098145815749
 21
66.479909486326846
  0
LINE
  8
_0-1_1_5
  6
CONTINUOUS
 62
    7
 10
309.15890185418402
 20
56.47990948632679
 11
309.15890185418402
 21
66.47990948632679
  0
LINE
  8
_0-1_1_5
  6
CONTINUOUS
 62
    7
 10
9.1589018541840233
 20
56.479909486326846
 11
9.1589018541840233
 21
66.479909486326846
  0
LINE
  8
_0-1_1_5
  6
CONTINUOUS
 62
    7
 10
-40.841098145815749
 20
66.479909486326846
 11
9.1589018541840233
 21
66.479909486326846
  0
LINE
  8
_0-1_1_5
  6
CONTINUOUS
 62
    7
 10
-40.841098145815749
 20
56.479909486326846
 11
9.1589018541840233
 21
56.479909486326846
  0
LINE
  8
_0-1_1_5
  6
CONTINUOUS
 62
    7
 10
259.15890185418425
 20
66.47990948632679
 11
309.15890185418402
 21
66.47990948632679
  0
LINE
  8
_0-1_1_5
  6
CONTINUOUS
 62
    7
 10
259.15890185418425
 20
56.47990948632679
 11
309.15890185418402
 21
56.47990948632679
  0
POINT
  8
_0-2_ADD_LINE
 62
    7
 10
309.15890185418402
 20
110.88897308438501
  0
LINE
  8
_0-2_ADD_LINE
  6
CONTINUOUS
 62
    7
 10
309.15890185418402
 20
110.88897308438501
 11
309.15890185418402
 21
73.247847963143499
  0
LINE
  8
_0-1_1_5
  6
CONTINUOUS
 62
    7
 10
259.15890185418425
 20
110.88897308438501
 11
309.15890185418402
 21
110.88897308438501
  0
TEXT
  8
_0-2_ADD_LINE
 62
    4
 10
281.65890185418414
 20
111.88897308438501
 40
5
 41
1
 50
0
  1
50
  0
POINT
  8
_0-2_ADD_LINE
 62
    7
 10
309.15890185418402
 20
239.67752788554878
  0
LINE
  8
_0-2_ADD_LINE
  6
CONTINUOUS
 62
    7
 10
309.15890185418402
 20
239.67752788554878
 11
309.15890185418402
 21
212.53494786615016
  0
POINT
  8
_0-2_ADD_LINE
 62
    7
 10
-40.841098145815749
 20
239.67752788554878
  0
LINE
  8
_0-1_1_5
  6
CONTINUOUS
 62
    7
 10
-40.841098145815749
 20
239.67752788554878
 11
309.15890185418402
 21
239.67752788554878
  0
TEXT
  8
_0-2_ADD_LINE
 62
    4
 10
130.40890185418414
 20
240.67752788554878
 40
5
 41
1
 50
0
  1
350
  0
LINE
  8
_0-1_1_5
  6
CONTINUOUS
 62
    7
 10
276.15890185418402
 20
1.4799094863267896
 11
276.15890185418402
 21
1.4799094863267896
  0
LINE
  8
_0-1_1_5
  6
CONTINUOUS
 62
    7
 10
276.15890185418402
 20
1.4799094863267896
 11
276.46278616510114
 21
1.5558707212657499
  0
LINE
  8
_0-1_1_5
  6
CONTINUOUS
 62
    7
 10
276.46278616510114
 20
1.5558707212657499
 11
276.75743710500393
 21
1.781446382397248
  0
LINE
  8
_0-1_1_5
  6
CONTINUOUS
 62
    7
 10
276.75743710500393
 20
1.781446382397248
 11
277.03390185418402
 21
2.1497824674045969
  0
LINE
  8
_0-1_1_5
  6
CONTINUOUS
 62
    7
 10
277.03390185418402
 20
2.1497824674045969
 11
277.28378017113545
 21
2.6496872707319001
  0
LINE
  8
_0-1_1_5
  6
CONTINUOUS
 62
    7
 10
277.28378017113545
 20
2.6496872707319001
 11
277.49947962964222
 21
3.2659714378940938
  0
LINE
  8
_0-1_1_5
  6
CONTINUOUS
 62
    7
 10
277.49947962964222
 20
3.2659714378940938
 11
277.67444631080679
 21
3.9799094863267901
  0
LINE
  8
_0-1_1_5
  6
CONTINUOUS
 62
    7
 10
277.67444631080679
 20
3.9799094863267901
 11
277.80336394055934
 21
4.7698087696984466
  0
LINE
  8
_0-1_1_5
  6
CONTINUOUS
 62
    7
 10
277.80336394055934
 20
4.7698087696984466
 11
277.88231542195541
 21
5.6116685979921384
  0
LINE
  8
_0-1_1_5
  6
CONTINUOUS
 62
    7
 10
277.88231542195541
 20
5.6116685979921384
 11
277.90890185418402
 21
6.4799094863267905
  0
LINE
  8
_0-1_1_5
  6
CONTINUOUS
 62
    7
 10
277.90890185418402
 20
6.4799094863267905
 11
277.88231542195541
 21
7.3481503746614427
  0
LINE
  8
_0-1_1_5
  6
CONTINUOUS
 62
    7
 10
277.88231542195541
 20
7.3481503746614427
 11
277.80336394055934
 21
8.1900102029551345
  0
LINE
  8
_0-1_1_5
  6
CONTINUOUS
 62
    7
 10
277.80336394055934
 20
8.1900102029551345
 11
277.67444631080679
 21
8.9799094863267896
  0
LINE
  8
_0-1_1_5
  6
CONTINUOUS
 62
    7
 10
277.67444631080679
 20
8.9799094863267896
 11
277.49947962964222
 21
9.6938475347594846
  0
LINE
  8
_0-1_1_5
  6
CONTINUOUS
 62
    7
 10
277.49947962964222
 20
9.6938475347594846
 11
277.28378017113545
 21
10.310131701921678
  0
LINE
  8
_0-1_1_5
  6
CONTINUOUS
 62
    7
 10
277.28378017113545
 20
10.310131701921678
 11
277.03390185418402
 21
10.810036505248981
  0
LINE
  8
_0-1_1_5
  6
CONTINUOUS
 62
    7
 10
277.03390185418402
 20
10.810036505248981
 11
276.75743710500393
 21
11.17837259025633
  0
LINE
  8
_0-1_1_5
  6
CONTINUOUS
 62
    7
 10
276.75743710500393
 20
11.17837259025633
 11
276.46278616510114
 21
11.403948251387828
  0
LINE
  8
_0-1_1_5
  6
CONTINUOUS
 62
    7
 10
276.46278616510114
 20
11.403948251387828
 11
276.15890185418402
 21
11.47990948632679
  0
LINE
  8
_0-1_1_5
  6
CONTINUOUS
 62
    7
 10
276.15890185418402
 20
11.47990948632679
 11
276.15890185418402
 21
11.47990948632679
  0
LINE
  8
_0-1_1_5
  6
CONTINUOUS
 62
    7
 10
276.15890185418402
 20
-3.5200905136732388
 11
292.15890185418425
 21
-3.5200905136732388
  0
LINE
  8
_0-1_1_5
  6
CONTINUOUS
 62
    7
 10
276.15890185418402
 20
-3.5200905136732388
 11
276.15890185418402
 21
1.4799094863267612
  0
LINE
  8
_0-1_1_5
  6
CONTINUOUS
 62
    7
 10
-23.841098145815977
 20
-3.5200905136731535
 11
-7.8410981458157494
 21
-3.5200905136731535
  0
LINE
  8
_0-1_1_5
  6
CONTINUOUS
 62
    7
 10
-7.8410981458157485
 20
11.479909486326875
 11
-7.8410981458157485
 21
11.479909486326875
  0
LINE
  8
_0-1_1_5
  6
CONTINUOUS
 62
    7
 10
-7.8410981458157485
 20
11.479909486326875
 11
-8.1449824567328761
 21
11.403948251387916
  0
LINE
  8
_0-1_1_5
  6
CONTINUOUS
 62
    7
 10
-8.1449824567328761
 20
11.403948251387916
 11
-8.4396333966356689
 21
11.178372590256417
  0
LINE
  8
_0-1_1_5
  6
CONTINUOUS
 62
    7
 10
-8.4396333966356689
 20
11.178372590256417
 11
-8.7160981458157494
 21
10.810036505249069
  0
LINE
  8
_0-1_1_5
  6
CONTINUOUS
 62
    7
 10
-8.7160981458157494
 20
10.810036505249069
 11
-8.965976462767193
 21
10.310131701921767
  0
LINE
  8
_0-1_1_5
  6
CONTINUOUS
 62
    7
 10
-8.965976462767193
 20
10.310131701921767
 11
-9.1816759212739605
 21
9.6938475347595734
  0
LINE
  8
_0-1_1_5
  6
CONTINUOUS
 62
    7
 10
-9.1816759212739605
 20
9.6938475347595734
 11
-9.3566426024385176
 21
8.9799094863268767
  0
LINE
  8
_0-1_1_5
  6
CONTINUOUS
 62
    7
 10
-9.3566426024385176
 20
8.9799094863268767
 11
-9.485560232191089
 21
8.1900102029552215
  0
LINE
  8
_0-1_1_5
  6
CONTINUOUS
 62
    7
 10
-9.485560232191089
 20
8.1900102029552215
 11
-9.5645117135871125
 21
7.3481503746615306
  0
LINE
  8
_0-1_1_5
  6
CONTINUOUS
 62
    7
 10
-9.5645117135871125
 20
7.3481503746615306
 11
-9.5910981458157494
 21
6.4799094863268758
  0
LINE
  8
_0-1_1_5
  6
CONTINUOUS
 62
    7
 10
-9.5910981458157494
 20
6.4799094863268758
 11
-9.5645117135871143
 21
5.6116685979922245
  0
LINE
  8
_0-1_1_5
  6
CONTINUOUS
 62
    7
 10
-9.5645117135871143
 20
5.6116685979922245
 11
-9.485560232191089
 21
4.7698087696985336
  0
LINE
  8
_0-1_1_5
  6
CONTINUOUS
 62
    7
 10
-9.485560232191089
 20
4.7698087696985336
 11
-9.3566426024385176
 21
3.9799094863268785
  0
LINE
  8
_0-1_1_5
  6
CONTINUOUS
 62
    7
 10
-9.3566426024385176
 20
3.9799094863268785
 11
-9.1816759212739623
 21
3.2659714378941818
  0
LINE
  8
_0-1_1_5
  6
CONTINUOUS
 62
    7
 10
-9.1816759212739623
 20
3.2659714378941818
 11
-8.9659764627671947
 21
2.649687270731989
  0
LINE
  8
_0-1_1_5
  6
CONTINUOUS
 62
    7
 10
-8.9659764627671947
 20
2.649687270731989
 11
-8.7160981458157512
 21
2.1497824674046857
  0
LINE
  8
_0-1_1_5
  6
CONTINUOUS
 62
    7
 10
-8.7160981458157512
 20
2.1497824674046857
 11
-8.4396333966356725
 21
1.7814463823973359
  0
LINE
  8
_0-1_1_5
  6
CONTINUOUS
 62
    7
 10
-8.4396333966356725
 20
1.7814463823973359
 11
-8.1449824567328797
 21
1.555870721265836
  0
LINE
  8
_0-1_1_5
  6
CONTINUOUS
 62
    7
 10
-8.1449824567328797
 20
1.555870721265836
 11
-7.8410981458157529
 21
1.4799094863268749
  0
LINE
  8
_0-1_1_5
  6
CONTINUOUS
 62
    7
 10
-7.8410981458157529
 20
1.4799094863268749
 11
-7.8410981458157494
 21
1.4799094863268749
  0
LINE
  8
_0-1_1_5
  6
CONTINUOUS
 62
    7
 10
-7.8410981458157494
 20
-3.5200905136731535
 11
-7.8410981458157494
 21
1.4799094863268465
  0
LINE
  8
_0-1_1_5
  6
CONTINUOUS
 62
    7
 10
-7.8410981458157494
 20
11.479909486326818
 11
276.15890185418402
 21
11.47990948632679
  0
LINE
  8
_0-1_1_5
  6
CONTINUOUS
 62
    7
 10
-7.8410981458157494
 20
1.4799094863268465
 11
276.15890185418402
 21
1.4799094863267612
  0
POINT
  8
_0-2_ADD_LINE
 62
    7
 10
328.70480406866511
 20
-3.5200905136732388
  0
LINE
  8
_0-2_ADD_LINE
  6
CONTINUOUS
 62
    7
 10
328.70480406866511
 20
-3.5200905136732388
 11
296.15890185418425
 21
-3.5200905136732388
  0
LINE
  8
_0-2_ADD_LINE
  6
CONTINUOUS
 62
    7
 10
102.42532748813315
 20
11.47990948632679
 11
102.42532748813315
 21
37.353649420275019
  0
POINT
  8
_0-2_ADD_LINE
 62
    7
 10
102.42532748813315
 20
11.47990948632679
  0
POINT
  8
_0-2_ADD_LINE
 62
    7
 10
102.42532748813315
 20
1.4799094863267612
  0
LINE
  8
_0-2_ADD_LINE
  6
CONTINUOUS
 62
    7
 10
102.42532748813315
 20
11.47990948632679
 11
102.42532748813315
 21
1.4799094863267612
  0
TEXT
  8
_0-2_ADD_LINE
 62
    4
 10
101.38443096224759
 20
28.459818993063749
 40
5
 41
1
 50
90
  1
10
  0
LINE
  8
_0-1_1_5
  6
CONTINUOUS
 62
    7
 10
-23.841098145815977
 20
-3.5200905136731535
 11
-23.841098145815977
 21
56.479909486326846
  0
LINE
  8
_0-1_1_5
  6
CONTINUOUS
 62
    7
 10
292.15890185418425
 20
-3.5200905136731535
 11
292.15890185418425
 21
56.47990948632679
  0
LINE
  8
_0-1_1_5
  6
CONTINUOUS
 62
    7
 10
276.15890185418402
 20
11.47990948632679
 11
276.15890185418402
 21
56.47990948632679
  0
LINE
  8
_0-1_1_5
  6
CONTINUOUS
 62
    7
 10
-7.8410981458157494
 20
11.479909486326818
 11
-7.8410981458157494
 21
56.479909486326846
  0
LINE
  8
_0-1_1_5
  6
CONTINUOUS
 62
    7
 10
328.70480406866511
 20
66.47990948632679
 11
328.70480406866511
 21
-3.5200905136732388
  0
TEXT
  8
_0-2_ADD_LINE
 62
    4
 10
327.70480406866511
 20
28.97990948632679
 40
5
 41
1
 50
90
  1
70
  0
CIRCLE
  8
_0-1_1_5
  6
DASHED1
 62
    7
 10
372.42532748813301
 20
186.57403332813831
 40
5
  0
POINT
  8
_0-2_ADD_LINE
 62
    7
 10
372.42532748813301
 20
230.49130092143628
  0
LINE
  8
_0-2_ADD_LINE
  6
CONTINUOUS
 62
    7
 10
372.42532748813301
 20
230.49130092143628
 11
372.42532748813301
 21
208.57403332813834
  0
LINE
  8
_0-1_1_5
  6
CONTINUOUS
 62
    7
 10
372.42532748813301
 20
230.49130092143628
 11
432.42532748813301
 21
230.49130092143628
  0
TEXT
  8
_0-2_ADD_LINE
 62
    4
 10
399.92532748813301
 20
231.49130092143628
 40
5
 41
1
 50
0
  1
60
  0
TEXT
  8
_0-2_ADD_LINE
 62
    4
 10
335.70950161755292
 20
184.7857742298701
 40
5
 41
1
 50
-90
  1
φ
  0
TEXT
  8
_0-3_
 62
    7
 10
321.93216695212038
 20
-41.805639179264205
 40
6.1081542968750009
 41
1
 50
0
  1
TFP40-B130-003
  0
TEXT
  8
_0-3_
 62
    7
 10
135.16691074515126
 20
-54.188953352434794
 40
6.1081542968750009
 41
1
 50
0
  1
ポリッシュ
  0
ENDSEC
  0
EOF
