  0
SECTION
  2
HEADER
  9
$ACADVER
  1
AC1009
  9
$INSBASE
 10
0
 20
0
 30
0
  9
$EXTMIN
 10
0
 20
0
  9
$EXTMAX
 10
1485
 20
1050
  9
$LIMMIN
 10
0
 20
0
  9
$LIMMAX
 10
1485
 20
1050
  9
$LTSCALE
 40
5
  0
ENDSEC
  0
SECTION
  2
TABLES
  0
TABLE
  2
LTYPE
 70
     9
  0
LTYPE
  2
CONTINUOUS
 70
    64
  3
実線
 72
    65
 73
     0
 40
0.0
  0
LTYPE
  2
DASHED1
 70
    64
  3
--  --  --  --  --  --  --  --  
 72
    65
 73
     2
 40
2.5
 49
1.25
 49
-1.25
  0
LTYPE
  2
DASHED2
 70
    64
  3
----    ----    ----    ----    
 72
    65
 73
     2
 40
5.0
 49
2.5
 49
-2.5
  0
LTYPE
  2
DASHED3
 70
    64
  3
------  ------  ------  ------  
 72
    65
 73
     2
 40
5.0
 49
3.75
 49
-1.25
  0
LTYPE
  2
CENTER1
 70
    64
  3
----- - ----- - ----- - ----- - 
 72
    65
 73
     4
 40
10.0
 49
6.25
 49
-1.25
 49
1.25
 49
-1.25
  0
LTYPE
  2
CENTER2
 70
    64
  3
----------  --  ----------  --  
 72
    65
 73
     4
 40
20.0
 49
12.5
 49
-2.5
 49
2.5
 49
-2.5
  0
LTYPE
  2
PHANTOM1
 70
    64
  3
--- - - --- - - --- - - --- - - 
 72
    65
 73
     6
 40
10.0
 49
3.25
 49
-1.25
 49
1.25
 49
-1.25
 49
1.25
 49
-1.25
  0
LTYPE
  2
PHANTOM2
 70
    64
  3
--------  -  -  --------  -  -  
 72
    65
 73
     6
 40
20.0
 49
10.0
 49
-2.5
 49
1.25
 49
-2.5
 49
1.25
 49
-2.5
  0
LTYPE
  2
DOT
 70
    64
  3
-   -   -   -   -   -   -   -   
 72
    65
 73
     2
 40
2.5
 49
0.625
 49
-1.875
  0
LTYPE
  2
DUMMY
 70
    64
  3
ダミー
 72
    65
 73
     0
 40
0.0
  0
LTYPE
  2
RAND1
 70
    64
  3
ランダム線1
 72
    65
 73
     4
 40
10.0
 49
1.0
 49
-2.0
 49
3.0
 49
-4.0
  0
LTYPE
  2
RAND2
 70
    64
  3
ランダム線2
 72
    65
 73
     4
 40
14.0
 49
2.0
 49
-3.0
 49
4.0
 49
-5.0
  0
LTYPE
  2
RAND3
 70
    64
  3
ランダム線3
 72
    65
 73
     4
 40
18.0
 49
3.0
 49
-4.0
 49
5.0
 49
-6.0
  0
LTYPE
  2
RAND4
 70
    64
  3
ランダム線4
 72
    65
 73
     4
 40
22.0
 49
4.0
 49
-5.0
 49
6.0
 49
-7.0
  0
LTYPE
  2
RAND5
 70
    64
  3
ランダム線5
 72
    65
 73
     4
 40
26.0
 49
5.0
 49
-6.0
 49
7.0
 49
-8.0
  0
LTYPE
  2
LONG1
 70
    64
  3
----------  --  ----------  --  
 72
    65
 73
     4
 40
40.0
 49
32.5
 49
-2.5
 49
2.5
 49
-2.5
  0
LTYPE
  2
LONG2
 70
    64
  3
--------  -  -  --------  -  -  
 72
    65
 73
     6
 40
40.0
 49
30.0
 49
-2.5
 49
1.25
 49
-2.5
 49
1.25
 49
-2.5
  0
LTYPE
  2
LONG3
 70
    64
  3
+++++++++++++++..+++++++++++++++
 72
    65
 73
     2
 40
40.0
 49
37.5
 49
-2.5
  0
LTYPE
  2
LONG4
 70
    64
  3
+++++++++++++++..+++++++++++++++
 72
    65
 73
     2
 40
80.0
 49
75.0
 49
-5.0
  0
LTYPE
  2
LONG5
 70
    64
  3
----------  --  ----------  --  
 72
    65
 73
     4
 40
60.0
 49
37.5
 49
-7.5
 49
7.5
 49
-7.5
  0
LTYPE
  2
dashed
 70
   64
  3
-------   -------------   ------
 72
   65
 73
    2
 40
7.5
 49
6
 49
-1.5
  0
LTYPE
  2
dashed_spaced
 70
   64
  3
----        --------        ----
 72
   65
 73
    2
 40
12
 49
6
 49
-6
  0
LTYPE
  2
long_dashed_dotted
 70
   64
  3
------------- --- --------------
 72
   65
 73
    4
 40
15.25
 49
12
 49
-1.5
 49
0.25
 49
-1.5
  0
LTYPE
  2
long_dashed_double-dotted
 70
   64
  3
----------- --- --- ------------
 72
   65
 73
    6
 40
17
 49
12
 49
-1.5
 49
0.25
 49
-1.5
 49
0.25
 49
-1.5
  0
LTYPE
  2
long_dashed_triplicate-dotted
 70
   64
  3
--------- --- --- --- ----------
 72
   65
 73
    8
 40
18.75
 49
12
 49
-1.5
 49
0.25
 49
-1.5
 49
0.25
 49
-1.5
 49
0.25
 49
-1.5
  0
LTYPE
  2
dotted
 70
   64
  3
   -       -       -       -    
 72
   65
 73
    2
 40
1.75
 49
0.25
 49
-1.5
  0
LTYPE
  2
chain
 70
   64
  3
-------------- -- --------------
 72
   65
 73
    4
 40
18.5
 49
12
 49
-1.5
 49
3.5
 49
-1.5
  0
LTYPE
  2
chain_double_dash
 70
   64
  3
------------ -- -- -------------
 72
   65
 73
    6
 40
23.5
 49
12
 49
-1.5
 49
3.5
 49
-1.5
 49
3.5
 49
-1.5
  0
LTYPE
  2
dashed_dotted
 70
   64
  3
-----------     -     ----------
 72
   65
 73
    4
 40
9.25
 49
6
 49
-1.5
 49
0.25
 49
-1.5
  0
LTYPE
  2
double-dashed_dotted
 70
   64
  3
------   -----------   -   -----
 72
   65
 73
    6
 40
16.75
 49
6
 49
-1.5
 49
6
 49
-1.5
 49
0.25
 49
-1.5
  0
LTYPE
  2
dashed_double-dotted
 70
   64
  3
---------    -    -    ---------
 72
   65
 73
    6
 40
11
 49
6
 49
-1.5
 49
0.25
 49
-1.5
 49
0.25
 49
-1.5
  0
LTYPE
  2
double-dashed_double-dotted
 70
   64
  3
-----   ---------   -   -   ----
 72
   65
 73
    8
 40
18.5
 49
6
 49
-1.5
 49
6
 49
-1.5
 49
0.25
 49
-1.5
 49
0.25
 49
-1.5
  0
LTYPE
  2
dashed_triplicate-dotted
 70
   64
  3
-------    -    -    -    ------
 72
   65
 73
    8
 40
12.75
 49
6
 49
-1.5
 49
0.25
 49
-1.5
 49
0.25
 49
-1.5
 49
0.25
 49
-1.5
  0
LTYPE
  2
double-dashed_triplicate-dotted
 70
   64
  3
-----  ---------  -  -  -  -----
 72
   65
 73
   10
 40
20.25
 49
6
 49
-1.5
 49
6
 49
-1.5
 49
0.25
 49
-1.5
 49
0.25
 49
-1.5
 49
0.25
 49
-1.5
  0
LTYPE
  2
undefined
 70
   64
  3
--------------------------------
 72
   65
 73
    0
 40
0
  0
LTYPE
  2
STYLE_01
 70
   64
  3
----        --------        ----
 72
   65
 73
    2
 40
0.4166399999999997
 49
0.2082799999999999
 49
-0.2083599999999999
  0
LTYPE
  2
STYLE_02
 70
   64
  3
------     -----------     -----
 72
   65
 73
    2
 40
0.694425
 49
0.48607
 49
-0.2083550000000001
  0
LTYPE
  2
STYLE_03
 70
   64
  3
-------   -------------   ------
 72
   65
 73
    2
 40
1.25
 49
1.0416400000000001
 49
-0.2083599999999999
  0
LTYPE
  2
STYLE_04
 70
   64
  3
-------  --------------  -------
 72
   65
 73
    2
 40
1.5277099999999999
 49
1.3194249999999998
 49
-0.208285
  0
LTYPE
  2
STYLE_05
 70
   64
  3
---           -----           --
 72
   65
 73
    2
 40
0.20828
 49
0.069425
 49
-0.138855
  0
LTYPE
  2
STYLE_06
 70
   64
  3
----------      --    ----------
 72
   65
 73
    4
 40
1.0416399999999999
 49
0.625
 49
-0.2082799999999999
 49
0.06943
 49
-0.13893
  0
LTYPE
  2
STYLE_07
 70
   64
  3
-----    -----------    -  -----
 72
   65
 73
    6
 40
1.8749999999999998
 49
0.625
 49
-0.2082799999999999
 49
0.6250000000000001
 49
-0.2083599999999999
 49
0.06943
 49
-0.1389299999999998
  0
LTYPE
  2
STYLE_08
 70
   64
  3
--------     --    --    -------
 72
   65
 73
    6
 40
1.2499999999999996
 49
0.625
 49
-0.2082799999999999
 49
0.06943
 49
-0.13893
 49
0.0694299999999997
 49
-0.13893
  0
LTYPE
  2
STYLE_09
 70
   64
  3
------------  ----  ------------
 72
   65
 73
    4
 40
5
 49
3.75
 49
-0.2777849999999997
 49
0.6944300000000003
 49
-0.2777849999999997
  0
LTYPE
  2
STYLE_10
 70
   64
  3
----------- ---- ---  ----------
 72
   65
 73
    6
 40
5.9375
 49
3.75
 49
-0.2777849999999997
 49
0.6944300000000003
 49
-0.2777849999999997
 49
0.625
 49
-0.3125
  0
ENDTAB
  0
TABLE
  2
STYLE
  5
3
100
AcDbSymbolTable
 70
     1
  0
STYLE
  5
10
100
AcDbSymbolTableRecord
100
AcDbTextStyleTableRecord
  2
STANDARD
 70
     0
 40
0.0
 41
1.0
 50
0.0
 71
     0
 42
0.2
  3
txt
  4
bigfont.shx
  0
STYLE
  5
26
100
AcDbSymbolTableRecord
100
AcDbTextStyleTableRecord
  2
TATEGAKI
 70
    68
 40
0.0
 41
1.0
 50
0.0
 71
     0
 42
1.0
  3
txt
  4
bigfont.shx
  0
ENDTAB
  0
TABLE
  2
LAYER
 70
    5
  0
LAYER
  2
_0-0_0
 70
   64
 62
    7
  6
CONTINUOUS
  0
LAYER
  2
_0-1_1_5
 70
   64
 62
    7
  6
CONTINUOUS
  0
LAYER
  2
_0-2_ADD_LINE
 70
   64
 62
    7
  6
CONTINUOUS
  0
LAYER
  2
_0-3_
 70
   64
 62
    7
  6
CONTINUOUS
  0
LAYER
  2
ADD_LINE
 70
   64
 62
    7
  6
CONTINUOUS
  0
ENDTAB
  0
ENDSEC
  0
SECTION
  2
BLOCKS
  0
ENDSEC
  0
SECTION
  2
ENTITIES
  0
LINE
  8
_0-1_1_5
  6
CONTINUOUS
 62
    7
 10
802.67222095103546
 20
474.86911629585876
 11
802.67222095103546
 21
458.86911629585876
  0
TEXT
  8
_0-1_1_5
 62
    4
 10
800.17222095103546
 20
460.61911629585882
 40
12.5
 41
1
 50
90
  1
16
  0
TEXT
  8
_0-3_
 62
    7
 10
337.91727686287811
 20
-165.72561040232628
 40
15.270385742187502
 41
1
 50
0
  1
ステンレススチール
  0
LINE
  8
_0-0_0
  6
CONTINUOUS
 62
    7
 10
-217.54976684701688
 20
839.39842520894683
 11
-217.54976684701688
 21
-210.60157479105314
  0
LINE
  8
_0-0_0
  6
CONTINUOUS
 62
    7
 10
-217.54976684701688
 20
-210.60157479105314
 11
1267.4502331529832
 21
-210.60157479105328
  0
LINE
  8
_0-0_0
  6
CONTINUOUS
 62
    7
 10
1267.4502331529832
 20
-210.60157479105328
 11
1267.4502331529832
 21
839.39842520894672
  0
LINE
  8
_0-0_0
  6
CONTINUOUS
 62
    7
 10
1267.4502331529832
 20
839.39842520894672
 11
-217.54976684701688
 21
839.39842520894683
  0
TEXT
  8
_0-3_
 62
    7
 10
303.1435361858484
 20
-157.2512975909325
 40
10
 41
1
 50
0
  1
材質
  0
TEXT
  8
_0-3_
 62
    7
 10
303.1435361858484
 20
-126.04446365427265
 40
10
 41
1
 50
0
  1
仕上げ
  0
TEXT
  8
_0-3_
 62
    7
 10
303.1435361858484
 20
-96.397971414445891
 40
10
 41
1
 50
0
  1
品名
  0
LINE
  8
_0-3_
  6
CONTINUOUS
 62
    7
 10
763.33333330012067
 20
-172.00135367935019
 11
763.33333330012067
 21
-82.001353679350046
  0
LINE
  8
_0-3_
  6
CONTINUOUS
 62
    7
 10
1230.0000000001207
 20
-82.001353679350046
 11
295.76393721191187
 21
-82.001353679350046
  0
LINE
  8
_0-3_
  6
CONTINUOUS
 62
    7
 10
1230.0000000001207
 20
-112.00135367935005
 11
295.76393721191187
 21
-112.00135367935005
  0
LINE
  8
_0-3_
  6
CONTINUOUS
 62
    7
 10
1230.0000000001207
 20
-142.00135367935005
 11
295.76393721191187
 21
-142.00135367935005
  0
LINE
  8
_0-3_
  6
CONTINUOUS
 62
    7
 10
295.76393721191187
 20
-172.00135367935005
 11
295.76393721191187
 21
-82.001353679350046
  0
TEXT
  8
_0-3_
 62
    7
 10
769.76611673267166
 20
-97.65079861352163
 40
10
 41
1
 50
0
  1
品番
  0
TEXT
  8
_0-3_
 62
    7
 10
769.76611673267166
 20
-126.84760541025184
 40
10
 41
1
 50
0
  1
縮尺
  0
TEXT
  8
_0-3_
 62
    7
 10
805.64122881175172
 20
-135.00091580972281
 40
15.270385742187502
 41
1
 50
0
  1
1/5
  0
TEXT
  8
_0-3_
 62
    7
 10
-167.22023496641157
 20
-191.8129578821069
 40
12.5
 41
1
 50
0
  1
120718SH
  0
LINE
  8
_0-3_
  6
CONTINUOUS
 62
    7
 10
-169.99999999987921
 20
802.99864632065021
 11
-169.99999999987921
 21
-172.00135367935005
  0
LINE
  8
_0-3_
  6
CONTINUOUS
 62
    7
 10
-169.99999999987921
 20
-172.00135367935005
 11
1230.0000000001207
 21
-172.00135367935019
  0
LINE
  8
_0-3_
  6
CONTINUOUS
 62
    7
 10
1230.0000000001207
 20
-172.00135367935019
 11
1230.0000000001207
 21
802.9986463206501
  0
LINE
  8
_0-3_
  6
CONTINUOUS
 62
    7
 10
1230.0000000001207
 20
802.9986463206501
 11
-169.99999999987921
 21
802.99864632065021
  0
TEXT
  8
_0-3_
 62
    7
 10
337.91727686287811
 20
-104.70437403928486
 40
15.270385742187502
 41
1
 50
0
  1
タオルバー
  0
TEXT
  8
_0-3_
 62
    7
 10
804.6090696281932
 20
-167.49214973604637
 40
15.5
 41
1
 50
0
  1
大洋金物株式会社  ティーエフプラス事業部
  0
TEXT
  8
_0-3_
 62
    7
 10
337.91727686287811
 20
-135.47238338108698
 40
15.270385742187502
 41
1
 50
0
  1
サテン
  0
TEXT
  8
_0-3_
 62
    7
 10
804.83041738030101
 20
-104.51409794816065
 40
15.270385742187502
 41
1
 50
0
  1
TFP40-B145-002
  0
POINT
  8
_0-1_1_5
 62
    7
 10
620.68241314327963
 20
337.18405605210546
  0
LINE
  8
_0-1_1_5
  6
CONTINUOUS
 62
    7
 10
620.68241314327963
 20
337.18405605210546
 11
620.68241314327963
 21
299.54293093086397
  0
LINE
  8
_0-1_1_5
  6
CENTER2
 62
    7
 10
659.6824131432794
 20
286.27499245404738
 11
631.68241314327952
 21
286.27499245404738
  0
LINE
  8
_0-1_1_5
  6
CONTINUOUS
 62
    7
 10
645.68241314327929
 20
332.22403960028026
 11
643.93251114898339
 21
326.5991088413611
  0
LINE
  8
_0-1_1_5
  6
CONTINUOUS
 62
    7
 10
645.68241314327929
 20
332.22403960028026
 11
647.43231513757542
 21
326.5991088413611
  0
LINE
  8
_0-1_1_5
  6
CONTINUOUS
 62
    7
 10
647.43231513757542
 20
288.0250904597512
 11
647.43231513757542
 21
326.5991088413611
  0
LINE
  8
_0-1_1_5
  6
CONTINUOUS
 62
    7
 10
643.93251114898339
 20
288.0619127366781
 11
643.93251114898339
 21
326.59855491271333
  0
LINE
  8
_0-1_1_5
  6
CONTINUOUS
 62
    7
 10
647.31550488453138
 20
298.47445504676648
 11
643.8157008959397
 21
299.88068773649593
  0
LINE
  8
_0-1_1_5
  6
CONTINUOUS
 62
    7
 10
647.31550488453138
 20
299.88068773649593
 11
643.8157008959397
 21
301.28692042622606
  0
LINE
  8
_0-1_1_5
  6
CONTINUOUS
 62
    7
 10
647.31550488453138
 20
301.28692042622606
 11
643.8157008959397
 21
302.69315311595551
  0
LINE
  8
_0-1_1_5
  6
CONTINUOUS
 62
    7
 10
647.31550488453138
 20
302.69315311595551
 11
643.8157008959397
 21
304.09938580568542
  0
LINE
  8
_0-1_1_5
  6
CONTINUOUS
 62
    7
 10
647.31550488453138
 20
304.09938580568542
 11
643.8157008959397
 21
305.50561849541486
  0
LINE
  8
_0-1_1_5
  6
CONTINUOUS
 62
    7
 10
647.31550488453138
 20
305.50561849541486
 11
643.8157008959397
 21
306.911851185145
  0
LINE
  8
_0-1_1_5
  6
CONTINUOUS
 62
    7
 10
647.31550488453138
 20
311.13054925433414
 11
643.8157008959397
 21
312.53678194406393
  0
LINE
  8
_0-1_1_5
  6
CONTINUOUS
 62
    7
 10
647.31550488453138
 20
309.72431656460429
 11
643.8157008959397
 21
311.13054925433414
  0
LINE
  8
_0-1_1_5
  6
CONTINUOUS
 62
    7
 10
647.31550488453138
 20
312.53678194406393
 11
643.8157008959397
 21
313.9430146337935
  0
LINE
  8
_0-1_1_5
  6
CONTINUOUS
 62
    7
 10
647.31550488453138
 20
313.9430146337935
 11
643.8157008959397
 21
315.34924732352323
  0
LINE
  8
_0-1_1_5
  6
CONTINUOUS
 62
    7
 10
647.31550488453138
 20
315.34924732352323
 11
643.8157008959397
 21
316.75548001325291
  0
LINE
  8
_0-1_1_5
  6
CONTINUOUS
 62
    7
 10
647.31550488453138
 20
316.75548001325291
 11
643.8157008959397
 21
318.16171270298287
  0
LINE
  8
_0-1_1_5
  6
CONTINUOUS
 62
    7
 10
647.31550488453138
 20
318.16171270298287
 11
643.8157008959397
 21
319.56794539271249
  0
LINE
  8
_0-1_1_5
  6
CONTINUOUS
 62
    7
 10
647.31550488453138
 20
319.56794539271249
 11
643.8157008959397
 21
320.97417808244217
  0
LINE
  8
_0-1_1_5
  6
CONTINUOUS
 62
    7
 10
647.31550488453138
 20
306.911851185145
 11
643.8157008959397
 21
308.31808387487445
  0
LINE
  8
_0-1_1_5
  6
CONTINUOUS
 62
    7
 10
647.31550488453138
 20
320.97417808244217
 11
643.8157008959397
 21
322.38041077217213
  0
LINE
  8
_0-1_1_5
  6
CONTINUOUS
 62
    7
 10
647.31550488453138
 20
323.7866434619018
 11
643.8157008959397
 21
325.19287615163165
  0
LINE
  8
_0-1_1_5
  6
CONTINUOUS
 62
    7
 10
647.31550488453138
 20
325.19287615163165
 11
643.8157008959397
 21
326.5991088413611
  0
LINE
  8
_0-1_1_5
  6
CONTINUOUS
 62
    7
 10
647.31550488453138
 20
322.38041077217213
 11
643.8157008959397
 21
323.7866434619018
  0
LINE
  8
_0-1_1_5
  6
CONTINUOUS
 62
    7
 10
647.31550488453138
 20
308.31808387487445
 11
643.8157008959397
 21
309.72431656460429
  0
LINE
  8
_0-1_1_5
  6
CONTINUOUS
 62
    7
 10
647.31550488453138
 20
297.07445504676633
 11
643.8157008959397
 21
298.48068773649607
  0
LINE
  8
_0-1_1_5
  6
CONTINUOUS
 62
    7
 10
647.31550488453138
 20
295.67445504676647
 11
643.8157008959397
 21
297.0806877364962
  0
LINE
  8
_0-1_1_5
  6
CONTINUOUS
 62
    7
 10
647.31550488453138
 20
294.27445504676643
 11
643.8157008959397
 21
295.68068773649605
  0
LINE
  8
_0-1_1_5
  6
CENTER2
 62
    7
 10
647.31550488453138
 20
292.87445504676657
 11
643.8157008959397
 21
294.28068773649619
  0
LINE
  8
_0-1_1_5
  6
CENTER2
 62
    7
 10
647.31550488453138
 20
290.0744550467665
 11
643.8157008959397
 21
291.48068773649629
  0
LINE
  8
_0-1_1_5
  6
CENTER2
 62
    7
 10
647.31550488453138
 20
288.67445504676658
 11
643.8157008959397
 21
290.08068773649643
  0
LINE
  8
_0-1_1_5
  6
CENTER2
 62
    7
 10
645.4473383772887
 20
288.02509045975148
 11
643.8157008959397
 21
288.68068773649617
  0
LINE
  8
_0-1_1_5
  6
CENTER2
 62
    7
 10
642.1824131432794
 20
286.27499245404738
 11
643.93251114898339
 21
288.02509045975148
  0
LINE
  8
_0-1_1_5
  6
CENTER2
 62
    7
 10
649.18241314327929
 20
286.27499245404738
 11
647.43231513757542
 21
288.0250904597512
  0
LINE
  8
_0-1_1_5
  6
CENTER2
 62
    7
 10
643.93251114898339
 20
288.02509045975148
 11
647.43231513757542
 21
288.02509045975148
  0
LINE
  8
_0-1_1_5
  6
CENTER2
 62
    7
 10
659.6824131432794
 20
286.27499245404738
 11
659.6824131432794
 21
292.77499245404732
  0
LINE
  8
_0-1_1_5
  6
CENTER2
 62
    7
 10
631.68241314327952
 20
286.27499245404738
 11
631.68241314327952
 21
292.77499245404732
  0
POINT
  8
_0-1_1_5
 62
    7
 10
690.22831535776049
 20
292.77499245404732
  0
LINE
  8
_0-1_1_5
  6
CONTINUOUS
 62
    7
 10
690.22831535776049
 20
292.77499245404732
 11
674.18241314327929
 21
292.77499245404732
  0
LINE
  8
_0-1_1_5
  6
CONTINUOUS
 62
    7
 10
620.68241314327963
 20
282.77499245404732
 11
620.68241314327963
 21
292.77499245404732
  0
LINE
  8
_0-1_1_5
  6
CONTINUOUS
 62
    7
 10
670.68241314327929
 20
282.77499245404732
 11
670.68241314327929
 21
292.77499245404732
  0
LINE
  8
_0-1_1_5
  6
CONTINUOUS
 62
    7
 10
620.68241314327963
 20
292.77499245404732
 11
670.68241314327929
 21
292.77499245404732
  0
LINE
  8
_0-1_1_5
  6
CONTINUOUS
 62
    7
 10
620.68241314327963
 20
282.77499245404732
 11
670.68241314327929
 21
282.77499245404732
  0
POINT
  8
_0-1_1_5
 62
    7
 10
670.68241314327929
 20
337.18405605210546
  0
LINE
  8
_0-1_1_5
  6
CONTINUOUS
 62
    7
 10
670.68241314327929
 20
337.18405605210546
 11
670.68241314327929
 21
299.54293093086397
  0
LINE
  8
_0-1_1_5
  6
CONTINUOUS
 62
    7
 10
620.68241314327963
 20
337.18405605210546
 11
670.68241314327929
 21
337.18405605210546
  0
TEXT
  8
_0-1_1_5
 62
    4
 10
639.43241314327963
 20
339.68405605210546
 40
12.5
 41
1
 50
0
  1
50
  0
LINE
  8
_0-1_1_5
  6
CONTINUOUS
 62
    7
 10
637.68241314327929
 20
227.77499245404726
 11
637.68241314327929
 21
227.77499245404726
  0
LINE
  8
_0-1_1_5
  6
CONTINUOUS
 62
    7
 10
637.68241314327929
 20
227.77499245404726
 11
637.98629745419646
 21
227.85095368898624
  0
LINE
  8
_0-1_1_5
  6
CONTINUOUS
 62
    7
 10
637.98629745419646
 20
227.85095368898624
 11
638.28094839409925
 21
228.07652935011771
  0
LINE
  8
_0-1_1_5
  6
CONTINUOUS
 62
    7
 10
638.28094839409925
 20
228.07652935011771
 11
638.55741314327929
 21
228.44486543512508
  0
LINE
  8
_0-1_1_5
  6
CONTINUOUS
 62
    7
 10
638.55741314327929
 20
228.44486543512508
 11
638.80729146023077
 21
228.94477023845238
  0
LINE
  8
_0-1_1_5
  6
CONTINUOUS
 62
    7
 10
638.80729146023077
 20
228.94477023845238
 11
639.02299091873749
 21
229.56105440561456
  0
LINE
  8
_0-1_1_5
  6
CONTINUOUS
 62
    7
 10
639.02299091873749
 20
229.56105440561456
 11
639.19795759990211
 21
230.27499245404726
  0
LINE
  8
_0-1_1_5
  6
CONTINUOUS
 62
    7
 10
639.19795759990211
 20
230.27499245404726
 11
639.32687522965466
 21
231.06489173741892
  0
LINE
  8
_0-1_1_5
  6
CONTINUOUS
 62
    7
 10
639.32687522965466
 20
231.06489173741892
 11
639.40582671105062
 21
231.90675156571263
  0
LINE
  8
_0-1_1_5
  6
CONTINUOUS
 62
    7
 10
639.40582671105062
 20
231.90675156571263
 11
639.43241314327929
 21
232.77499245404726
  0
LINE
  8
_0-1_1_5
  6
CONTINUOUS
 62
    7
 10
639.43241314327929
 20
232.77499245404726
 11
639.40582671105062
 21
233.6432333423819
  0
LINE
  8
_0-1_1_5
  6
CONTINUOUS
 62
    7
 10
639.40582671105062
 20
233.6432333423819
 11
639.32687522965466
 21
234.48509317067561
  0
LINE
  8
_0-1_1_5
  6
CONTINUOUS
 62
    7
 10
639.32687522965466
 20
234.48509317067561
 11
639.19795759990211
 21
235.27499245404726
  0
LINE
  8
_0-1_1_5
  6
CONTINUOUS
 62
    7
 10
639.19795759990211
 20
235.27499245404726
 11
639.02299091873749
 21
235.98893050247995
  0
LINE
  8
_0-1_1_5
  6
CONTINUOUS
 62
    7
 10
639.02299091873749
 20
235.98893050247995
 11
638.80729146023077
 21
236.60521466964215
  0
LINE
  8
_0-1_1_5
  6
CONTINUOUS
 62
    7
 10
638.80729146023077
 20
236.60521466964215
 11
638.55741314327929
 21
237.10511947296945
  0
LINE
  8
_0-1_1_5
  6
CONTINUOUS
 62
    7
 10
638.55741314327929
 20
237.10511947296945
 11
638.28094839409925
 21
237.47345555797679
  0
LINE
  8
_0-1_1_5
  6
CONTINUOUS
 62
    7
 10
638.28094839409925
 20
237.47345555797679
 11
637.98629745419646
 21
237.69903121910829
  0
LINE
  8
_0-1_1_5
  6
CONTINUOUS
 62
    7
 10
637.98629745419646
 20
237.69903121910829
 11
637.68241314327929
 21
237.77499245404726
  0
LINE
  8
_0-1_1_5
  6
CONTINUOUS
 62
    7
 10
637.68241314327929
 20
237.77499245404726
 11
637.68241314327929
 21
237.77499245404726
  0
LINE
  8
_0-1_1_5
  6
CONTINUOUS
 62
    7
 10
637.68241314327929
 20
222.77499245404726
 11
653.68241314327952
 21
222.77499245404726
  0
LINE
  8
_0-1_1_5
  6
CONTINUOUS
 62
    7
 10
637.68241314327929
 20
222.77499245404726
 11
637.68241314327929
 21
227.77499245404726
  0
POINT
  8
_0-1_1_5
 62
    7
 10
690.22831535776049
 20
222.77499245404726
  0
LINE
  8
_0-1_1_5
  6
CONTINUOUS
 62
    7
 10
690.22831535776049
 20
222.77499245404726
 11
657.68241314327952
 21
222.77499245404726
  0
LINE
  8
_0-1_1_5
  6
CONTINUOUS
 62
    7
 10
463.94883877722862
 20
237.77499245404729
 11
463.94883877722862
 21
263.64873238799555
  0
POINT
  8
_0-1_1_5
 62
    7
 10
463.94883877722862
 20
237.77499245404729
  0
POINT
  8
_0-1_1_5
 62
    7
 10
463.94883877722862
 20
227.77499245404726
  0
LINE
  8
_0-2_ADD_LINE
  6
CONTINUOUS
 62
    7
 10
463.94883877722862
 20
237.77499245404729
 11
463.94883877722862
 21
227.77499245404726
  0
TEXT
  8
_0-1_1_5
 62
    4
 10
461.34659746251458
 20
251.00490196078425
 40
12.5
 41
1
 50
90
  1
10
  0
LINE
  8
_0-1_1_5
  6
CONTINUOUS
 62
    7
 10
653.68241314327952
 20
222.77499245404732
 11
653.68241314327952
 21
282.77499245404732
  0
LINE
  8
_0-1_1_5
  6
CONTINUOUS
 62
    7
 10
637.68241314327929
 20
237.77499245404729
 11
637.68241314327929
 21
282.77499245404732
  0
LINE
  8
_0-1_1_5
  6
CONTINUOUS
 62
    7
 10
690.22831535776049
 20
292.77499245404732
 11
690.22831535776049
 21
222.77499245404726
  0
TEXT
  8
_0-1_1_5
 62
    4
 10
687.72831535776049
 20
251.52499245404726
 40
12.5
 41
1
 50
90
  1
70
  0
LINE
  8
_0-1_1_5
  6
CONTINUOUS
 62
    7
 10
195.68241314327935
 20
332.22403960028032
 11
193.93251114898334
 21
326.59910884136116
  0
LINE
  8
_0-1_1_5
  6
CONTINUOUS
 62
    7
 10
195.68241314327935
 20
332.22403960028032
 11
197.43231513757536
 21
326.59910884136116
  0
LINE
  8
_0-1_1_5
  6
CONTINUOUS
 62
    7
 10
197.43231513757536
 20
288.0250904597512
 11
197.43231513757536
 21
326.59910884136116
  0
LINE
  8
_0-1_1_5
  6
CONTINUOUS
 62
    7
 10
193.93251114898334
 20
288.06191273667815
 11
193.93251114898334
 21
326.59855491271338
  0
LINE
  8
_0-1_1_5
  6
CONTINUOUS
 62
    7
 10
197.31550488453138
 20
298.47445504676648
 11
193.81570089593964
 21
299.88068773649593
  0
LINE
  8
_0-1_1_5
  6
CONTINUOUS
 62
    7
 10
197.31550488453138
 20
299.88068773649593
 11
193.81570089593964
 21
301.28692042622612
  0
LINE
  8
_0-1_1_5
  6
CONTINUOUS
 62
    7
 10
197.31550488453138
 20
301.28692042622612
 11
193.81570089593964
 21
302.69315311595557
  0
LINE
  8
_0-1_1_5
  6
CONTINUOUS
 62
    7
 10
197.31550488453138
 20
302.69315311595557
 11
193.81570089593964
 21
304.09938580568542
  0
LINE
  8
_0-1_1_5
  6
CONTINUOUS
 62
    7
 10
197.31550488453138
 20
304.09938580568542
 11
193.81570089593964
 21
305.50561849541486
  0
LINE
  8
_0-1_1_5
  6
CONTINUOUS
 62
    7
 10
197.31550488453138
 20
305.50561849541486
 11
193.81570089593964
 21
306.91185118514505
  0
LINE
  8
_0-1_1_5
  6
CONTINUOUS
 62
    7
 10
197.31550488453138
 20
311.13054925433426
 11
193.81570089593964
 21
312.53678194406399
  0
LINE
  8
_0-1_1_5
  6
CONTINUOUS
 62
    7
 10
197.31550488453138
 20
309.72431656460435
 11
193.81570089593964
 21
311.13054925433426
  0
LINE
  8
_0-1_1_5
  6
CONTINUOUS
 62
    7
 10
197.31550488453138
 20
312.53678194406399
 11
193.81570089593964
 21
313.94301463379355
  0
LINE
  8
_0-1_1_5
  6
CONTINUOUS
 62
    7
 10
197.31550488453138
 20
313.94301463379355
 11
193.81570089593964
 21
315.34924732352329
  0
LINE
  8
_0-1_1_5
  6
CONTINUOUS
 62
    7
 10
197.31550488453138
 20
315.34924732352329
 11
193.81570089593964
 21
316.75548001325296
  0
LINE
  8
_0-1_1_5
  6
CONTINUOUS
 62
    7
 10
197.31550488453138
 20
316.75548001325296
 11
193.81570089593964
 21
318.16171270298292
  0
LINE
  8
_0-1_1_5
  6
CONTINUOUS
 62
    7
 10
197.31550488453138
 20
318.16171270298292
 11
193.81570089593964
 21
319.56794539271255
  0
LINE
  8
_0-1_1_5
  6
CONTINUOUS
 62
    7
 10
197.31550488453138
 20
319.56794539271255
 11
193.81570089593964
 21
320.97417808244222
  0
LINE
  8
_0-1_1_5
  6
CONTINUOUS
 62
    7
 10
197.31550488453138
 20
306.91185118514505
 11
193.81570089593964
 21
308.3180838748745
  0
LINE
  8
_0-1_1_5
  6
CONTINUOUS
 62
    7
 10
197.31550488453138
 20
320.97417808244222
 11
193.81570089593964
 21
322.38041077217218
  0
LINE
  8
_0-1_1_5
  6
CONTINUOUS
 62
    7
 10
197.31550488453138
 20
323.78664346190186
 11
193.81570089593964
 21
325.19287615163171
  0
LINE
  8
_0-1_1_5
  6
CONTINUOUS
 62
    7
 10
197.31550488453138
 20
325.19287615163171
 11
193.81570089593964
 21
326.59910884136116
  0
LINE
  8
_0-1_1_5
  6
CONTINUOUS
 62
    7
 10
197.31550488453138
 20
322.38041077217218
 11
193.81570089593964
 21
323.78664346190186
  0
LINE
  8
_0-1_1_5
  6
CONTINUOUS
 62
    7
 10
197.31550488453138
 20
308.3180838748745
 11
193.81570089593964
 21
309.72431656460435
  0
LINE
  8
_0-1_1_5
  6
CONTINUOUS
 62
    7
 10
197.31550488453138
 20
297.07445504676633
 11
193.81570089593964
 21
298.48068773649607
  0
LINE
  8
_0-1_1_5
  6
CONTINUOUS
 62
    7
 10
197.31550488453138
 20
295.67445504676647
 11
193.81570089593964
 21
297.0806877364962
  0
LINE
  8
_0-1_1_5
  6
CONTINUOUS
 62
    7
 10
197.31550488453138
 20
294.27445504676649
 11
193.81570089593964
 21
295.68068773649605
  0
LINE
  8
_0-1_1_5
  6
CONTINUOUS
 62
    7
 10
197.31550488453138
 20
292.87445504676663
 11
193.81570089593964
 21
294.28068773649619
  0
LINE
  8
_0-1_1_5
  6
CENTER2
 62
    7
 10
197.31550488453138
 20
290.07445504676662
 11
193.81570089593964
 21
291.48068773649635
  0
LINE
  8
_0-1_1_5
  6
CENTER2
 62
    7
 10
197.31550488453138
 20
288.67445504676658
 11
193.81570089593964
 21
290.08068773649649
  0
LINE
  8
_0-1_1_5
  6
CENTER2
 62
    7
 10
195.4473383772887
 20
288.02509045975148
 11
193.81570089593964
 21
288.68068773649617
  0
LINE
  8
_0-1_1_5
  6
CENTER2
 62
    7
 10
192.1824131432794
 20
286.27499245404744
 11
193.93251114898334
 21
288.02509045975148
  0
LINE
  8
_0-1_1_5
  6
CENTER2
 62
    7
 10
199.18241314327929
 20
286.27499245404744
 11
197.43231513757536
 21
288.0250904597512
  0
LINE
  8
_0-1_1_5
  6
CENTER2
 62
    7
 10
193.93251114898334
 20
288.02509045975148
 11
197.43231513757536
 21
288.02509045975148
  0
LINE
  8
_0-1_1_5
  6
CENTER2
 62
    7
 10
209.6824131432794
 20
286.27499245404744
 11
181.68241314327929
 21
286.27499245404744
  0
LINE
  8
_0-1_1_5
  6
CENTER2
 62
    7
 10
181.68241314327929
 20
286.27499245404744
 11
181.68241314327929
 21
292.77499245404732
  0
LINE
  8
_0-1_1_5
  6
CENTER2
 62
    7
 10
209.6824131432794
 20
286.27499245404744
 11
209.6824131432794
 21
292.77499245404732
  0
LINE
  8
_0-1_1_5
  6
CONTINUOUS
 62
    7
 10
170.68241314327963
 20
282.77499245404732
 11
170.68241314327963
 21
292.77499245404732
  0
LINE
  8
_0-1_1_5
  6
CONTINUOUS
 62
    7
 10
220.68241314327935
 20
282.77499245404732
 11
220.68241314327935
 21
292.77499245404732
  0
LINE
  8
_0-1_1_5
  6
CONTINUOUS
 62
    7
 10
170.68241314327963
 20
292.77499245404732
 11
220.68241314327935
 21
292.77499245404732
  0
LINE
  8
_0-1_1_5
  6
CONTINUOUS
 62
    7
 10
170.68241314327963
 20
282.77499245404732
 11
220.68241314327935
 21
282.77499245404732
  0
LINE
  8
_0-1_1_5
  6
CONTINUOUS
 62
    7
 10
187.68241314327923
 20
222.77499245404732
 11
203.68241314327946
 21
222.77499245404732
  0
LINE
  8
_0-1_1_5
  6
CONTINUOUS
 62
    7
 10
203.68241314327946
 20
237.77499245404741
 11
203.68241314327946
 21
237.77499245404741
  0
LINE
  8
_0-1_1_5
  6
CONTINUOUS
 62
    7
 10
203.68241314327946
 20
237.77499245404741
 11
203.37852883236232
 21
237.69903121910846
  0
LINE
  8
_0-1_1_5
  6
CONTINUOUS
 62
    7
 10
203.37852883236232
 20
237.69903121910846
 11
203.08387789245955
 21
237.47345555797696
  0
LINE
  8
_0-1_1_5
  6
CONTINUOUS
 62
    7
 10
203.08387789245955
 20
237.47345555797696
 11
202.80741314327946
 21
237.10511947296959
  0
LINE
  8
_0-1_1_5
  6
CONTINUOUS
 62
    7
 10
202.80741314327946
 20
237.10511947296959
 11
202.55753482632801
 21
236.60521466964229
  0
LINE
  8
_0-1_1_5
  6
CONTINUOUS
 62
    7
 10
202.55753482632801
 20
236.60521466964229
 11
202.34183536782126
 21
235.98893050248012
  0
LINE
  8
_0-1_1_5
  6
CONTINUOUS
 62
    7
 10
202.34183536782126
 20
235.98893050248012
 11
202.1668686866567
 21
235.27499245404741
  0
LINE
  8
_0-1_1_5
  6
CONTINUOUS
 62
    7
 10
202.1668686866567
 20
235.27499245404741
 11
202.03795105690412
 21
234.48509317067575
  0
LINE
  8
_0-1_1_5
  6
CONTINUOUS
 62
    7
 10
202.03795105690412
 20
234.48509317067575
 11
201.9589995755081
 21
233.64323334238208
  0
LINE
  8
_0-1_1_5
  6
CONTINUOUS
 62
    7
 10
201.9589995755081
 20
233.64323334238208
 11
201.93241314327946
 21
232.77499245404741
  0
LINE
  8
_0-1_1_5
  6
CONTINUOUS
 62
    7
 10
201.93241314327946
 20
232.77499245404741
 11
201.9589995755081
 21
231.90675156571277
  0
LINE
  8
_0-1_1_5
  6
CONTINUOUS
 62
    7
 10
201.9589995755081
 20
231.90675156571277
 11
202.03795105690412
 21
231.06489173741906
  0
LINE
  8
_0-1_1_5
  6
CONTINUOUS
 62
    7
 10
202.03795105690412
 20
231.06489173741906
 11
202.1668686866567
 21
230.27499245404741
  0
LINE
  8
_0-1_1_5
  6
CONTINUOUS
 62
    7
 10
202.1668686866567
 20
230.27499245404741
 11
202.34183536782126
 21
229.56105440561473
  0
LINE
  8
_0-1_1_5
  6
CONTINUOUS
 62
    7
 10
202.34183536782126
 20
229.56105440561473
 11
202.55753482632801
 21
228.94477023845252
  0
LINE
  8
_0-1_1_5
  6
CONTINUOUS
 62
    7
 10
202.55753482632801
 20
228.94477023845252
 11
202.80741314327946
 21
228.44486543512522
  0
LINE
  8
_0-1_1_5
  6
CONTINUOUS
 62
    7
 10
202.80741314327946
 20
228.44486543512522
 11
203.08387789245953
 21
228.07652935011788
  0
LINE
  8
_0-1_1_5
  6
CONTINUOUS
 62
    7
 10
203.08387789245953
 20
228.07652935011788
 11
203.37852883236232
 21
227.85095368898638
  0
LINE
  8
_0-1_1_5
  6
CONTINUOUS
 62
    7
 10
203.37852883236232
 20
227.85095368898638
 11
203.68241314327946
 21
227.77499245404741
  0
LINE
  8
_0-1_1_5
  6
CONTINUOUS
 62
    7
 10
203.68241314327946
 20
227.77499245404741
 11
203.68241314327946
 21
227.77499245404741
  0
LINE
  8
_0-1_1_5
  6
CONTINUOUS
 62
    7
 10
203.68241314327946
 20
222.77499245404732
 11
203.68241314327946
 21
227.77499245404732
  0
LINE
  8
_0-1_1_5
  6
CONTINUOUS
 62
    7
 10
187.68241314327923
 20
222.77499245404732
 11
187.68241314327923
 21
282.77499245404732
  0
LINE
  8
_0-1_1_5
  6
CONTINUOUS
 62
    7
 10
203.68241314327946
 20
237.77499245404732
 11
203.68241314327946
 21
282.77499245404732
  0
LINE
  8
_0-1_1_5
  6
CONTINUOUS
 62
    7
 10
203.68241314327946
 20
237.77499245404738
 11
637.68241314327929
 21
237.77499245404729
  0
LINE
  8
_0-1_1_5
  6
CONTINUOUS
 62
    7
 10
203.68241314327946
 20
227.77499245404738
 11
637.68241314327929
 21
227.77499245404726
  0
TEXT
  8
_0-2_ADD_LINE
 62
    4
 10
638.14281124209083
 20
352.87683425795581
 40
12.5
 41
1
 50
180
  1
φ
  0
TEXT
  8
_0-2_ADD_LINE
 62
    4
 10
461.60462786995168
 20
238.5245692297824
 40
12.5
 41
1
 50
90
  1
φ
  0
CIRCLE
  8
_0-1_1_5
  6
CONTINUOUS
 62
    7
 10
195.68241314327935
 20
466.8691162958587
 40
8
  0
CIRCLE
  8
_0-1_1_5
  6
CONTINUOUS
 62
    7
 10
645.68241314327929
 20
466.8691162958587
 40
8
  0
LINE
  8
_0-1_1_5
  6
CENTER2
 62
    7
 10
650.68241314327929
 20
476.76322610363104
 11
640.68241314327929
 21
476.76322610363104
  0
LINE
  8
_0-1_1_5
  6
CENTER2
 62
    7
 10
645.68241314327929
 20
480.76322610363104
 11
645.68241314327929
 21
472.7632261036311
  0
LINE
  8
_0-1_1_5
  6
CENTER2
 62
    7
 10
649.68241314327929
 20
476.76322610363104
 11
649.68241314327929
 21
476.76322610363104
  0
LINE
  8
_0-1_1_5
  6
CENTER2
 62
    7
 10
649.68241314327929
 20
476.76322610363104
 11
649.62164415532811
 21
477.31890027216519
  0
LINE
  8
_0-1_1_5
  6
CENTER2
 62
    7
 10
649.62164415532811
 20
477.31890027216519
 11
649.44118362642291
 21
477.85769056227321
  0
LINE
  8
_0-1_1_5
  6
CENTER2
 62
    7
 10
649.44118362642291
 20
477.85769056227321
 11
649.14651475841708
 21
478.36322610363106
  0
LINE
  8
_0-1_1_5
  6
CENTER2
 62
    7
 10
649.14651475841708
 20
478.36322610363106
 11
648.74659091575518
 21
478.82014645462795
  0
LINE
  8
_0-1_1_5
  6
CENTER2
 62
    7
 10
648.74659091575518
 20
478.82014645462795
 11
648.25356358202544
 21
479.21456832161175
  0
LINE
  8
_0-1_1_5
  6
CENTER2
 62
    7
 10
648.25356358202544
 20
479.21456832161175
 11
647.68241314327929
 21
479.53450739574123
  0
LINE
  8
_0-1_1_5
  6
CENTER2
 62
    7
 10
647.68241314327929
 20
479.53450739574123
 11
647.05049371658197
 21
479.77024249014596
  0
LINE
  8
_0-1_1_5
  6
CENTER2
 62
    7
 10
647.05049371658197
 20
479.77024249014596
 11
646.37700585394703
 21
479.91461091327011
  0
LINE
  8
_0-1_1_5
  6
CENTER2
 62
    7
 10
646.37700585394703
 20
479.91461091327011
 11
645.68241314327929
 21
479.96322610363103
  0
LINE
  8
_0-1_1_5
  6
CENTER2
 62
    7
 10
645.68241314327929
 20
479.96322610363103
 11
644.98782043261156
 21
479.91461091327011
  0
LINE
  8
_0-1_1_5
  6
CENTER2
 62
    7
 10
644.98782043261156
 20
479.91461091327011
 11
644.31433256997661
 21
479.77024249014596
  0
LINE
  8
_0-1_1_5
  6
CENTER2
 62
    7
 10
644.31433256997661
 20
479.77024249014596
 11
643.68241314327929
 21
479.53450739574123
  0
LINE
  8
_0-1_1_5
  6
CENTER2
 62
    7
 10
643.68241314327929
 20
479.53450739574123
 11
643.11126270453315
 21
479.21456832161175
  0
LINE
  8
_0-1_1_5
  6
CENTER2
 62
    7
 10
643.11126270453315
 20
479.21456832161175
 11
642.6182353708034
 21
478.82014645462795
  0
LINE
  8
_0-1_1_5
  6
CENTER2
 62
    7
 10
642.6182353708034
 20
478.82014645462795
 11
642.2183115281415
 21
478.36322610363106
  0
LINE
  8
_0-1_1_5
  6
CENTER2
 62
    7
 10
642.2183115281415
 20
478.36322610363106
 11
641.92364266013567
 21
477.85769056227321
  0
LINE
  8
_0-1_1_5
  6
CENTER2
 62
    7
 10
641.92364266013567
 20
477.85769056227321
 11
641.74318213123047
 21
477.31890027216519
  0
LINE
  8
_0-1_1_5
  6
CENTER2
 62
    7
 10
641.74318213123047
 20
477.31890027216519
 11
641.68241314327929
 21
476.76322610363104
  0
LINE
  8
_0-1_1_5
  6
CENTER2
 62
    7
 10
641.68241314327929
 20
476.76322610363104
 11
641.74318213123047
 21
476.20755193509689
  0
LINE
  8
_0-1_1_5
  6
CENTER2
 62
    7
 10
641.74318213123047
 20
476.20755193509689
 11
641.92364266013567
 21
475.66876164498893
  0
LINE
  8
_0-1_1_5
  6
CENTER2
 62
    7
 10
641.92364266013567
 20
475.66876164498893
 11
642.2183115281415
 21
475.16322610363102
  0
LINE
  8
_0-1_1_5
  6
CENTER2
 62
    7
 10
642.2183115281415
 20
475.16322610363102
 11
642.6182353708034
 21
474.70630575263414
  0
LINE
  8
_0-1_1_5
  6
CENTER2
 62
    7
 10
642.6182353708034
 20
474.70630575263414
 11
643.11126270453315
 21
474.31188388565033
  0
LINE
  8
_0-1_1_5
  6
CENTER2
 62
    7
 10
643.11126270453315
 20
474.31188388565033
 11
643.68241314327929
 21
473.99194481152085
  0
LINE
  8
_0-1_1_5
  6
CENTER2
 62
    7
 10
643.68241314327929
 20
473.99194481152085
 11
644.31433256997661
 21
473.75620971711612
  0
LINE
  8
_0-1_1_5
  6
CENTER2
 62
    7
 10
644.31433256997661
 20
473.75620971711612
 11
644.98782043261156
 21
473.61184129399197
  0
LINE
  8
_0-1_1_5
  6
CENTER2
 62
    7
 10
644.98782043261156
 20
473.61184129399197
 11
645.68241314327929
 21
473.56322610363105
  0
LINE
  8
_0-1_1_5
  6
CENTER2
 62
    7
 10
645.68241314327929
 20
473.56322610363105
 11
646.37700585394703
 21
473.61184129399197
  0
LINE
  8
_0-1_1_5
  6
CENTER2
 62
    7
 10
646.37700585394703
 20
473.61184129399197
 11
647.05049371658197
 21
473.75620971711612
  0
LINE
  8
_0-1_1_5
  6
CENTER2
 62
    7
 10
647.05049371658197
 20
473.75620971711612
 11
647.68241314327929
 21
473.99194481152085
  0
LINE
  8
_0-1_1_5
  6
CENTER2
 62
    7
 10
647.68241314327929
 20
473.99194481152085
 11
648.25356358202544
 21
474.31188388565033
  0
LINE
  8
_0-1_1_5
  6
CENTER2
 62
    7
 10
648.25356358202544
 20
474.31188388565033
 11
648.74659091575518
 21
474.70630575263408
  0
LINE
  8
_0-1_1_5
  6
CENTER2
 62
    7
 10
648.74659091575518
 20
474.70630575263408
 11
649.14651475841708
 21
475.16322610363102
  0
LINE
  8
_0-1_1_5
  6
CENTER2
 62
    7
 10
649.14651475841708
 20
475.16322610363102
 11
649.44118362642291
 21
475.66876164498888
  0
LINE
  8
_0-1_1_5
  6
CENTER2
 62
    7
 10
649.44118362642291
 20
475.66876164498888
 11
649.62164415532811
 21
476.20755193509683
  0
LINE
  8
_0-1_1_5
  6
CENTER2
 62
    7
 10
649.62164415532811
 20
476.20755193509683
 11
649.68241314327929
 21
476.76322610363104
  0
LINE
  8
_0-1_1_5
  6
CENTER2
 62
    7
 10
649.68241314327929
 20
476.76322610363104
 11
649.68241314327929
 21
476.76322610363104
  0
LINE
  8
_0-1_1_5
  6
CENTER2
 62
    7
 10
649.68241314327929
 20
456.97500648808642
 11
649.68241314327929
 21
456.97500648808642
  0
LINE
  8
_0-1_1_5
  6
CENTER2
 62
    7
 10
649.68241314327929
 20
456.97500648808642
 11
649.62164415532811
 21
457.53068065662058
  0
LINE
  8
_0-1_1_5
  6
CENTER2
 62
    7
 10
649.62164415532811
 20
457.53068065662058
 11
649.44118362642291
 21
458.06947094672859
  0
LINE
  8
_0-1_1_5
  6
CENTER2
 62
    7
 10
649.44118362642291
 20
458.06947094672859
 11
649.14651475841708
 21
458.57500648808644
  0
LINE
  8
_0-1_1_5
  6
CENTER2
 62
    7
 10
649.14651475841708
 20
458.57500648808644
 11
648.74659091575518
 21
459.03192683908333
  0
LINE
  8
_0-1_1_5
  6
CENTER2
 62
    7
 10
648.74659091575518
 20
459.03192683908333
 11
648.25356358202544
 21
459.42634870606713
  0
LINE
  8
_0-1_1_5
  6
CENTER2
 62
    7
 10
648.25356358202544
 20
459.42634870606713
 11
647.68241314327929
 21
459.74628778019661
  0
LINE
  8
_0-1_1_5
  6
CENTER2
 62
    7
 10
647.68241314327929
 20
459.74628778019661
 11
647.05049371658197
 21
459.98202287460134
  0
LINE
  8
_0-1_1_5
  6
CENTER2
 62
    7
 10
647.05049371658197
 20
459.98202287460134
 11
646.37700585394703
 21
460.12639129772549
  0
LINE
  8
_0-1_1_5
  6
CENTER2
 62
    7
 10
646.37700585394703
 20
460.12639129772549
 11
645.68241314327929
 21
460.17500648808641
  0
LINE
  8
_0-1_1_5
  6
CENTER2
 62
    7
 10
645.68241314327929
 20
460.17500648808641
 11
644.98782043261156
 21
460.12639129772549
  0
LINE
  8
_0-1_1_5
  6
CENTER2
 62
    7
 10
644.98782043261156
 20
460.12639129772549
 11
644.31433256997661
 21
459.98202287460134
  0
LINE
  8
_0-1_1_5
  6
CENTER2
 62
    7
 10
644.31433256997661
 20
459.98202287460134
 11
643.68241314327929
 21
459.74628778019661
  0
LINE
  8
_0-1_1_5
  6
CENTER2
 62
    7
 10
643.68241314327929
 20
459.74628778019661
 11
643.11126270453315
 21
459.42634870606713
  0
LINE
  8
_0-1_1_5
  6
CENTER2
 62
    7
 10
643.11126270453315
 20
459.42634870606713
 11
642.6182353708034
 21
459.03192683908333
  0
LINE
  8
_0-1_1_5
  6
CENTER2
 62
    7
 10
642.6182353708034
 20
459.03192683908333
 11
642.2183115281415
 21
458.57500648808644
  0
LINE
  8
_0-1_1_5
  6
CENTER2
 62
    7
 10
642.2183115281415
 20
458.57500648808644
 11
641.92364266013567
 21
458.06947094672859
  0
LINE
  8
_0-1_1_5
  6
CENTER2
 62
    7
 10
641.92364266013567
 20
458.06947094672859
 11
641.74318213123047
 21
457.53068065662058
  0
LINE
  8
_0-1_1_5
  6
CENTER2
 62
    7
 10
641.74318213123047
 20
457.53068065662058
 11
641.68241314327929
 21
456.97500648808642
  0
LINE
  8
_0-1_1_5
  6
CENTER2
 62
    7
 10
641.68241314327929
 20
456.97500648808642
 11
641.74318213123047
 21
456.41933231955227
  0
LINE
  8
_0-1_1_5
  6
CENTER2
 62
    7
 10
641.74318213123047
 20
456.41933231955227
 11
641.92364266013567
 21
455.88054202944431
  0
LINE
  8
_0-1_1_5
  6
CENTER2
 62
    7
 10
641.92364266013567
 20
455.88054202944431
 11
642.2183115281415
 21
455.3750064880864
  0
LINE
  8
_0-1_1_5
  6
CENTER2
 62
    7
 10
642.2183115281415
 20
455.3750064880864
 11
642.6182353708034
 21
454.91808613708952
  0
LINE
  8
_0-1_1_5
  6
CENTER2
 62
    7
 10
642.6182353708034
 20
454.91808613708952
 11
643.11126270453315
 21
454.52366427010571
  0
LINE
  8
_0-1_1_5
  6
CENTER2
 62
    7
 10
643.11126270453315
 20
454.52366427010571
 11
643.68241314327929
 21
454.20372519597623
  0
LINE
  8
_0-1_1_5
  6
CENTER2
 62
    7
 10
643.68241314327929
 20
454.20372519597623
 11
644.31433256997661
 21
453.9679901015715
  0
LINE
  8
_0-1_1_5
  6
CENTER2
 62
    7
 10
644.31433256997661
 20
453.9679901015715
 11
644.98782043261156
 21
453.82362167844735
  0
LINE
  8
_0-1_1_5
  6
CENTER2
 62
    7
 10
644.98782043261156
 20
453.82362167844735
 11
645.68241314327929
 21
453.77500648808643
  0
LINE
  8
_0-1_1_5
  6
CENTER2
 62
    7
 10
645.68241314327929
 20
453.77500648808643
 11
646.37700585394703
 21
453.82362167844735
  0
LINE
  8
_0-1_1_5
  6
CENTER2
 62
    7
 10
646.37700585394703
 20
453.82362167844735
 11
647.05049371658197
 21
453.9679901015715
  0
LINE
  8
_0-1_1_5
  6
CENTER2
 62
    7
 10
647.05049371658197
 20
453.9679901015715
 11
647.68241314327929
 21
454.20372519597623
  0
LINE
  8
_0-1_1_5
  6
CENTER2
 62
    7
 10
647.68241314327929
 20
454.20372519597623
 11
648.25356358202544
 21
454.52366427010571
  0
LINE
  8
_0-1_1_5
  6
CENTER2
 62
    7
 10
648.25356358202544
 20
454.52366427010571
 11
648.74659091575518
 21
454.91808613708946
  0
LINE
  8
_0-1_1_5
  6
CENTER2
 62
    7
 10
648.74659091575518
 20
454.91808613708946
 11
649.14651475841708
 21
455.3750064880864
  0
LINE
  8
_0-1_1_5
  6
CENTER2
 62
    7
 10
649.14651475841708
 20
455.3750064880864
 11
649.44118362642291
 21
455.88054202944426
  0
LINE
  8
_0-1_1_5
  6
CENTER2
 62
    7
 10
649.44118362642291
 20
455.88054202944426
 11
649.62164415532811
 21
456.41933231955221
  0
LINE
  8
_0-1_1_5
  6
CENTER2
 62
    7
 10
649.62164415532811
 20
456.41933231955221
 11
649.68241314327929
 21
456.97500648808642
  0
LINE
  8
_0-1_1_5
  6
CENTER2
 62
    7
 10
649.68241314327929
 20
456.97500648808642
 11
649.68241314327929
 21
456.97500648808642
  0
LINE
  8
_0-1_1_5
  6
CENTER2
 62
    7
 10
650.68241314327929
 20
456.97500648808642
 11
640.68241314327929
 21
456.97500648808642
  0
LINE
  8
_0-1_1_5
  6
CENTER2
 62
    7
 10
645.68241314327929
 20
452.97500648808642
 11
645.68241314327929
 21
460.97500648808648
  0
LINE
  8
_0-1_1_5
  6
CENTER2
 62
    7
 10
634.6824131432794
 20
486.8691162958587
 11
656.68241314327952
 21
486.8691162958587
  0
LINE
  8
_0-1_1_5
  6
CENTER2
 62
    7
 10
656.68241314327952
 20
486.8691162958587
 11
659.6824131432794
 21
483.86911629585876
  0
LINE
  8
_0-1_1_5
  6
CENTER2
 62
    7
 10
659.6824131432794
 20
449.86911629585876
 11
659.6824131432794
 21
483.86911629585876
  0
LINE
  8
_0-1_1_5
  6
CENTER2
 62
    7
 10
659.6824131432794
 20
449.86911629585876
 11
656.68241314327952
 21
446.8691162958587
  0
LINE
  8
_0-1_1_5
  6
CENTER2
 62
    7
 10
634.6824131432794
 20
446.8691162958587
 11
656.68241314327952
 21
446.8691162958587
  0
LINE
  8
_0-1_1_5
  6
CENTER2
 62
    7
 10
634.6824131432794
 20
446.8691162958587
 11
631.68241314327952
 21
449.86911629585876
  0
LINE
  8
_0-1_1_5
  6
CENTER2
 62
    7
 10
631.68241314327952
 20
483.86911629585876
 11
631.68241314327952
 21
449.86911629585876
  0
LINE
  8
_0-1_1_5
  6
CENTER2
 62
    7
 10
631.68241314327952
 20
483.86911629585876
 11
634.6824131432794
 21
486.8691162958587
  0
POINT
  8
_0-1_1_5
 62
    7
 10
645.68241314327929
 20
510.75860632186743
  0
LINE
  8
_0-1_1_5
  6
CONTINUOUS
 62
    7
 10
645.68241314327929
 20
510.75860632186743
 11
645.68241314327929
 21
492.3221368747287
  0
ARC
  8
_0-1_1_5
  6
CONTINUOUS
 62
    7
 10
645.68241314327929
 20
466.8691162958587
 40
25
 50
191.53695903281547
 51
168.46304096718453
  0
LINE
  8
_0-1_1_5
  6
CENTER2
 62
    7
 10
200.68241314327935
 20
476.76322610363104
 11
190.68241314327935
 21
476.76322610363104
  0
LINE
  8
_0-1_1_5
  6
CENTER2
 62
    7
 10
195.68241314327935
 20
480.76322610363104
 11
195.68241314327935
 21
472.7632261036311
  0
LINE
  8
_0-1_1_5
  6
CENTER2
 62
    7
 10
199.68241314327935
 20
476.76322610363104
 11
199.68241314327935
 21
476.76322610363104
  0
LINE
  8
_0-1_1_5
  6
CENTER2
 62
    7
 10
199.68241314327935
 20
476.76322610363104
 11
199.62164415532817
 21
477.31890027216519
  0
LINE
  8
_0-1_1_5
  6
CENTER2
 62
    7
 10
199.62164415532817
 20
477.31890027216519
 11
199.44118362642297
 21
477.85769056227321
  0
LINE
  8
_0-1_1_5
  6
CENTER2
 62
    7
 10
199.44118362642297
 20
477.85769056227321
 11
199.14651475841711
 21
478.36322610363106
  0
LINE
  8
_0-1_1_5
  6
CENTER2
 62
    7
 10
199.14651475841711
 20
478.36322610363106
 11
198.74659091575526
 21
478.82014645462795
  0
LINE
  8
_0-1_1_5
  6
CENTER2
 62
    7
 10
198.74659091575526
 20
478.82014645462795
 11
198.25356358202549
 21
479.21456832161175
  0
LINE
  8
_0-1_1_5
  6
CENTER2
 62
    7
 10
198.25356358202549
 20
479.21456832161175
 11
197.68241314327935
 21
479.53450739574123
  0
LINE
  8
_0-1_1_5
  6
CENTER2
 62
    7
 10
197.68241314327935
 20
479.53450739574123
 11
197.05049371658203
 21
479.77024249014596
  0
LINE
  8
_0-1_1_5
  6
CENTER2
 62
    7
 10
197.05049371658203
 20
479.77024249014596
 11
196.37700585394708
 21
479.91461091327011
  0
LINE
  8
_0-1_1_5
  6
CENTER2
 62
    7
 10
196.37700585394708
 20
479.91461091327011
 11
195.68241314327935
 21
479.96322610363103
  0
LINE
  8
_0-1_1_5
  6
CENTER2
 62
    7
 10
195.68241314327935
 20
479.96322610363103
 11
194.98782043261161
 21
479.91461091327011
  0
LINE
  8
_0-1_1_5
  6
CENTER2
 62
    7
 10
194.98782043261161
 20
479.91461091327011
 11
194.31433256997667
 21
479.77024249014596
  0
LINE
  8
_0-1_1_5
  6
CENTER2
 62
    7
 10
194.31433256997667
 20
479.77024249014596
 11
193.68241314327935
 21
479.53450739574123
  0
LINE
  8
_0-1_1_5
  6
CENTER2
 62
    7
 10
193.68241314327935
 20
479.53450739574123
 11
193.1112627045332
 21
479.21456832161175
  0
LINE
  8
_0-1_1_5
  6
CENTER2
 62
    7
 10
193.1112627045332
 20
479.21456832161175
 11
192.61823537080343
 21
478.82014645462795
  0
LINE
  8
_0-1_1_5
  6
CENTER2
 62
    7
 10
192.61823537080343
 20
478.82014645462795
 11
192.21831152814158
 21
478.36322610363106
  0
LINE
  8
_0-1_1_5
  6
CENTER2
 62
    7
 10
192.21831152814158
 20
478.36322610363106
 11
191.92364266013573
 21
477.85769056227321
  0
LINE
  8
_0-1_1_5
  6
CENTER2
 62
    7
 10
191.92364266013573
 20
477.85769056227321
 11
191.74318213123053
 21
477.31890027216519
  0
LINE
  8
_0-1_1_5
  6
CENTER2
 62
    7
 10
191.74318213123053
 20
477.31890027216519
 11
191.68241314327935
 21
476.76322610363104
  0
LINE
  8
_0-1_1_5
  6
CENTER2
 62
    7
 10
191.68241314327935
 20
476.76322610363104
 11
191.74318213123053
 21
476.20755193509689
  0
LINE
  8
_0-1_1_5
  6
CENTER2
 62
    7
 10
191.74318213123053
 20
476.20755193509689
 11
191.9236426601357
 21
475.66876164498893
  0
LINE
  8
_0-1_1_5
  6
CENTER2
 62
    7
 10
191.9236426601357
 20
475.66876164498893
 11
192.21831152814158
 21
475.16322610363102
  0
LINE
  8
_0-1_1_5
  6
CENTER2
 62
    7
 10
192.21831152814158
 20
475.16322610363102
 11
192.61823537080343
 21
474.70630575263414
  0
LINE
  8
_0-1_1_5
  6
CENTER2
 62
    7
 10
192.61823537080343
 20
474.70630575263414
 11
193.11126270453317
 21
474.31188388565033
  0
LINE
  8
_0-1_1_5
  6
CENTER2
 62
    7
 10
193.11126270453317
 20
474.31188388565033
 11
193.68241314327935
 21
473.99194481152085
  0
LINE
  8
_0-1_1_5
  6
CENTER2
 62
    7
 10
193.68241314327935
 20
473.99194481152085
 11
194.31433256997667
 21
473.75620971711612
  0
LINE
  8
_0-1_1_5
  6
CENTER2
 62
    7
 10
194.31433256997667
 20
473.75620971711612
 11
194.98782043261161
 21
473.61184129399197
  0
LINE
  8
_0-1_1_5
  6
CENTER2
 62
    7
 10
194.98782043261161
 20
473.61184129399197
 11
195.68241314327935
 21
473.56322610363105
  0
LINE
  8
_0-1_1_5
  6
CENTER2
 62
    7
 10
195.68241314327935
 20
473.56322610363105
 11
196.37700585394705
 21
473.61184129399197
  0
LINE
  8
_0-1_1_5
  6
CENTER2
 62
    7
 10
196.37700585394705
 20
473.61184129399197
 11
197.050493716582
 21
473.75620971711612
  0
LINE
  8
_0-1_1_5
  6
CENTER2
 62
    7
 10
197.050493716582
 20
473.75620971711612
 11
197.68241314327935
 21
473.99194481152085
  0
LINE
  8
_0-1_1_5
  6
CENTER2
 62
    7
 10
197.68241314327935
 20
473.99194481152085
 11
198.25356358202549
 21
474.31188388565033
  0
LINE
  8
_0-1_1_5
  6
CENTER2
 62
    7
 10
198.25356358202549
 20
474.31188388565033
 11
198.74659091575526
 21
474.70630575263408
  0
LINE
  8
_0-1_1_5
  6
CENTER2
 62
    7
 10
198.74659091575526
 20
474.70630575263408
 11
199.14651475841708
 21
475.16322610363102
  0
LINE
  8
_0-1_1_5
  6
CENTER2
 62
    7
 10
199.14651475841708
 20
475.16322610363102
 11
199.44118362642297
 21
475.66876164498888
  0
LINE
  8
_0-1_1_5
  6
CENTER2
 62
    7
 10
199.44118362642297
 20
475.66876164498888
 11
199.62164415532817
 21
476.20755193509683
  0
LINE
  8
_0-1_1_5
  6
CENTER2
 62
    7
 10
199.62164415532817
 20
476.20755193509683
 11
199.68241314327935
 21
476.76322610363104
  0
LINE
  8
_0-1_1_5
  6
CENTER2
 62
    7
 10
199.68241314327935
 20
476.76322610363104
 11
199.68241314327935
 21
476.76322610363104
  0
LINE
  8
_0-1_1_5
  6
CENTER2
 62
    7
 10
199.68241314327935
 20
456.97500648808642
 11
199.68241314327935
 21
456.97500648808642
  0
LINE
  8
_0-1_1_5
  6
CENTER2
 62
    7
 10
199.68241314327935
 20
456.97500648808642
 11
199.62164415532817
 21
457.53068065662058
  0
LINE
  8
_0-1_1_5
  6
CENTER2
 62
    7
 10
199.62164415532817
 20
457.53068065662058
 11
199.44118362642297
 21
458.06947094672859
  0
LINE
  8
_0-1_1_5
  6
CENTER2
 62
    7
 10
199.44118362642297
 20
458.06947094672859
 11
199.14651475841711
 21
458.57500648808644
  0
LINE
  8
_0-1_1_5
  6
CENTER2
 62
    7
 10
199.14651475841711
 20
458.57500648808644
 11
198.74659091575526
 21
459.03192683908333
  0
LINE
  8
_0-1_1_5
  6
CENTER2
 62
    7
 10
198.74659091575526
 20
459.03192683908333
 11
198.25356358202549
 21
459.42634870606713
  0
LINE
  8
_0-1_1_5
  6
CENTER2
 62
    7
 10
198.25356358202549
 20
459.42634870606713
 11
197.68241314327935
 21
459.74628778019661
  0
LINE
  8
_0-1_1_5
  6
CENTER2
 62
    7
 10
197.68241314327935
 20
459.74628778019661
 11
197.05049371658203
 21
459.98202287460134
  0
LINE
  8
_0-1_1_5
  6
CENTER2
 62
    7
 10
197.05049371658203
 20
459.98202287460134
 11
196.37700585394708
 21
460.12639129772549
  0
LINE
  8
_0-1_1_5
  6
CENTER2
 62
    7
 10
196.37700585394708
 20
460.12639129772549
 11
195.68241314327935
 21
460.17500648808641
  0
LINE
  8
_0-1_1_5
  6
CENTER2
 62
    7
 10
195.68241314327935
 20
460.17500648808641
 11
194.98782043261161
 21
460.12639129772549
  0
LINE
  8
_0-1_1_5
  6
CENTER2
 62
    7
 10
194.98782043261161
 20
460.12639129772549
 11
194.31433256997667
 21
459.98202287460134
  0
LINE
  8
_0-1_1_5
  6
CENTER2
 62
    7
 10
194.31433256997667
 20
459.98202287460134
 11
193.68241314327935
 21
459.74628778019661
  0
LINE
  8
_0-1_1_5
  6
CENTER2
 62
    7
 10
193.68241314327935
 20
459.74628778019661
 11
193.1112627045332
 21
459.42634870606713
  0
LINE
  8
_0-1_1_5
  6
CENTER2
 62
    7
 10
193.1112627045332
 20
459.42634870606713
 11
192.61823537080343
 21
459.03192683908333
  0
LINE
  8
_0-1_1_5
  6
CENTER2
 62
    7
 10
192.61823537080343
 20
459.03192683908333
 11
192.21831152814158
 21
458.57500648808644
  0
LINE
  8
_0-1_1_5
  6
CENTER2
 62
    7
 10
192.21831152814158
 20
458.57500648808644
 11
191.92364266013573
 21
458.06947094672859
  0
LINE
  8
_0-1_1_5
  6
CENTER2
 62
    7
 10
191.92364266013573
 20
458.06947094672859
 11
191.74318213123053
 21
457.53068065662058
  0
LINE
  8
_0-1_1_5
  6
CENTER2
 62
    7
 10
191.74318213123053
 20
457.53068065662058
 11
191.68241314327935
 21
456.97500648808642
  0
LINE
  8
_0-1_1_5
  6
CENTER2
 62
    7
 10
191.68241314327935
 20
456.97500648808642
 11
191.74318213123053
 21
456.41933231955227
  0
LINE
  8
_0-1_1_5
  6
CENTER2
 62
    7
 10
191.74318213123053
 20
456.41933231955227
 11
191.9236426601357
 21
455.88054202944431
  0
LINE
  8
_0-1_1_5
  6
CENTER2
 62
    7
 10
191.9236426601357
 20
455.88054202944431
 11
192.21831152814158
 21
455.3750064880864
  0
LINE
  8
_0-1_1_5
  6
CENTER2
 62
    7
 10
192.21831152814158
 20
455.3750064880864
 11
192.61823537080343
 21
454.91808613708952
  0
LINE
  8
_0-1_1_5
  6
CENTER2
 62
    7
 10
192.61823537080343
 20
454.91808613708952
 11
193.11126270453317
 21
454.52366427010571
  0
LINE
  8
_0-1_1_5
  6
CENTER2
 62
    7
 10
193.11126270453317
 20
454.52366427010571
 11
193.68241314327935
 21
454.20372519597623
  0
LINE
  8
_0-1_1_5
  6
CENTER2
 62
    7
 10
193.68241314327935
 20
454.20372519597623
 11
194.31433256997667
 21
453.9679901015715
  0
LINE
  8
_0-1_1_5
  6
CENTER2
 62
    7
 10
194.31433256997667
 20
453.9679901015715
 11
194.98782043261161
 21
453.82362167844735
  0
LINE
  8
_0-1_1_5
  6
CENTER2
 62
    7
 10
194.98782043261161
 20
453.82362167844735
 11
195.68241314327935
 21
453.77500648808643
  0
LINE
  8
_0-1_1_5
  6
CENTER2
 62
    7
 10
195.68241314327935
 20
453.77500648808643
 11
196.37700585394705
 21
453.82362167844735
  0
LINE
  8
_0-1_1_5
  6
CENTER2
 62
    7
 10
196.37700585394705
 20
453.82362167844735
 11
197.050493716582
 21
453.9679901015715
  0
LINE
  8
_0-1_1_5
  6
CENTER2
 62
    7
 10
197.050493716582
 20
453.9679901015715
 11
197.68241314327935
 21
454.20372519597623
  0
LINE
  8
_0-1_1_5
  6
CENTER2
 62
    7
 10
197.68241314327935
 20
454.20372519597623
 11
198.25356358202549
 21
454.52366427010571
  0
LINE
  8
_0-1_1_5
  6
CENTER2
 62
    7
 10
198.25356358202549
 20
454.52366427010571
 11
198.74659091575526
 21
454.91808613708946
  0
LINE
  8
_0-1_1_5
  6
CENTER2
 62
    7
 10
198.74659091575526
 20
454.91808613708946
 11
199.14651475841708
 21
455.3750064880864
  0
LINE
  8
_0-1_1_5
  6
CENTER2
 62
    7
 10
199.14651475841708
 20
455.3750064880864
 11
199.44118362642297
 21
455.88054202944426
  0
LINE
  8
_0-1_1_5
  6
CENTER2
 62
    7
 10
199.44118362642297
 20
455.88054202944426
 11
199.62164415532817
 21
456.41933231955221
  0
LINE
  8
_0-1_1_5
  6
CENTER2
 62
    7
 10
199.62164415532817
 20
456.41933231955221
 11
199.68241314327935
 21
456.97500648808642
  0
LINE
  8
_0-1_1_5
  6
CENTER2
 62
    7
 10
199.68241314327935
 20
456.97500648808642
 11
199.68241314327935
 21
456.97500648808642
  0
LINE
  8
_0-1_1_5
  6
CENTER2
 62
    7
 10
200.68241314327935
 20
456.97500648808642
 11
190.68241314327935
 21
456.97500648808642
  0
LINE
  8
_0-1_1_5
  6
CENTER2
 62
    7
 10
195.68241314327935
 20
452.97500648808642
 11
195.68241314327935
 21
460.97500648808648
  0
LINE
  8
_0-1_1_5
  6
CENTER2
 62
    7
 10
184.6824131432794
 20
486.8691162958587
 11
206.68241314327929
 21
486.8691162958587
  0
LINE
  8
_0-1_1_5
  6
CENTER2
 62
    7
 10
206.68241314327929
 20
486.8691162958587
 11
209.6824131432794
 21
483.86911629585876
  0
LINE
  8
_0-1_1_5
  6
CENTER2
 62
    7
 10
209.6824131432794
 20
449.86911629585876
 11
209.6824131432794
 21
483.86911629585876
  0
LINE
  8
_0-1_1_5
  6
CENTER2
 62
    7
 10
209.6824131432794
 20
449.86911629585876
 11
206.68241314327929
 21
446.8691162958587
  0
LINE
  8
_0-1_1_5
  6
CENTER2
 62
    7
 10
184.6824131432794
 20
446.8691162958587
 11
206.68241314327929
 21
446.8691162958587
  0
LINE
  8
_0-1_1_5
  6
CENTER2
 62
    7
 10
184.6824131432794
 20
446.8691162958587
 11
181.68241314327929
 21
449.86911629585876
  0
LINE
  8
_0-1_1_5
  6
CENTER2
 62
    7
 10
181.68241314327929
 20
483.86911629585876
 11
181.68241314327929
 21
449.86911629585876
  0
LINE
  8
_0-1_1_5
  6
CENTER2
 62
    7
 10
181.68241314327929
 20
483.86911629585876
 11
184.6824131432794
 21
486.8691162958587
  0
POINT
  8
_0-1_1_5
 62
    7
 10
195.68241314327935
 20
510.75860632186743
  0
LINE
  8
_0-1_1_5
  6
CONTINUOUS
 62
    7
 10
195.68241314327935
 20
510.75860632186743
 11
195.68241314327935
 21
492.3221368747287
  0
ARC
  8
_0-1_1_5
  6
CONTINUOUS
 62
    7
 10
195.68241314327935
 20
466.8691162958587
 40
25
 50
11.53695903281548
 51
348.4630409671845
  0
LINE
  8
_0-1_1_5
  6
CONTINUOUS
 62
    7
 10
201.92741114167774
 20
471.8691162958587
 11
639.43741514488102
 21
471.8691162958587
  0
LINE
  8
_0-1_1_5
  6
CONTINUOUS
 62
    7
 10
201.92741114167774
 20
461.8691162958587
 11
639.43741514488102
 21
461.8691162958587
  0
LINE
  8
_0-1_1_5
  6
CONTINUOUS
 62
    7
 10
195.68241314327935
 20
510.75860632186743
 11
645.68241314327929
 21
510.75860632186743
  0
TEXT
  8
_0-1_1_5
 62
    4
 10
411.30741314327935
 20
513.25860632186743
 40
12.5
 41
1
 50
0
  1
450
  0
POINT
  8
_0-1_1_5
 62
    7
 10
670.68241314327929
 20
534.97261085326932
  0
POINT
  8
_0-1_1_5
 62
    7
 10
170.68241314327963
 20
534.97261085326932
  0
LINE
  8
_0-1_1_5
  6
CONTINUOUS
 62
    7
 10
170.68241314327963
 20
534.97261085326932
 11
670.68241314327929
 21
534.97261085326932
  0
TEXT
  8
_0-1_1_5
 62
    4
 10
411.30741314327963
 20
537.47261085326932
 40
12.5
 41
1
 50
0
  1
500
  0
LINE
  8
_0-1_1_5
  6
CONTINUOUS
 62
    7
 10
170.68241314327963
 20
534.97261085326932
 11
170.68241314327963
 21
492.83003083387058
  0
LINE
  8
_0-1_1_5
  6
CONTINUOUS
 62
    7
 10
670.68241314327929
 20
534.97261085326932
 11
670.68241314327929
 21
492.83003083387058
  0
LINE
  8
_0-1_1_5
  6
CONTINUOUS
 62
    7
 10
833.94883877722816
 20
510.7863838891567
 11
893.94883877722816
 21
510.7863838891567
  0
TEXT
  8
_0-1_1_5
 62
    4
 10
857.69883877722816
 20
513.2863838891567
 40
12.5
 41
1
 50
0
  1
60
  0
LINE
  8
_0-1_1_5
  6
CONTINUOUS
 62
    7
 10
833.94883877722816
 20
510.7863838891567
 11
833.94883877722816
 21
488.86911629585876
  0
POINT
  8
_0-1_1_5
 62
    7
 10
833.94883877722816
 20
510.7863838891567
  0
CIRCLE
  8
_0-1_1_5
  6
DASHED1
 62
    7
 10
833.94883877722816
 20
466.8691162958587
 40
5
  0
LINE
  8
_0-1_1_5
  6
CONTINUOUS
 62
    7
 10
883.94883877722816
 20
441.86911629585882
 11
893.94883877722816
 21
441.86911629585882
  0
LINE
  8
_0-1_1_5
  6
CONTINUOUS
 62
    7
 10
893.94883877722816
 20
491.86911629585882
 11
893.94883877722816
 21
441.86911629585882
  0
LINE
  8
_0-1_1_5
  6
CONTINUOUS
 62
    7
 10
883.94883877722816
 20
491.86911629585882
 11
883.94883877722816
 21
441.86911629585882
  0
LINE
  8
_0-1_1_5
  6
CONTINUOUS
 62
    7
 10
883.94883877722816
 20
491.86911629585882
 11
893.94883877722816
 21
491.86911629585882
  0
LINE
  8
_0-1_1_5
  6
CONTINUOUS
 62
    7
 10
893.94883877722816
 20
510.7863838891567
 11
893.94883877722816
 21
495.3691162958587
  0
POINT
  8
_0-1_1_5
 62
    7
 10
893.94883877722816
 20
510.7863838891567
  0
LINE
  8
_0-1_1_5
  6
CONTINUOUS
 62
    7
 10
914.92105826646571
 20
457.02025784926502
 11
914.92105826646571
 21
390.49425729916715
  0
LINE
  8
_0-1_1_5
  6
CONTINUOUS
 62
    7
 10
883.94883877722816
 20
410.3691162958587
 11
870.64450877871582
 21
410.3691162958587
  0
LINE
  8
_0-1_1_5
  6
CONTINUOUS
 62
    7
 10
883.94883877722816
 20
410.3691162958587
 11
893.94883877722816
 21
410.3691162958587
  0
TEXT
  8
_0-1_1_5
 62
    4
 10
869.43303794607414
 20
412.88510257394222
 40
12.5
 41
1
 50
0
  1
10
  0
LINE
  8
_0-1_1_5
  6
CONTINUOUS
 62
    7
 10
893.94883877722816
 20
410.3691162958587
 11
893.94883877722816
 21
437.36911629585876
  0
LINE
  8
_0-1_1_5
  6
CONTINUOUS
 62
    7
 10
883.94883877722816
 20
410.3691162958587
 11
883.94883877722816
 21
437.36911629585876
  0
POINT
  8
_0-1_1_5
 62
    7
 10
893.94883877722816
 20
410.3691162958587
  0
POINT
  8
_0-1_1_5
 62
    7
 10
883.94883877722816
 20
410.3691162958587
  0
LINE
  8
_0-1_1_5
  6
CONTINUOUS
 62
    7
 10
802.67222095103546
 20
458.86911629585876
 11
817.8652374398813
 21
458.86911629585876
  0
LINE
  8
_0-1_1_5
  6
CONTINUOUS
 62
    7
 10
802.67222095103546
 20
474.86911629585876
 11
817.8652374398813
 21
474.86911629585876
  0
POINT
  8
_0-1_1_5
 62
    7
 10
802.67222095103546
 20
458.86911629585876
  0
POINT
  8
_0-1_1_5
 62
    7
 10
802.67222095103546
 20
474.86911629585876
  0
LINE
  8
_0-1_1_5
  6
CENTER2
 62
    7
 10
893.94883877722816
 20
446.86911629585887
 11
887.44883877722816
 21
450.62189304559138
  0
LINE
  8
_0-1_1_5
  6
CENTER2
 62
    7
 10
887.44883877722816
 20
473.26322610363115
 11
887.44883877722816
 21
480.2632261036311
  0
LINE
  8
_0-1_1_5
  6
CENTER2
 62
    7
 10
887.44883877722816
 20
453.47500648808654
 11
887.44883877722816
 21
460.47500648808648
  0
LINE
  8
_0-1_1_5
  6
CENTER2
 62
    7
 10
887.44883877722816
 20
483.11633954612631
 11
887.44883877722816
 21
450.62189304559138
  0
LINE
  8
_0-1_1_5
  6
CENTER2
 62
    7
 10
893.94883877722816
 20
486.86911629585887
 11
887.44883877722816
 21
483.11633954612631
  0
LINE
  8
_0-1_1_5
  6
CENTER2
 62
    7
 10
889.19893678293238
 20
478.51312809792705
 11
889.19893678293238
 21
475.0133241093352
  0
LINE
  8
_0-1_1_5
  6
CENTER2
 62
    7
 10
887.44883877722816
 20
473.26322610363115
 11
889.19893678293204
 21
475.0133241093352
  0
LINE
  8
_0-1_1_5
  6
CENTER2
 62
    7
 10
887.44883877722816
 20
480.2632261036311
 11
889.19893678293238
 21
478.51312809792705
  0
LINE
  8
_0-1_1_5
  6
CENTER2
 62
    7
 10
889.19893678293238
 20
476.99830086962163
 11
889.85453405967701
 21
478.62993835097086
  0
LINE
  8
_0-1_1_5
  6
CENTER2
 62
    7
 10
889.84830136994742
 20
475.13013436237907
 11
891.25453405967721
 21
478.62993835097086
  0
LINE
  8
_0-1_1_5
  6
CENTER2
 62
    7
 10
891.24830136994763
 20
475.13013436237907
 11
892.65453405967708
 21
478.62993835097086
  0
LINE
  8
_0-1_1_5
  6
CENTER2
 62
    7
 10
892.64830136994749
 20
475.13013436237907
 11
894.05453405967694
 21
478.62993835097086
  0
LINE
  8
_0-1_1_5
  6
CENTER2
 62
    7
 10
889.19893678293238
 20
458.72490848238238
 11
889.19893678293238
 21
455.22510449379058
  0
LINE
  8
_0-1_1_5
  6
CENTER2
 62
    7
 10
887.44883877722816
 20
453.47500648808654
 11
889.19893678293204
 21
455.22510449379058
  0
LINE
  8
_0-1_1_5
  6
CENTER2
 62
    7
 10
887.44883877722816
 20
460.47500648808648
 11
889.19893678293238
 21
458.72490848238238
  0
LINE
  8
_0-1_1_5
  6
CENTER2
 62
    7
 10
889.19893678293238
 20
457.21008125407701
 11
889.85453405967701
 21
458.8417187354263
  0
LINE
  8
_0-1_1_5
  6
CENTER2
 62
    7
 10
889.84830136994742
 20
455.34191474683445
 11
891.25453405967721
 21
458.8417187354263
  0
LINE
  8
_0-1_1_5
  6
CENTER2
 62
    7
 10
891.24830136994763
 20
455.34191474683445
 11
892.65453405967708
 21
458.8417187354263
  0
LINE
  8
_0-1_1_5
  6
CENTER2
 62
    7
 10
892.64830136994749
 20
455.34191474683445
 11
894.05453405967694
 21
458.8417187354263
  0
LINE
  8
_0-1_1_5
  6
CONTINUOUS
 62
    7
 10
898.24830136994717
 20
455.34191474683445
 11
899.65453405967696
 21
458.8417187354263
  0
LINE
  8
_0-1_1_5
  6
CONTINUOUS
 62
    7
 10
894.04830136994735
 20
455.34191474683445
 11
895.45453405967703
 21
458.8417187354263
  0
LINE
  8
_0-1_1_5
  6
CONTINUOUS
 62
    7
 10
895.44830136994722
 20
455.34191474683445
 11
896.85453405967689
 21
458.8417187354263
  0
LINE
  8
_0-1_1_5
  6
CONTINUOUS
 62
    7
 10
896.84830136994731
 20
455.34191474683445
 11
898.2545340596771
 21
458.8417187354263
  0
LINE
  8
_0-1_1_5
  6
CONTINUOUS
 62
    7
 10
894.04830136994735
 20
475.13013436237907
 11
895.45453405967703
 21
478.62993835097086
  0
LINE
  8
_0-1_1_5
  6
CONTINUOUS
 62
    7
 10
895.44830136994722
 20
475.13013436237907
 11
896.85453405967689
 21
478.62993835097086
  0
LINE
  8
_0-1_1_5
  6
CONTINUOUS
 62
    7
 10
896.84830136994731
 20
475.13013436237907
 11
898.2545340596771
 21
478.62993835097086
  0
LINE
  8
_0-1_1_5
  6
CONTINUOUS
 62
    7
 10
898.24830136994717
 20
475.13013436237907
 11
899.65453405967696
 21
478.62993835097086
  0
LINE
  8
_0-1_1_5
  6
CONTINUOUS
 62
    7
 10
909.49193019805534
 20
475.13013436237907
 11
910.89816288778536
 21
478.62993835097086
  0
LINE
  8
_0-1_1_5
  6
CONTINUOUS
 62
    7
 10
923.55425709535325
 20
475.13013436237907
 11
924.9604897850827
 21
478.62993835097086
  0
LINE
  8
_0-1_1_5
  6
CONTINUOUS
 62
    7
 10
926.36672247481272
 20
475.13013436237907
 11
927.77295516454217
 21
478.62993835097086
  0
LINE
  8
_0-1_1_5
  6
CONTINUOUS
 62
    7
 10
924.9604897850827
 20
475.13013436237907
 11
926.36672247481272
 21
478.62993835097086
  0
LINE
  8
_0-1_1_5
  6
CONTINUOUS
 62
    7
 10
922.14802440562323
 20
475.13013436237907
 11
923.55425709535325
 21
478.62993835097086
  0
LINE
  8
_0-1_1_5
  6
CONTINUOUS
 62
    7
 10
908.08569750832589
 20
475.13013436237907
 11
909.49193019805534
 21
478.62993835097086
  0
LINE
  8
_0-1_1_5
  6
CONTINUOUS
 62
    7
 10
920.74179171589344
 20
475.13013436237907
 11
922.14802440562323
 21
478.62993835097086
  0
LINE
  8
_0-1_1_5
  6
CONTINUOUS
 62
    7
 10
919.33555902616376
 20
475.13013436237907
 11
920.74179171589344
 21
478.62993835097086
  0
LINE
  8
_0-1_1_5
  6
CONTINUOUS
 62
    7
 10
917.92932633643375
 20
475.13013436237907
 11
919.33555902616376
 21
478.62993835097086
  0
LINE
  8
_0-1_1_5
  6
CONTINUOUS
 62
    7
 10
916.5230936467043
 20
475.13013436237907
 11
917.92932633643375
 21
478.62993835097086
  0
LINE
  8
_0-1_1_5
  6
CONTINUOUS
 62
    7
 10
915.11686095697451
 20
475.13013436237907
 11
916.5230936467043
 21
478.62993835097086
  0
LINE
  8
_0-1_1_5
  6
CONTINUOUS
 62
    7
 10
913.71062826724483
 20
475.13013436237907
 11
915.11686095697451
 21
478.62993835097086
  0
LINE
  8
_0-1_1_5
  6
CONTINUOUS
 62
    7
 10
910.89816288778536
 20
475.13013436237907
 11
912.30439557751538
 21
478.62993835097086
  0
LINE
  8
_0-1_1_5
  6
CONTINUOUS
 62
    7
 10
912.30439557751538
 20
475.13013436237907
 11
913.71062826724483
 21
478.62993835097086
  0
LINE
  8
_0-1_1_5
  6
CONTINUOUS
 62
    7
 10
906.67946481859587
 20
475.13013436237907
 11
908.08569750832589
 21
478.62993835097086
  0
LINE
  8
_0-1_1_5
  6
CONTINUOUS
 62
    7
 10
905.27323212886643
 20
475.13013436237907
 11
906.67946481859587
 21
478.62993835097086
  0
LINE
  8
_0-1_1_5
  6
CONTINUOUS
 62
    7
 10
903.86699943913641
 20
475.13013436237907
 11
905.27323212886643
 21
478.62993835097086
  0
LINE
  8
_0-1_1_5
  6
CONTINUOUS
 62
    7
 10
902.46076674940684
 20
475.13013436237907
 11
903.86699943913641
 21
478.62993835097086
  0
LINE
  8
_0-1_1_5
  6
CONTINUOUS
 62
    7
 10
901.05453405967683
 20
475.13013436237907
 11
902.46076674940684
 21
478.62993835097086
  0
LINE
  8
_0-1_1_5
  6
CONTINUOUS
 62
    7
 10
899.64830136994738
 20
475.13013436237907
 11
901.05453405967683
 21
478.62993835097086
  0
LINE
  8
_0-1_1_5
  6
CONTINUOUS
 62
    7
 10
889.23575905985888
 20
478.51312809792705
 11
927.77240123589422
 21
478.51312809792705
  0
LINE
  8
_0-1_1_5
  6
CONTINUOUS
 62
    7
 10
889.19893678293204
 20
475.0133241093352
 11
927.77295516454217
 21
475.0133241093352
  0
LINE
  8
_0-1_1_5
  6
CONTINUOUS
 62
    7
 10
933.3978859234611
 20
476.76322610363104
 11
927.77295516454217
 21
475.0133241093352
  0
LINE
  8
_0-1_1_5
  6
CONTINUOUS
 62
    7
 10
933.3978859234611
 20
476.76322610363104
 11
927.77295516454217
 21
478.51312809792705
  0
LINE
  8
_0-1_1_5
  6
CONTINUOUS
 62
    7
 10
909.49193019805534
 20
455.34191474683445
 11
910.89816288778536
 21
458.8417187354263
  0
LINE
  8
_0-1_1_5
  6
CONTINUOUS
 62
    7
 10
923.55425709535325
 20
455.34191474683445
 11
924.9604897850827
 21
458.8417187354263
  0
LINE
  8
_0-1_1_5
  6
CONTINUOUS
 62
    7
 10
926.36672247481272
 20
455.34191474683445
 11
927.77295516454217
 21
458.8417187354263
  0
LINE
  8
_0-1_1_5
  6
CONTINUOUS
 62
    7
 10
924.9604897850827
 20
455.34191474683445
 11
926.36672247481272
 21
458.8417187354263
  0
LINE
  8
_0-1_1_5
  6
CONTINUOUS
 62
    7
 10
922.14802440562323
 20
455.34191474683445
 11
923.55425709535325
 21
458.8417187354263
  0
LINE
  8
_0-1_1_5
  6
CONTINUOUS
 62
    7
 10
908.08569750832589
 20
455.34191474683445
 11
909.49193019805534
 21
458.8417187354263
  0
LINE
  8
_0-1_1_5
  6
CONTINUOUS
 62
    7
 10
920.74179171589344
 20
455.34191474683445
 11
922.14802440562323
 21
458.8417187354263
  0
LINE
  8
_0-1_1_5
  6
CONTINUOUS
 62
    7
 10
919.33555902616376
 20
455.34191474683445
 11
920.74179171589344
 21
458.8417187354263
  0
LINE
  8
_0-1_1_5
  6
CONTINUOUS
 62
    7
 10
917.92932633643375
 20
455.34191474683445
 11
919.33555902616376
 21
458.8417187354263
  0
LINE
  8
_0-1_1_5
  6
CONTINUOUS
 62
    7
 10
916.5230936467043
 20
455.34191474683445
 11
917.92932633643375
 21
458.8417187354263
  0
LINE
  8
_0-1_1_5
  6
CONTINUOUS
 62
    7
 10
915.11686095697451
 20
455.34191474683445
 11
916.5230936467043
 21
458.8417187354263
  0
LINE
  8
_0-1_1_5
  6
CONTINUOUS
 62
    7
 10
913.71062826724483
 20
455.34191474683445
 11
915.11686095697451
 21
458.8417187354263
  0
LINE
  8
_0-1_1_5
  6
CONTINUOUS
 62
    7
 10
910.89816288778536
 20
455.34191474683445
 11
912.30439557751538
 21
458.8417187354263
  0
LINE
  8
_0-1_1_5
  6
CONTINUOUS
 62
    7
 10
912.30439557751538
 20
455.34191474683445
 11
913.71062826724483
 21
458.8417187354263
  0
LINE
  8
_0-1_1_5
  6
CONTINUOUS
 62
    7
 10
906.67946481859587
 20
455.34191474683445
 11
908.08569750832589
 21
458.8417187354263
  0
LINE
  8
_0-1_1_5
  6
CONTINUOUS
 62
    7
 10
905.27323212886643
 20
455.34191474683445
 11
906.67946481859587
 21
458.8417187354263
  0
LINE
  8
_0-1_1_5
  6
CONTINUOUS
 62
    7
 10
903.86699943913641
 20
455.34191474683445
 11
905.27323212886643
 21
458.8417187354263
  0
LINE
  8
_0-1_1_5
  6
CONTINUOUS
 62
    7
 10
902.46076674940684
 20
455.34191474683445
 11
903.86699943913641
 21
458.8417187354263
  0
LINE
  8
_0-1_1_5
  6
CONTINUOUS
 62
    7
 10
901.05453405967683
 20
455.34191474683445
 11
902.46076674940684
 21
458.8417187354263
  0
LINE
  8
_0-1_1_5
  6
CONTINUOUS
 62
    7
 10
899.64830136994738
 20
455.34191474683445
 11
901.05453405967683
 21
458.8417187354263
  0
LINE
  8
_0-1_1_5
  6
CONTINUOUS
 62
    7
 10
889.23575905985888
 20
458.72490848238238
 11
927.77240123589422
 21
458.72490848238238
  0
LINE
  8
_0-1_1_5
  6
CONTINUOUS
 62
    7
 10
889.19893678293204
 20
455.22510449379058
 11
927.77295516454217
 21
455.22510449379058
  0
LINE
  8
_0-1_1_5
  6
CONTINUOUS
 62
    7
 10
933.3978859234611
 20
456.97500648808642
 11
927.77295516454217
 21
455.22510449379058
  0
LINE
  8
_0-1_1_5
  6
CONTINUOUS
 62
    7
 10
933.3978859234611
 20
456.97500648808642
 11
927.77295516454217
 21
458.72490848238238
  0
LINE
  8
_0-1_1_5
  6
CONTINUOUS
 62
    7
 10
824.94883877722816
 20
458.86911629585876
 11
883.94883877722816
 21
458.86911629585876
  0
LINE
  8
_0-1_1_5
  6
CONTINUOUS
 62
    7
 10
824.94883877722816
 20
474.86911629585876
 11
883.94883877722816
 21
474.86911629585876
  0
LINE
  8
_0-1_1_5
  6
CONTINUOUS
 62
    7
 10
824.94883877722816
 20
474.86911629585876
 11
824.94883877722816
 21
458.86911629585876
  0
TEXT
  8
_0-1_1_5
 62
    4
 10
790.01438084297217
 20
461.8935930702383
 40
12.5
 41
1
 50
-90
  1
φ
  0
TEXT
  8
_0-1_1_5
 62
    4
 10
912.19632551085147
 20
373.79637402934372
 40
12.5
 41
1
 50
0
  1
タッピングビス
  0
TEXT
  8
_0-1_1_5
 62
    4
 10
912.77228450808298
 20
358.0830929188013
 40
12.5
 41
1
 50
0
  1
3.5x35
  0
ENDSEC
  0
EOF
