  0
SECTION
  2
HEADER
  9
$ACADVER
  1
AC1009
  9
$INSBASE
 10
0
 20
0
 30
0
  9
$EXTMIN
 10
0
 20
0
  9
$EXTMAX
 10
1485
 20
1050
  9
$LIMMIN
 10
0
 20
0
  9
$LIMMAX
 10
1485
 20
1050
  9
$LTSCALE
 40
5
  0
ENDSEC
  0
SECTION
  2
TABLES
  0
TABLE
  2
LTYPE
 70
     9
  0
LTYPE
  2
CONTINUOUS
 70
    64
  3
実線
 72
    65
 73
     0
 40
0.0
  0
LTYPE
  2
DASHED1
 70
    64
  3
--  --  --  --  --  --  --  --  
 72
    65
 73
     2
 40
2.5
 49
1.25
 49
-1.25
  0
LTYPE
  2
DASHED2
 70
    64
  3
----    ----    ----    ----    
 72
    65
 73
     2
 40
5.0
 49
2.5
 49
-2.5
  0
LTYPE
  2
DASHED3
 70
    64
  3
------  ------  ------  ------  
 72
    65
 73
     2
 40
5.0
 49
3.75
 49
-1.25
  0
LTYPE
  2
CENTER1
 70
    64
  3
----- - ----- - ----- - ----- - 
 72
    65
 73
     4
 40
10.0
 49
6.25
 49
-1.25
 49
1.25
 49
-1.25
  0
LTYPE
  2
CENTER2
 70
    64
  3
----------  --  ----------  --  
 72
    65
 73
     4
 40
20.0
 49
12.5
 49
-2.5
 49
2.5
 49
-2.5
  0
LTYPE
  2
PHANTOM1
 70
    64
  3
--- - - --- - - --- - - --- - - 
 72
    65
 73
     6
 40
10.0
 49
3.25
 49
-1.25
 49
1.25
 49
-1.25
 49
1.25
 49
-1.25
  0
LTYPE
  2
PHANTOM2
 70
    64
  3
--------  -  -  --------  -  -  
 72
    65
 73
     6
 40
20.0
 49
10.0
 49
-2.5
 49
1.25
 49
-2.5
 49
1.25
 49
-2.5
  0
LTYPE
  2
DOT
 70
    64
  3
-   -   -   -   -   -   -   -   
 72
    65
 73
     2
 40
2.5
 49
0.625
 49
-1.875
  0
LTYPE
  2
DUMMY
 70
    64
  3
ダミー
 72
    65
 73
     0
 40
0.0
  0
LTYPE
  2
RAND1
 70
    64
  3
ランダム線1
 72
    65
 73
     4
 40
10.0
 49
1.0
 49
-2.0
 49
3.0
 49
-4.0
  0
LTYPE
  2
RAND2
 70
    64
  3
ランダム線2
 72
    65
 73
     4
 40
14.0
 49
2.0
 49
-3.0
 49
4.0
 49
-5.0
  0
LTYPE
  2
RAND3
 70
    64
  3
ランダム線3
 72
    65
 73
     4
 40
18.0
 49
3.0
 49
-4.0
 49
5.0
 49
-6.0
  0
LTYPE
  2
RAND4
 70
    64
  3
ランダム線4
 72
    65
 73
     4
 40
22.0
 49
4.0
 49
-5.0
 49
6.0
 49
-7.0
  0
LTYPE
  2
RAND5
 70
    64
  3
ランダム線5
 72
    65
 73
     4
 40
26.0
 49
5.0
 49
-6.0
 49
7.0
 49
-8.0
  0
LTYPE
  2
LONG1
 70
    64
  3
----------  --  ----------  --  
 72
    65
 73
     4
 40
40.0
 49
32.5
 49
-2.5
 49
2.5
 49
-2.5
  0
LTYPE
  2
LONG2
 70
    64
  3
--------  -  -  --------  -  -  
 72
    65
 73
     6
 40
40.0
 49
30.0
 49
-2.5
 49
1.25
 49
-2.5
 49
1.25
 49
-2.5
  0
LTYPE
  2
LONG3
 70
    64
  3
+++++++++++++++..+++++++++++++++
 72
    65
 73
     2
 40
40.0
 49
37.5
 49
-2.5
  0
LTYPE
  2
LONG4
 70
    64
  3
+++++++++++++++..+++++++++++++++
 72
    65
 73
     2
 40
80.0
 49
75.0
 49
-5.0
  0
LTYPE
  2
LONG5
 70
    64
  3
----------  --  ----------  --  
 72
    65
 73
     4
 40
60.0
 49
37.5
 49
-7.5
 49
7.5
 49
-7.5
  0
LTYPE
  2
dashed
 70
   64
  3
-------   -------------   ------
 72
   65
 73
    2
 40
7.5
 49
6
 49
-1.5
  0
LTYPE
  2
dashed_spaced
 70
   64
  3
----        --------        ----
 72
   65
 73
    2
 40
12
 49
6
 49
-6
  0
LTYPE
  2
long_dashed_dotted
 70
   64
  3
------------- --- --------------
 72
   65
 73
    4
 40
15.25
 49
12
 49
-1.5
 49
0.25
 49
-1.5
  0
LTYPE
  2
long_dashed_double-dotted
 70
   64
  3
----------- --- --- ------------
 72
   65
 73
    6
 40
17
 49
12
 49
-1.5
 49
0.25
 49
-1.5
 49
0.25
 49
-1.5
  0
LTYPE
  2
long_dashed_triplicate-dotted
 70
   64
  3
--------- --- --- --- ----------
 72
   65
 73
    8
 40
18.75
 49
12
 49
-1.5
 49
0.25
 49
-1.5
 49
0.25
 49
-1.5
 49
0.25
 49
-1.5
  0
LTYPE
  2
dotted
 70
   64
  3
   -       -       -       -    
 72
   65
 73
    2
 40
1.75
 49
0.25
 49
-1.5
  0
LTYPE
  2
chain
 70
   64
  3
-------------- -- --------------
 72
   65
 73
    4
 40
18.5
 49
12
 49
-1.5
 49
3.5
 49
-1.5
  0
LTYPE
  2
chain_double_dash
 70
   64
  3
------------ -- -- -------------
 72
   65
 73
    6
 40
23.5
 49
12
 49
-1.5
 49
3.5
 49
-1.5
 49
3.5
 49
-1.5
  0
LTYPE
  2
dashed_dotted
 70
   64
  3
-----------     -     ----------
 72
   65
 73
    4
 40
9.25
 49
6
 49
-1.5
 49
0.25
 49
-1.5
  0
LTYPE
  2
double-dashed_dotted
 70
   64
  3
------   -----------   -   -----
 72
   65
 73
    6
 40
16.75
 49
6
 49
-1.5
 49
6
 49
-1.5
 49
0.25
 49
-1.5
  0
LTYPE
  2
dashed_double-dotted
 70
   64
  3
---------    -    -    ---------
 72
   65
 73
    6
 40
11
 49
6
 49
-1.5
 49
0.25
 49
-1.5
 49
0.25
 49
-1.5
  0
LTYPE
  2
double-dashed_double-dotted
 70
   64
  3
-----   ---------   -   -   ----
 72
   65
 73
    8
 40
18.5
 49
6
 49
-1.5
 49
6
 49
-1.5
 49
0.25
 49
-1.5
 49
0.25
 49
-1.5
  0
LTYPE
  2
dashed_triplicate-dotted
 70
   64
  3
-------    -    -    -    ------
 72
   65
 73
    8
 40
12.75
 49
6
 49
-1.5
 49
0.25
 49
-1.5
 49
0.25
 49
-1.5
 49
0.25
 49
-1.5
  0
LTYPE
  2
double-dashed_triplicate-dotted
 70
   64
  3
-----  ---------  -  -  -  -----
 72
   65
 73
   10
 40
20.25
 49
6
 49
-1.5
 49
6
 49
-1.5
 49
0.25
 49
-1.5
 49
0.25
 49
-1.5
 49
0.25
 49
-1.5
  0
LTYPE
  2
undefined
 70
   64
  3
--------------------------------
 72
   65
 73
    0
 40
0
  0
LTYPE
  2
STYLE_01
 70
   64
  3
----        --------        ----
 72
   65
 73
    2
 40
0.4166399999999997
 49
0.2082799999999999
 49
-0.2083599999999999
  0
LTYPE
  2
STYLE_02
 70
   64
  3
------     -----------     -----
 72
   65
 73
    2
 40
0.694425
 49
0.48607
 49
-0.2083550000000001
  0
LTYPE
  2
STYLE_03
 70
   64
  3
-------   -------------   ------
 72
   65
 73
    2
 40
1.25
 49
1.0416400000000001
 49
-0.2083599999999999
  0
LTYPE
  2
STYLE_04
 70
   64
  3
-------  --------------  -------
 72
   65
 73
    2
 40
1.5277099999999999
 49
1.3194249999999998
 49
-0.208285
  0
LTYPE
  2
STYLE_05
 70
   64
  3
---           -----           --
 72
   65
 73
    2
 40
0.20828
 49
0.069425
 49
-0.138855
  0
LTYPE
  2
STYLE_06
 70
   64
  3
----------      --    ----------
 72
   65
 73
    4
 40
1.0416399999999999
 49
0.625
 49
-0.2082799999999999
 49
0.06943
 49
-0.13893
  0
LTYPE
  2
STYLE_07
 70
   64
  3
-----    -----------    -  -----
 72
   65
 73
    6
 40
1.8749999999999998
 49
0.625
 49
-0.2082799999999999
 49
0.6250000000000001
 49
-0.2083599999999999
 49
0.06943
 49
-0.1389299999999998
  0
LTYPE
  2
STYLE_08
 70
   64
  3
--------     --    --    -------
 72
   65
 73
    6
 40
1.2499999999999996
 49
0.625
 49
-0.2082799999999999
 49
0.06943
 49
-0.13893
 49
0.0694299999999997
 49
-0.13893
  0
LTYPE
  2
STYLE_09
 70
   64
  3
------------  ----  ------------
 72
   65
 73
    4
 40
5
 49
3.75
 49
-0.2777849999999997
 49
0.6944300000000003
 49
-0.2777849999999997
  0
LTYPE
  2
STYLE_10
 70
   64
  3
----------- ---- ---  ----------
 72
   65
 73
    6
 40
5.9375
 49
3.75
 49
-0.2777849999999997
 49
0.6944300000000003
 49
-0.2777849999999997
 49
0.625
 49
-0.3125
  0
ENDTAB
  0
TABLE
  2
STYLE
  5
3
100
AcDbSymbolTable
 70
     1
  0
STYLE
  5
10
100
AcDbSymbolTableRecord
100
AcDbTextStyleTableRecord
  2
STANDARD
 70
     0
 40
0.0
 41
1.0
 50
0.0
 71
     0
 42
0.2
  3
txt
  4
bigfont.shx
  0
STYLE
  5
26
100
AcDbSymbolTableRecord
100
AcDbTextStyleTableRecord
  2
TATEGAKI
 70
    68
 40
0.0
 41
1.0
 50
0.0
 71
     0
 42
1.0
  3
txt
  4
bigfont.shx
  0
ENDTAB
  0
TABLE
  2
LAYER
 70
    5
  0
LAYER
  2
_0-0_0
 70
   64
 62
    7
  6
CONTINUOUS
  0
LAYER
  2
_0-1_1_5
 70
   64
 62
    7
  6
CONTINUOUS
  0
LAYER
  2
_0-2_ADD_LINE
 70
   64
 62
    7
  6
CONTINUOUS
  0
LAYER
  2
_0-3_
 70
   64
 62
    7
  6
CONTINUOUS
  0
LAYER
  2
ADD_LINE
 70
   64
 62
    7
  6
CONTINUOUS
  0
ENDTAB
  0
ENDSEC
  0
SECTION
  2
BLOCKS
  0
ENDSEC
  0
SECTION
  2
ENTITIES
  0
TEXT
  8
_0-3_
 62
    7
 10
337.91727686287811
 20
-165.72561040232628
 40
15.270385742187502
 41
1
 50
0
  1
ステンレススチール
  0
LINE
  8
_0-0_0
  6
CONTINUOUS
 62
    7
 10
-217.54976684701688
 20
839.39842520894683
 11
-217.54976684701688
 21
-210.60157479105314
  0
LINE
  8
_0-0_0
  6
CONTINUOUS
 62
    7
 10
-217.54976684701688
 20
-210.60157479105314
 11
1267.4502331529832
 21
-210.60157479105328
  0
LINE
  8
_0-0_0
  6
CONTINUOUS
 62
    7
 10
1267.4502331529832
 20
-210.60157479105328
 11
1267.4502331529832
 21
839.39842520894672
  0
LINE
  8
_0-0_0
  6
CONTINUOUS
 62
    7
 10
1267.4502331529832
 20
839.39842520894672
 11
-217.54976684701688
 21
839.39842520894683
  0
TEXT
  8
_0-3_
 62
    7
 10
303.1435361858484
 20
-157.2512975909325
 40
10
 41
1
 50
0
  1
材質
  0
TEXT
  8
_0-3_
 62
    7
 10
303.1435361858484
 20
-126.04446365427265
 40
10
 41
1
 50
0
  1
仕上げ
  0
TEXT
  8
_0-3_
 62
    7
 10
303.1435361858484
 20
-96.397971414445891
 40
10
 41
1
 50
0
  1
品名
  0
LINE
  8
_0-3_
  6
CONTINUOUS
 62
    7
 10
763.33333330012067
 20
-172.00135367935019
 11
763.33333330012067
 21
-82.001353679350046
  0
LINE
  8
_0-3_
  6
CONTINUOUS
 62
    7
 10
1230.0000000001207
 20
-82.001353679350046
 11
295.76393721191187
 21
-82.001353679350046
  0
LINE
  8
_0-3_
  6
CONTINUOUS
 62
    7
 10
1230.0000000001207
 20
-112.00135367935005
 11
295.76393721191187
 21
-112.00135367935005
  0
LINE
  8
_0-3_
  6
CONTINUOUS
 62
    7
 10
1230.0000000001207
 20
-142.00135367935005
 11
295.76393721191187
 21
-142.00135367935005
  0
LINE
  8
_0-3_
  6
CONTINUOUS
 62
    7
 10
295.76393721191187
 20
-172.00135367935005
 11
295.76393721191187
 21
-82.001353679350046
  0
TEXT
  8
_0-3_
 62
    7
 10
769.76611673267166
 20
-97.65079861352163
 40
10
 41
1
 50
0
  1
品番
  0
TEXT
  8
_0-3_
 62
    7
 10
769.76611673267166
 20
-126.84760541025184
 40
10
 41
1
 50
0
  1
縮尺
  0
TEXT
  8
_0-3_
 62
    7
 10
805.64122881175172
 20
-135.00091580972281
 40
15.270385742187502
 41
1
 50
0
  1
1/5
  0
TEXT
  8
_0-3_
 62
    7
 10
-167.22023496641157
 20
-191.8129578821069
 40
12.5
 41
1
 50
0
  1
120718SH
  0
LINE
  8
_0-3_
  6
CONTINUOUS
 62
    7
 10
-169.99999999987921
 20
802.99864632065021
 11
-169.99999999987921
 21
-172.00135367935005
  0
LINE
  8
_0-3_
  6
CONTINUOUS
 62
    7
 10
-169.99999999987921
 20
-172.00135367935005
 11
1230.0000000001207
 21
-172.00135367935019
  0
LINE
  8
_0-3_
  6
CONTINUOUS
 62
    7
 10
1230.0000000001207
 20
-172.00135367935019
 11
1230.0000000001207
 21
802.9986463206501
  0
LINE
  8
_0-3_
  6
CONTINUOUS
 62
    7
 10
1230.0000000001207
 20
802.9986463206501
 11
-169.99999999987921
 21
802.99864632065021
  0
TEXT
  8
_0-3_
 62
    7
 10
337.91727686287811
 20
-104.70437403928486
 40
15.270385742187502
 41
1
 50
0
  1
タオルバー
  0
TEXT
  8
_0-3_
 62
    7
 10
804.6090696281932
 20
-167.49214973604637
 40
15.5
 41
1
 50
0
  1
大洋金物株式会社  ティーエフプラス事業部
  0
LINE
  8
_0-1_1_5
  6
CENTER2
 62
    7
 10
734.68241314327906
 20
286.27499245404744
 11
706.68241314327929
 21
286.27499245404744
  0
LINE
  8
_0-1_1_5
  6
CONTINUOUS
 62
    7
 10
720.68241314327906
 20
332.22403960028032
 11
718.93251114898305
 21
326.59910884136116
  0
LINE
  8
_0-1_1_5
  6
CONTINUOUS
 62
    7
 10
720.68241314327906
 20
332.22403960028032
 11
722.43231513757507
 21
326.59910884136116
  0
LINE
  8
_0-1_1_5
  6
CONTINUOUS
 62
    7
 10
722.43231513757507
 20
288.0250904597512
 11
722.43231513757507
 21
326.59910884136116
  0
LINE
  8
_0-1_1_5
  6
CONTINUOUS
 62
    7
 10
718.93251114898305
 20
288.06191273667815
 11
718.93251114898305
 21
326.59855491271338
  0
LINE
  8
_0-1_1_5
  6
CONTINUOUS
 62
    7
 10
722.31550488453104
 20
298.47445504676648
 11
718.81570089593936
 21
299.88068773649593
  0
LINE
  8
_0-1_1_5
  6
CONTINUOUS
 62
    7
 10
722.31550488453104
 20
299.88068773649593
 11
718.81570089593936
 21
301.28692042622612
  0
LINE
  8
_0-1_1_5
  6
CONTINUOUS
 62
    7
 10
722.31550488453104
 20
301.28692042622612
 11
718.81570089593936
 21
302.69315311595557
  0
LINE
  8
_0-1_1_5
  6
CONTINUOUS
 62
    7
 10
722.31550488453104
 20
302.69315311595557
 11
718.81570089593936
 21
304.09938580568542
  0
LINE
  8
_0-1_1_5
  6
CONTINUOUS
 62
    7
 10
722.31550488453104
 20
304.09938580568542
 11
718.81570089593936
 21
305.50561849541486
  0
LINE
  8
_0-1_1_5
  6
CONTINUOUS
 62
    7
 10
722.31550488453104
 20
305.50561849541486
 11
718.81570089593936
 21
306.91185118514505
  0
LINE
  8
_0-1_1_5
  6
CONTINUOUS
 62
    7
 10
722.31550488453104
 20
311.13054925433426
 11
718.81570089593936
 21
312.53678194406399
  0
LINE
  8
_0-1_1_5
  6
CONTINUOUS
 62
    7
 10
722.31550488453104
 20
309.72431656460435
 11
718.81570089593936
 21
311.13054925433426
  0
LINE
  8
_0-1_1_5
  6
CONTINUOUS
 62
    7
 10
722.31550488453104
 20
312.53678194406399
 11
718.81570089593936
 21
313.94301463379355
  0
LINE
  8
_0-1_1_5
  6
CONTINUOUS
 62
    7
 10
722.31550488453104
 20
313.94301463379355
 11
718.81570089593936
 21
315.34924732352329
  0
LINE
  8
_0-1_1_5
  6
CONTINUOUS
 62
    7
 10
722.31550488453104
 20
315.34924732352329
 11
718.81570089593936
 21
316.75548001325296
  0
LINE
  8
_0-1_1_5
  6
CONTINUOUS
 62
    7
 10
722.31550488453104
 20
316.75548001325296
 11
718.81570089593936
 21
318.16171270298292
  0
LINE
  8
_0-1_1_5
  6
CONTINUOUS
 62
    7
 10
722.31550488453104
 20
318.16171270298292
 11
718.81570089593936
 21
319.56794539271255
  0
LINE
  8
_0-1_1_5
  6
CONTINUOUS
 62
    7
 10
722.31550488453104
 20
319.56794539271255
 11
718.81570089593936
 21
320.97417808244222
  0
LINE
  8
_0-1_1_5
  6
CONTINUOUS
 62
    7
 10
722.31550488453104
 20
306.91185118514505
 11
718.81570089593936
 21
308.3180838748745
  0
LINE
  8
_0-1_1_5
  6
CONTINUOUS
 62
    7
 10
722.31550488453104
 20
320.97417808244222
 11
718.81570089593936
 21
322.38041077217218
  0
LINE
  8
_0-1_1_5
  6
CONTINUOUS
 62
    7
 10
722.31550488453104
 20
323.78664346190186
 11
718.81570089593936
 21
325.19287615163171
  0
LINE
  8
_0-1_1_5
  6
CONTINUOUS
 62
    7
 10
722.31550488453104
 20
325.19287615163171
 11
718.81570089593936
 21
326.59910884136116
  0
LINE
  8
_0-1_1_5
  6
CONTINUOUS
 62
    7
 10
722.31550488453104
 20
322.38041077217218
 11
718.81570089593936
 21
323.78664346190186
  0
LINE
  8
_0-1_1_5
  6
CONTINUOUS
 62
    7
 10
722.31550488453104
 20
308.3180838748745
 11
718.81570089593936
 21
309.72431656460435
  0
LINE
  8
_0-1_1_5
  6
CONTINUOUS
 62
    7
 10
722.31550488453104
 20
297.07445504676633
 11
718.81570089593936
 21
298.48068773649607
  0
LINE
  8
_0-1_1_5
  6
CONTINUOUS
 62
    7
 10
722.31550488453104
 20
295.67445504676647
 11
718.81570089593936
 21
297.0806877364962
  0
LINE
  8
_0-1_1_5
  6
CONTINUOUS
 62
    7
 10
722.31550488453104
 20
294.27445504676649
 11
718.81570089593936
 21
295.68068773649605
  0
LINE
  8
_0-1_1_5
  6
CENTER2
 62
    7
 10
722.31550488453104
 20
292.87445504676663
 11
718.81570089593936
 21
294.28068773649619
  0
LINE
  8
_0-1_1_5
  6
CENTER2
 62
    7
 10
722.31550488453104
 20
290.07445504676662
 11
718.81570089593936
 21
291.48068773649635
  0
LINE
  8
_0-1_1_5
  6
CENTER2
 62
    7
 10
722.31550488453104
 20
288.67445504676658
 11
718.81570089593936
 21
290.08068773649649
  0
LINE
  8
_0-1_1_5
  6
CENTER2
 62
    7
 10
720.44733837728836
 20
288.02509045975148
 11
718.81570089593936
 21
288.68068773649617
  0
LINE
  8
_0-1_1_5
  6
CENTER2
 62
    7
 10
717.18241314327906
 20
286.27499245404744
 11
718.93251114898305
 21
288.02509045975148
  0
LINE
  8
_0-1_1_5
  6
CENTER2
 62
    7
 10
724.18241314327906
 20
286.27499245404744
 11
722.43231513757507
 21
288.0250904597512
  0
LINE
  8
_0-1_1_5
  6
CENTER2
 62
    7
 10
718.93251114898305
 20
288.02509045975148
 11
722.43231513757507
 21
288.02509045975148
  0
LINE
  8
_0-1_1_5
  6
CENTER2
 62
    7
 10
734.68241314327906
 20
286.27499245404744
 11
734.68241314327906
 21
292.77499245404732
  0
LINE
  8
_0-1_1_5
  6
CENTER2
 62
    7
 10
706.68241314327929
 20
286.27499245404744
 11
706.68241314327929
 21
292.77499245404732
  0
LINE
  8
_0-1_1_5
  6
CONTINUOUS
 62
    7
 10
695.68241314327929
 20
282.77499245404732
 11
695.68241314327929
 21
292.77499245404732
  0
LINE
  8
_0-1_1_5
  6
CONTINUOUS
 62
    7
 10
745.68241314327906
 20
282.77499245404732
 11
745.68241314327906
 21
292.77499245404732
  0
LINE
  8
_0-1_1_5
  6
CONTINUOUS
 62
    7
 10
695.68241314327929
 20
292.77499245404732
 11
745.68241314327906
 21
292.77499245404732
  0
LINE
  8
_0-1_1_5
  6
CONTINUOUS
 62
    7
 10
695.68241314327929
 20
282.77499245404732
 11
745.68241314327906
 21
282.77499245404732
  0
LINE
  8
_0-1_1_5
  6
CONTINUOUS
 62
    7
 10
712.68241314327895
 20
227.77499245404732
 11
712.68241314327895
 21
227.77499245404732
  0
LINE
  8
_0-1_1_5
  6
CONTINUOUS
 62
    7
 10
712.68241314327895
 20
227.77499245404732
 11
712.98629745419612
 21
227.85095368898629
  0
LINE
  8
_0-1_1_5
  6
CONTINUOUS
 62
    7
 10
712.98629745419612
 20
227.85095368898629
 11
713.28094839409891
 21
228.07652935011777
  0
LINE
  8
_0-1_1_5
  6
CONTINUOUS
 62
    7
 10
713.28094839409891
 20
228.07652935011777
 11
713.55741314327895
 21
228.44486543512514
  0
LINE
  8
_0-1_1_5
  6
CONTINUOUS
 62
    7
 10
713.55741314327895
 20
228.44486543512514
 11
713.80729146023043
 21
228.94477023845243
  0
LINE
  8
_0-1_1_5
  6
CONTINUOUS
 62
    7
 10
713.80729146023043
 20
228.94477023845243
 11
714.02299091873715
 21
229.56105440561461
  0
LINE
  8
_0-1_1_5
  6
CONTINUOUS
 62
    7
 10
714.02299091873715
 20
229.56105440561461
 11
714.19795759990177
 21
230.27499245404732
  0
LINE
  8
_0-1_1_5
  6
CONTINUOUS
 62
    7
 10
714.19795759990177
 20
230.27499245404732
 11
714.32687522965432
 21
231.06489173741898
  0
LINE
  8
_0-1_1_5
  6
CONTINUOUS
 62
    7
 10
714.32687522965432
 20
231.06489173741898
 11
714.40582671105028
 21
231.90675156571268
  0
LINE
  8
_0-1_1_5
  6
CONTINUOUS
 62
    7
 10
714.40582671105028
 20
231.90675156571268
 11
714.43241314327895
 21
232.77499245404732
  0
LINE
  8
_0-1_1_5
  6
CONTINUOUS
 62
    7
 10
714.43241314327895
 20
232.77499245404732
 11
714.40582671105028
 21
233.64323334238196
  0
LINE
  8
_0-1_1_5
  6
CONTINUOUS
 62
    7
 10
714.40582671105028
 20
233.64323334238196
 11
714.32687522965432
 21
234.48509317067567
  0
LINE
  8
_0-1_1_5
  6
CONTINUOUS
 62
    7
 10
714.32687522965432
 20
234.48509317067567
 11
714.19795759990177
 21
235.27499245404732
  0
LINE
  8
_0-1_1_5
  6
CONTINUOUS
 62
    7
 10
714.19795759990177
 20
235.27499245404732
 11
714.02299091873715
 21
235.98893050248
  0
LINE
  8
_0-1_1_5
  6
CONTINUOUS
 62
    7
 10
714.02299091873715
 20
235.98893050248
 11
713.80729146023043
 21
236.60521466964221
  0
LINE
  8
_0-1_1_5
  6
CONTINUOUS
 62
    7
 10
713.80729146023043
 20
236.60521466964221
 11
713.55741314327895
 21
237.10511947296951
  0
LINE
  8
_0-1_1_5
  6
CONTINUOUS
 62
    7
 10
713.55741314327895
 20
237.10511947296951
 11
713.28094839409891
 21
237.47345555797685
  0
LINE
  8
_0-1_1_5
  6
CONTINUOUS
 62
    7
 10
713.28094839409891
 20
237.47345555797685
 11
712.98629745419612
 21
237.69903121910835
  0
LINE
  8
_0-1_1_5
  6
CONTINUOUS
 62
    7
 10
712.98629745419612
 20
237.69903121910835
 11
712.68241314327895
 21
237.77499245404732
  0
LINE
  8
_0-1_1_5
  6
CONTINUOUS
 62
    7
 10
712.68241314327895
 20
237.77499245404732
 11
712.68241314327895
 21
237.77499245404732
  0
LINE
  8
_0-1_1_5
  6
CONTINUOUS
 62
    7
 10
712.68241314327895
 20
222.77499245404732
 11
728.68241314327918
 21
222.77499245404732
  0
LINE
  8
_0-1_1_5
  6
CONTINUOUS
 62
    7
 10
712.68241314327895
 20
222.77499245404732
 11
712.68241314327895
 21
227.77499245404732
  0
LINE
  8
_0-1_1_5
  6
CONTINUOUS
 62
    7
 10
728.68241314327918
 20
222.77499245404732
 11
728.68241314327918
 21
282.77499245404732
  0
LINE
  8
_0-1_1_5
  6
CONTINUOUS
 62
    7
 10
712.68241314327895
 20
237.77499245404732
 11
712.68241314327895
 21
282.77499245404732
  0
CIRCLE
  8
_0-1_1_5
  6
CONTINUOUS
 62
    7
 10
720.68241314327906
 20
466.86911629585882
 40
8
  0
LINE
  8
_0-1_1_5
  6
CENTER2
 62
    7
 10
725.68241314327906
 20
476.7632261036311
 11
715.68241314327906
 21
476.7632261036311
  0
LINE
  8
_0-1_1_5
  6
CENTER2
 62
    7
 10
720.68241314327906
 20
480.76322610363115
 11
720.68241314327906
 21
472.76322610363115
  0
LINE
  8
_0-1_1_5
  6
CENTER2
 62
    7
 10
724.68241314327906
 20
476.7632261036311
 11
724.68241314327906
 21
476.7632261036311
  0
LINE
  8
_0-1_1_5
  6
CENTER2
 62
    7
 10
724.68241314327906
 20
476.7632261036311
 11
724.62164415532789
 21
477.31890027216525
  0
LINE
  8
_0-1_1_5
  6
CENTER2
 62
    7
 10
724.62164415532789
 20
477.31890027216525
 11
724.44118362642268
 21
477.85769056227326
  0
LINE
  8
_0-1_1_5
  6
CENTER2
 62
    7
 10
724.44118362642268
 20
477.85769056227326
 11
724.14651475841686
 21
478.36322610363112
  0
LINE
  8
_0-1_1_5
  6
CENTER2
 62
    7
 10
724.14651475841686
 20
478.36322610363112
 11
723.74659091575495
 21
478.820146454628
  0
LINE
  8
_0-1_1_5
  6
CENTER2
 62
    7
 10
723.74659091575495
 20
478.820146454628
 11
723.25356358202521
 21
479.21456832161181
  0
LINE
  8
_0-1_1_5
  6
CENTER2
 62
    7
 10
723.25356358202521
 20
479.21456832161181
 11
722.68241314327906
 21
479.53450739574129
  0
LINE
  8
_0-1_1_5
  6
CENTER2
 62
    7
 10
722.68241314327906
 20
479.53450739574129
 11
722.05049371658174
 21
479.77024249014602
  0
LINE
  8
_0-1_1_5
  6
CENTER2
 62
    7
 10
722.05049371658174
 20
479.77024249014602
 11
721.3770058539468
 21
479.91461091327017
  0
LINE
  8
_0-1_1_5
  6
CENTER2
 62
    7
 10
721.3770058539468
 20
479.91461091327017
 11
720.68241314327906
 21
479.96322610363109
  0
LINE
  8
_0-1_1_5
  6
CENTER2
 62
    7
 10
720.68241314327906
 20
479.96322610363109
 11
719.98782043261133
 21
479.91461091327017
  0
LINE
  8
_0-1_1_5
  6
CENTER2
 62
    7
 10
719.98782043261133
 20
479.91461091327017
 11
719.31433256997639
 21
479.77024249014602
  0
LINE
  8
_0-1_1_5
  6
CENTER2
 62
    7
 10
719.31433256997639
 20
479.77024249014602
 11
718.68241314327906
 21
479.53450739574129
  0
LINE
  8
_0-1_1_5
  6
CENTER2
 62
    7
 10
718.68241314327906
 20
479.53450739574129
 11
718.11126270453292
 21
479.21456832161181
  0
LINE
  8
_0-1_1_5
  6
CENTER2
 62
    7
 10
718.11126270453292
 20
479.21456832161181
 11
717.61823537080318
 21
478.820146454628
  0
LINE
  8
_0-1_1_5
  6
CENTER2
 62
    7
 10
717.61823537080318
 20
478.820146454628
 11
717.21831152814127
 21
478.36322610363112
  0
LINE
  8
_0-1_1_5
  6
CENTER2
 62
    7
 10
717.21831152814127
 20
478.36322610363112
 11
716.92364266013544
 21
477.85769056227326
  0
LINE
  8
_0-1_1_5
  6
CENTER2
 62
    7
 10
716.92364266013544
 20
477.85769056227326
 11
716.74318213123024
 21
477.31890027216525
  0
LINE
  8
_0-1_1_5
  6
CENTER2
 62
    7
 10
716.74318213123024
 20
477.31890027216525
 11
716.68241314327906
 21
476.7632261036311
  0
LINE
  8
_0-1_1_5
  6
CENTER2
 62
    7
 10
716.68241314327906
 20
476.7632261036311
 11
716.74318213123024
 21
476.20755193509694
  0
LINE
  8
_0-1_1_5
  6
CENTER2
 62
    7
 10
716.74318213123024
 20
476.20755193509694
 11
716.92364266013544
 21
475.66876164498899
  0
LINE
  8
_0-1_1_5
  6
CENTER2
 62
    7
 10
716.92364266013544
 20
475.66876164498899
 11
717.21831152814127
 21
475.16322610363113
  0
LINE
  8
_0-1_1_5
  6
CENTER2
 62
    7
 10
717.21831152814127
 20
475.16322610363113
 11
717.61823537080318
 21
474.70630575263419
  0
LINE
  8
_0-1_1_5
  6
CENTER2
 62
    7
 10
717.61823537080318
 20
474.70630575263419
 11
718.11126270453292
 21
474.31188388565039
  0
LINE
  8
_0-1_1_5
  6
CENTER2
 62
    7
 10
718.11126270453292
 20
474.31188388565039
 11
718.68241314327906
 21
473.99194481152091
  0
LINE
  8
_0-1_1_5
  6
CENTER2
 62
    7
 10
718.68241314327906
 20
473.99194481152091
 11
719.31433256997639
 21
473.75620971711618
  0
LINE
  8
_0-1_1_5
  6
CENTER2
 62
    7
 10
719.31433256997639
 20
473.75620971711618
 11
719.98782043261133
 21
473.61184129399203
  0
LINE
  8
_0-1_1_5
  6
CENTER2
 62
    7
 10
719.98782043261133
 20
473.61184129399203
 11
720.68241314327906
 21
473.56322610363111
  0
LINE
  8
_0-1_1_5
  6
CENTER2
 62
    7
 10
720.68241314327906
 20
473.56322610363111
 11
721.3770058539468
 21
473.61184129399203
  0
LINE
  8
_0-1_1_5
  6
CENTER2
 62
    7
 10
721.3770058539468
 20
473.61184129399203
 11
722.05049371658174
 21
473.75620971711618
  0
LINE
  8
_0-1_1_5
  6
CENTER2
 62
    7
 10
722.05049371658174
 20
473.75620971711618
 11
722.68241314327906
 21
473.99194481152091
  0
LINE
  8
_0-1_1_5
  6
CENTER2
 62
    7
 10
722.68241314327906
 20
473.99194481152091
 11
723.25356358202521
 21
474.31188388565039
  0
LINE
  8
_0-1_1_5
  6
CENTER2
 62
    7
 10
723.25356358202521
 20
474.31188388565039
 11
723.74659091575495
 21
474.70630575263414
  0
LINE
  8
_0-1_1_5
  6
CENTER2
 62
    7
 10
723.74659091575495
 20
474.70630575263414
 11
724.14651475841686
 21
475.16322610363108
  0
LINE
  8
_0-1_1_5
  6
CENTER2
 62
    7
 10
724.14651475841686
 20
475.16322610363108
 11
724.44118362642268
 21
475.66876164498893
  0
LINE
  8
_0-1_1_5
  6
CENTER2
 62
    7
 10
724.44118362642268
 20
475.66876164498893
 11
724.62164415532789
 21
476.20755193509689
  0
LINE
  8
_0-1_1_5
  6
CENTER2
 62
    7
 10
724.62164415532789
 20
476.20755193509689
 11
724.68241314327906
 21
476.7632261036311
  0
LINE
  8
_0-1_1_5
  6
CENTER2
 62
    7
 10
724.68241314327906
 20
476.7632261036311
 11
724.68241314327906
 21
476.7632261036311
  0
LINE
  8
_0-1_1_5
  6
CENTER2
 62
    7
 10
724.68241314327906
 20
456.97500648808648
 11
724.68241314327906
 21
456.97500648808648
  0
LINE
  8
_0-1_1_5
  6
CENTER2
 62
    7
 10
724.68241314327906
 20
456.97500648808648
 11
724.62164415532789
 21
457.53068065662063
  0
LINE
  8
_0-1_1_5
  6
CENTER2
 62
    7
 10
724.62164415532789
 20
457.53068065662063
 11
724.44118362642268
 21
458.06947094672864
  0
LINE
  8
_0-1_1_5
  6
CENTER2
 62
    7
 10
724.44118362642268
 20
458.06947094672864
 11
724.14651475841686
 21
458.5750064880865
  0
LINE
  8
_0-1_1_5
  6
CENTER2
 62
    7
 10
724.14651475841686
 20
458.5750064880865
 11
723.74659091575495
 21
459.03192683908338
  0
LINE
  8
_0-1_1_5
  6
CENTER2
 62
    7
 10
723.74659091575495
 20
459.03192683908338
 11
723.25356358202521
 21
459.42634870606719
  0
LINE
  8
_0-1_1_5
  6
CENTER2
 62
    7
 10
723.25356358202521
 20
459.42634870606719
 11
722.68241314327906
 21
459.74628778019667
  0
LINE
  8
_0-1_1_5
  6
CENTER2
 62
    7
 10
722.68241314327906
 20
459.74628778019667
 11
722.05049371658174
 21
459.9820228746014
  0
LINE
  8
_0-1_1_5
  6
CENTER2
 62
    7
 10
722.05049371658174
 20
459.9820228746014
 11
721.3770058539468
 21
460.12639129772555
  0
LINE
  8
_0-1_1_5
  6
CENTER2
 62
    7
 10
721.3770058539468
 20
460.12639129772555
 11
720.68241314327906
 21
460.17500648808647
  0
LINE
  8
_0-1_1_5
  6
CENTER2
 62
    7
 10
720.68241314327906
 20
460.17500648808647
 11
719.98782043261133
 21
460.12639129772555
  0
LINE
  8
_0-1_1_5
  6
CENTER2
 62
    7
 10
719.98782043261133
 20
460.12639129772555
 11
719.31433256997639
 21
459.9820228746014
  0
LINE
  8
_0-1_1_5
  6
CENTER2
 62
    7
 10
719.31433256997639
 20
459.9820228746014
 11
718.68241314327906
 21
459.74628778019667
  0
LINE
  8
_0-1_1_5
  6
CENTER2
 62
    7
 10
718.68241314327906
 20
459.74628778019667
 11
718.11126270453292
 21
459.42634870606719
  0
LINE
  8
_0-1_1_5
  6
CENTER2
 62
    7
 10
718.11126270453292
 20
459.42634870606719
 11
717.61823537080318
 21
459.03192683908338
  0
LINE
  8
_0-1_1_5
  6
CENTER2
 62
    7
 10
717.61823537080318
 20
459.03192683908338
 11
717.21831152814127
 21
458.5750064880865
  0
LINE
  8
_0-1_1_5
  6
CENTER2
 62
    7
 10
717.21831152814127
 20
458.5750064880865
 11
716.92364266013544
 21
458.06947094672864
  0
LINE
  8
_0-1_1_5
  6
CENTER2
 62
    7
 10
716.92364266013544
 20
458.06947094672864
 11
716.74318213123024
 21
457.53068065662063
  0
LINE
  8
_0-1_1_5
  6
CENTER2
 62
    7
 10
716.74318213123024
 20
457.53068065662063
 11
716.68241314327906
 21
456.97500648808648
  0
LINE
  8
_0-1_1_5
  6
CENTER2
 62
    7
 10
716.68241314327906
 20
456.97500648808648
 11
716.74318213123024
 21
456.41933231955232
  0
LINE
  8
_0-1_1_5
  6
CENTER2
 62
    7
 10
716.74318213123024
 20
456.41933231955232
 11
716.92364266013544
 21
455.88054202944437
  0
LINE
  8
_0-1_1_5
  6
CENTER2
 62
    7
 10
716.92364266013544
 20
455.88054202944437
 11
717.21831152814127
 21
455.37500648808646
  0
LINE
  8
_0-1_1_5
  6
CENTER2
 62
    7
 10
717.21831152814127
 20
455.37500648808646
 11
717.61823537080318
 21
454.91808613708957
  0
LINE
  8
_0-1_1_5
  6
CENTER2
 62
    7
 10
717.61823537080318
 20
454.91808613708957
 11
718.11126270453292
 21
454.52366427010577
  0
LINE
  8
_0-1_1_5
  6
CENTER2
 62
    7
 10
718.11126270453292
 20
454.52366427010577
 11
718.68241314327906
 21
454.20372519597629
  0
LINE
  8
_0-1_1_5
  6
CENTER2
 62
    7
 10
718.68241314327906
 20
454.20372519597629
 11
719.31433256997639
 21
453.96799010157156
  0
LINE
  8
_0-1_1_5
  6
CENTER2
 62
    7
 10
719.31433256997639
 20
453.96799010157156
 11
719.98782043261133
 21
453.82362167844741
  0
LINE
  8
_0-1_1_5
  6
CENTER2
 62
    7
 10
719.98782043261133
 20
453.82362167844741
 11
720.68241314327906
 21
453.77500648808649
  0
LINE
  8
_0-1_1_5
  6
CENTER2
 62
    7
 10
720.68241314327906
 20
453.77500648808649
 11
721.3770058539468
 21
453.82362167844741
  0
LINE
  8
_0-1_1_5
  6
CENTER2
 62
    7
 10
721.3770058539468
 20
453.82362167844741
 11
722.05049371658174
 21
453.96799010157156
  0
LINE
  8
_0-1_1_5
  6
CENTER2
 62
    7
 10
722.05049371658174
 20
453.96799010157156
 11
722.68241314327906
 21
454.20372519597629
  0
LINE
  8
_0-1_1_5
  6
CENTER2
 62
    7
 10
722.68241314327906
 20
454.20372519597629
 11
723.25356358202521
 21
454.52366427010577
  0
LINE
  8
_0-1_1_5
  6
CENTER2
 62
    7
 10
723.25356358202521
 20
454.52366427010577
 11
723.74659091575495
 21
454.91808613708952
  0
LINE
  8
_0-1_1_5
  6
CENTER2
 62
    7
 10
723.74659091575495
 20
454.91808613708952
 11
724.14651475841686
 21
455.37500648808646
  0
LINE
  8
_0-1_1_5
  6
CENTER2
 62
    7
 10
724.14651475841686
 20
455.37500648808646
 11
724.44118362642268
 21
455.88054202944431
  0
LINE
  8
_0-1_1_5
  6
CENTER2
 62
    7
 10
724.44118362642268
 20
455.88054202944431
 11
724.62164415532789
 21
456.41933231955227
  0
LINE
  8
_0-1_1_5
  6
CENTER2
 62
    7
 10
724.62164415532789
 20
456.41933231955227
 11
724.68241314327906
 21
456.97500648808648
  0
LINE
  8
_0-1_1_5
  6
CENTER2
 62
    7
 10
724.68241314327906
 20
456.97500648808648
 11
724.68241314327906
 21
456.97500648808648
  0
LINE
  8
_0-1_1_5
  6
CENTER2
 62
    7
 10
725.68241314327906
 20
456.97500648808648
 11
715.68241314327906
 21
456.97500648808648
  0
LINE
  8
_0-1_1_5
  6
CENTER2
 62
    7
 10
720.68241314327906
 20
452.97500648808648
 11
720.68241314327906
 21
460.97500648808654
  0
LINE
  8
_0-1_1_5
  6
CENTER2
 62
    7
 10
709.68241314327906
 20
486.86911629585882
 11
731.68241314327929
 21
486.86911629585882
  0
LINE
  8
_0-1_1_5
  6
CENTER2
 62
    7
 10
731.68241314327929
 20
486.86911629585882
 11
734.68241314327906
 21
483.86911629585882
  0
LINE
  8
_0-1_1_5
  6
CENTER2
 62
    7
 10
734.68241314327906
 20
449.86911629585876
 11
734.68241314327906
 21
483.86911629585882
  0
LINE
  8
_0-1_1_5
  6
CENTER2
 62
    7
 10
734.68241314327906
 20
449.86911629585876
 11
731.68241314327929
 21
446.86911629585882
  0
LINE
  8
_0-1_1_5
  6
CENTER2
 62
    7
 10
709.68241314327906
 20
446.86911629585882
 11
731.68241314327929
 21
446.86911629585882
  0
LINE
  8
_0-1_1_5
  6
CENTER2
 62
    7
 10
709.68241314327906
 20
446.86911629585882
 11
706.68241314327929
 21
449.86911629585876
  0
LINE
  8
_0-1_1_5
  6
CENTER2
 62
    7
 10
706.68241314327929
 20
483.86911629585882
 11
706.68241314327929
 21
449.86911629585876
  0
LINE
  8
_0-1_1_5
  6
CENTER2
 62
    7
 10
706.68241314327929
 20
483.86911629585882
 11
709.68241314327906
 21
486.86911629585882
  0
ARC
  8
_0-1_1_5
  6
CONTINUOUS
 62
    7
 10
720.68241314327906
 20
466.86911629585882
 40
25
 50
191.53695903281547
 51
168.46304096718453
  0
LINE
  8
_0-1_1_5
  6
CONTINUOUS
 62
    7
 10
120.68241314327906
 20
332.22403960028038
 11
118.93251114898305
 21
326.59910884136127
  0
LINE
  8
_0-1_1_5
  6
CONTINUOUS
 62
    7
 10
120.68241314327906
 20
332.22403960028038
 11
122.43231513757507
 21
326.59910884136127
  0
LINE
  8
_0-1_1_5
  6
CONTINUOUS
 62
    7
 10
122.43231513757507
 20
288.02509045975125
 11
122.43231513757507
 21
326.59910884136127
  0
LINE
  8
_0-1_1_5
  6
CONTINUOUS
 62
    7
 10
118.93251114898305
 20
288.06191273667821
 11
118.93251114898305
 21
326.59855491271344
  0
LINE
  8
_0-1_1_5
  6
CONTINUOUS
 62
    7
 10
122.31550488453109
 20
298.47445504676659
 11
118.81570089593936
 21
299.88068773649604
  0
LINE
  8
_0-1_1_5
  6
CONTINUOUS
 62
    7
 10
122.31550488453109
 20
299.88068773649604
 11
118.81570089593936
 21
301.28692042622617
  0
LINE
  8
_0-1_1_5
  6
CONTINUOUS
 62
    7
 10
122.31550488453109
 20
301.28692042622617
 11
118.81570089593936
 21
302.69315311595562
  0
LINE
  8
_0-1_1_5
  6
CONTINUOUS
 62
    7
 10
122.31550488453109
 20
302.69315311595562
 11
118.81570089593936
 21
304.09938580568553
  0
LINE
  8
_0-1_1_5
  6
CONTINUOUS
 62
    7
 10
122.31550488453109
 20
304.09938580568553
 11
118.81570089593936
 21
305.50561849541498
  0
LINE
  8
_0-1_1_5
  6
CONTINUOUS
 62
    7
 10
122.31550488453109
 20
305.50561849541498
 11
118.81570089593936
 21
306.91185118514511
  0
LINE
  8
_0-1_1_5
  6
CONTINUOUS
 62
    7
 10
122.31550488453109
 20
311.13054925433431
 11
118.81570089593936
 21
312.53678194406405
  0
LINE
  8
_0-1_1_5
  6
CONTINUOUS
 62
    7
 10
122.31550488453109
 20
309.72431656460446
 11
118.81570089593936
 21
311.13054925433431
  0
LINE
  8
_0-1_1_5
  6
CONTINUOUS
 62
    7
 10
122.31550488453109
 20
312.53678194406405
 11
118.81570089593936
 21
313.94301463379361
  0
LINE
  8
_0-1_1_5
  6
CONTINUOUS
 62
    7
 10
122.31550488453109
 20
313.94301463379361
 11
118.81570089593936
 21
315.3492473235234
  0
LINE
  8
_0-1_1_5
  6
CONTINUOUS
 62
    7
 10
122.31550488453109
 20
315.3492473235234
 11
118.81570089593936
 21
316.75548001325302
  0
LINE
  8
_0-1_1_5
  6
CONTINUOUS
 62
    7
 10
122.31550488453109
 20
316.75548001325302
 11
118.81570089593936
 21
318.16171270298298
  0
LINE
  8
_0-1_1_5
  6
CONTINUOUS
 62
    7
 10
122.31550488453109
 20
318.16171270298298
 11
118.81570089593936
 21
319.56794539271266
  0
LINE
  8
_0-1_1_5
  6
CONTINUOUS
 62
    7
 10
122.31550488453109
 20
319.56794539271266
 11
118.81570089593936
 21
320.97417808244234
  0
LINE
  8
_0-1_1_5
  6
CONTINUOUS
 62
    7
 10
122.31550488453109
 20
306.91185118514511
 11
118.81570089593936
 21
308.31808387487456
  0
LINE
  8
_0-1_1_5
  6
CONTINUOUS
 62
    7
 10
122.31550488453109
 20
320.97417808244234
 11
118.81570089593936
 21
322.38041077217224
  0
LINE
  8
_0-1_1_5
  6
CONTINUOUS
 62
    7
 10
122.31550488453109
 20
323.78664346190192
 11
118.81570089593936
 21
325.19287615163182
  0
LINE
  8
_0-1_1_5
  6
CONTINUOUS
 62
    7
 10
122.31550488453109
 20
325.19287615163182
 11
118.81570089593936
 21
326.59910884136127
  0
LINE
  8
_0-1_1_5
  6
CONTINUOUS
 62
    7
 10
122.31550488453109
 20
322.38041077217224
 11
118.81570089593936
 21
323.78664346190192
  0
LINE
  8
_0-1_1_5
  6
CONTINUOUS
 62
    7
 10
122.31550488453109
 20
308.31808387487456
 11
118.81570089593936
 21
309.72431656460446
  0
LINE
  8
_0-1_1_5
  6
CONTINUOUS
 62
    7
 10
122.31550488453109
 20
297.07445504676639
 11
118.81570089593936
 21
298.48068773649618
  0
LINE
  8
_0-1_1_5
  6
CONTINUOUS
 62
    7
 10
122.31550488453109
 20
295.67445504676652
 11
118.81570089593936
 21
297.08068773649632
  0
LINE
  8
_0-1_1_5
  6
CONTINUOUS
 62
    7
 10
122.31550488453109
 20
294.27445504676655
 11
118.81570089593936
 21
295.68068773649611
  0
LINE
  8
_0-1_1_5
  6
CONTINUOUS
 62
    7
 10
122.31550488453109
 20
292.87445504676668
 11
118.81570089593936
 21
294.28068773649625
  0
LINE
  8
_0-1_1_5
  6
CENTER2
 62
    7
 10
122.31550488453109
 20
290.07445504676667
 11
118.81570089593936
 21
291.48068773649641
  0
LINE
  8
_0-1_1_5
  6
CENTER2
 62
    7
 10
122.31550488453109
 20
288.67445504676664
 11
118.81570089593936
 21
290.08068773649654
  0
LINE
  8
_0-1_1_5
  6
CENTER2
 62
    7
 10
120.44733837728842
 20
288.0250904597516
 11
118.81570089593936
 21
288.68068773649622
  0
LINE
  8
_0-1_1_5
  6
CENTER2
 62
    7
 10
117.18241314327912
 20
286.27499245404749
 11
118.93251114898305
 21
288.0250904597516
  0
LINE
  8
_0-1_1_5
  6
CENTER2
 62
    7
 10
124.18241314327901
 20
286.27499245404749
 11
122.43231513757507
 21
288.02509045975125
  0
LINE
  8
_0-1_1_5
  6
CENTER2
 62
    7
 10
118.93251114898305
 20
288.0250904597516
 11
122.43231513757507
 21
288.0250904597516
  0
LINE
  8
_0-1_1_5
  6
CENTER2
 62
    7
 10
134.68241314327912
 20
286.27499245404749
 11
106.68241314327901
 21
286.27499245404749
  0
LINE
  8
_0-1_1_5
  6
CENTER2
 62
    7
 10
106.68241314327901
 20
286.27499245404749
 11
106.68241314327901
 21
292.77499245404738
  0
LINE
  8
_0-1_1_5
  6
CENTER2
 62
    7
 10
134.68241314327912
 20
286.27499245404749
 11
134.68241314327912
 21
292.77499245404738
  0
LINE
  8
_0-1_1_5
  6
CONTINUOUS
 62
    7
 10
95.682413143279348
 20
282.77499245404738
 11
95.682413143279348
 21
292.77499245404738
  0
LINE
  8
_0-1_1_5
  6
CONTINUOUS
 62
    7
 10
145.68241314327906
 20
282.77499245404738
 11
145.68241314327906
 21
292.77499245404738
  0
LINE
  8
_0-1_1_5
  6
CONTINUOUS
 62
    7
 10
95.682413143279348
 20
292.77499245404738
 11
145.68241314327906
 21
292.77499245404738
  0
LINE
  8
_0-1_1_5
  6
CONTINUOUS
 62
    7
 10
95.682413143279348
 20
282.77499245404738
 11
145.68241314327906
 21
282.77499245404738
  0
LINE
  8
_0-1_1_5
  6
CONTINUOUS
 62
    7
 10
112.68241314327895
 20
222.77499245404732
 11
128.68241314327918
 21
222.77499245404732
  0
LINE
  8
_0-1_1_5
  6
CONTINUOUS
 62
    7
 10
128.68241314327918
 20
237.77499245404749
 11
128.68241314327918
 21
237.77499245404749
  0
LINE
  8
_0-1_1_5
  6
CONTINUOUS
 62
    7
 10
128.68241314327918
 20
237.77499245404749
 11
128.37852883236204
 21
237.69903121910852
  0
LINE
  8
_0-1_1_5
  6
CONTINUOUS
 62
    7
 10
128.37852883236204
 20
237.69903121910852
 11
128.08387789245927
 21
237.47345555797705
  0
LINE
  8
_0-1_1_5
  6
CONTINUOUS
 62
    7
 10
128.08387789245927
 20
237.47345555797705
 11
127.80741314327918
 21
237.10511947296968
  0
LINE
  8
_0-1_1_5
  6
CONTINUOUS
 62
    7
 10
127.80741314327918
 20
237.10511947296968
 11
127.55753482632774
 21
236.60521466964238
  0
LINE
  8
_0-1_1_5
  6
CONTINUOUS
 62
    7
 10
127.55753482632774
 20
236.60521466964238
 11
127.34183536782096
 21
235.9889305024802
  0
LINE
  8
_0-1_1_5
  6
CONTINUOUS
 62
    7
 10
127.34183536782096
 20
235.9889305024802
 11
127.16686868665641
 21
235.27499245404749
  0
LINE
  8
_0-1_1_5
  6
CONTINUOUS
 62
    7
 10
127.16686868665641
 20
235.27499245404749
 11
127.03795105690384
 21
234.48509317067584
  0
LINE
  8
_0-1_1_5
  6
CONTINUOUS
 62
    7
 10
127.03795105690384
 20
234.48509317067584
 11
126.95899957550782
 21
233.64323334238216
  0
LINE
  8
_0-1_1_5
  6
CONTINUOUS
 62
    7
 10
126.95899957550782
 20
233.64323334238216
 11
126.93241314327918
 21
232.77499245404749
  0
LINE
  8
_0-1_1_5
  6
CONTINUOUS
 62
    7
 10
126.93241314327918
 20
232.77499245404749
 11
126.95899957550782
 21
231.90675156571285
  0
LINE
  8
_0-1_1_5
  6
CONTINUOUS
 62
    7
 10
126.95899957550782
 20
231.90675156571285
 11
127.03795105690384
 21
231.06489173741915
  0
LINE
  8
_0-1_1_5
  6
CONTINUOUS
 62
    7
 10
127.03795105690384
 20
231.06489173741915
 11
127.16686868665641
 21
230.27499245404749
  0
LINE
  8
_0-1_1_5
  6
CONTINUOUS
 62
    7
 10
127.16686868665641
 20
230.27499245404749
 11
127.34183536782096
 21
229.56105440561481
  0
LINE
  8
_0-1_1_5
  6
CONTINUOUS
 62
    7
 10
127.34183536782096
 20
229.56105440561481
 11
127.55753482632772
 21
228.94477023845261
  0
LINE
  8
_0-1_1_5
  6
CONTINUOUS
 62
    7
 10
127.55753482632772
 20
228.94477023845261
 11
127.80741314327918
 21
228.44486543512531
  0
LINE
  8
_0-1_1_5
  6
CONTINUOUS
 62
    7
 10
127.80741314327918
 20
228.44486543512531
 11
128.08387789245924
 21
228.07652935011797
  0
LINE
  8
_0-1_1_5
  6
CONTINUOUS
 62
    7
 10
128.08387789245924
 20
228.07652935011797
 11
128.37852883236204
 21
227.85095368898646
  0
LINE
  8
_0-1_1_5
  6
CONTINUOUS
 62
    7
 10
128.37852883236204
 20
227.85095368898646
 11
128.68241314327918
 21
227.77499245404749
  0
LINE
  8
_0-1_1_5
  6
CONTINUOUS
 62
    7
 10
128.68241314327918
 20
227.77499245404749
 11
128.68241314327918
 21
227.77499245404749
  0
LINE
  8
_0-1_1_5
  6
CONTINUOUS
 62
    7
 10
128.68241314327918
 20
222.77499245404732
 11
128.68241314327918
 21
227.77499245404732
  0
LINE
  8
_0-1_1_5
  6
CONTINUOUS
 62
    7
 10
112.68241314327895
 20
222.77499245404732
 11
112.68241314327895
 21
282.77499245404738
  0
LINE
  8
_0-1_1_5
  6
CONTINUOUS
 62
    7
 10
128.68241314327918
 20
237.77499245404741
 11
128.68241314327918
 21
282.77499245404738
  0
CIRCLE
  8
_0-1_1_5
  6
CONTINUOUS
 62
    7
 10
120.68241314327906
 20
466.86911629585882
 40
8
  0
LINE
  8
_0-1_1_5
  6
CENTER2
 62
    7
 10
125.68241314327906
 20
476.7632261036311
 11
115.68241314327906
 21
476.7632261036311
  0
LINE
  8
_0-1_1_5
  6
CENTER2
 62
    7
 10
120.68241314327906
 20
480.76322610363115
 11
120.68241314327906
 21
472.76322610363115
  0
LINE
  8
_0-1_1_5
  6
CENTER2
 62
    7
 10
124.68241314327906
 20
476.7632261036311
 11
124.68241314327906
 21
476.7632261036311
  0
LINE
  8
_0-1_1_5
  6
CENTER2
 62
    7
 10
124.68241314327906
 20
476.7632261036311
 11
124.6216441553279
 21
477.31890027216525
  0
LINE
  8
_0-1_1_5
  6
CENTER2
 62
    7
 10
124.6216441553279
 20
477.31890027216525
 11
124.4411836264227
 21
477.85769056227326
  0
LINE
  8
_0-1_1_5
  6
CENTER2
 62
    7
 10
124.4411836264227
 20
477.85769056227326
 11
124.14651475841681
 21
478.36322610363112
  0
LINE
  8
_0-1_1_5
  6
CENTER2
 62
    7
 10
124.14651475841681
 20
478.36322610363112
 11
123.74659091575498
 21
478.820146454628
  0
LINE
  8
_0-1_1_5
  6
CENTER2
 62
    7
 10
123.74659091575498
 20
478.820146454628
 11
123.25356358202522
 21
479.21456832161181
  0
LINE
  8
_0-1_1_5
  6
CENTER2
 62
    7
 10
123.25356358202522
 20
479.21456832161181
 11
122.68241314327906
 21
479.53450739574129
  0
LINE
  8
_0-1_1_5
  6
CENTER2
 62
    7
 10
122.68241314327906
 20
479.53450739574129
 11
122.05049371658174
 21
479.77024249014602
  0
LINE
  8
_0-1_1_5
  6
CENTER2
 62
    7
 10
122.05049371658174
 20
479.77024249014602
 11
121.37700585394678
 21
479.91461091327017
  0
LINE
  8
_0-1_1_5
  6
CENTER2
 62
    7
 10
121.37700585394678
 20
479.91461091327017
 11
120.68241314327906
 21
479.96322610363109
  0
LINE
  8
_0-1_1_5
  6
CENTER2
 62
    7
 10
120.68241314327906
 20
479.96322610363109
 11
119.98782043261134
 21
479.91461091327017
  0
LINE
  8
_0-1_1_5
  6
CENTER2
 62
    7
 10
119.98782043261134
 20
479.91461091327017
 11
119.31433256997639
 21
479.77024249014602
  0
LINE
  8
_0-1_1_5
  6
CENTER2
 62
    7
 10
119.31433256997639
 20
479.77024249014602
 11
118.68241314327906
 21
479.53450739574129
  0
LINE
  8
_0-1_1_5
  6
CENTER2
 62
    7
 10
118.68241314327906
 20
479.53450739574129
 11
118.1112627045329
 21
479.21456832161181
  0
LINE
  8
_0-1_1_5
  6
CENTER2
 62
    7
 10
118.1112627045329
 20
479.21456832161181
 11
117.61823537080315
 21
478.820146454628
  0
LINE
  8
_0-1_1_5
  6
CENTER2
 62
    7
 10
117.61823537080315
 20
478.820146454628
 11
117.21831152814131
 21
478.36322610363112
  0
LINE
  8
_0-1_1_5
  6
CENTER2
 62
    7
 10
117.21831152814131
 20
478.36322610363112
 11
116.92364266013543
 21
477.85769056227326
  0
LINE
  8
_0-1_1_5
  6
CENTER2
 62
    7
 10
116.92364266013543
 20
477.85769056227326
 11
116.74318213123023
 21
477.31890027216525
  0
LINE
  8
_0-1_1_5
  6
CENTER2
 62
    7
 10
116.74318213123023
 20
477.31890027216525
 11
116.68241314327906
 21
476.7632261036311
  0
LINE
  8
_0-1_1_5
  6
CENTER2
 62
    7
 10
116.68241314327906
 20
476.7632261036311
 11
116.74318213123023
 21
476.20755193509694
  0
LINE
  8
_0-1_1_5
  6
CENTER2
 62
    7
 10
116.74318213123023
 20
476.20755193509694
 11
116.92364266013543
 21
475.66876164498899
  0
LINE
  8
_0-1_1_5
  6
CENTER2
 62
    7
 10
116.92364266013543
 20
475.66876164498899
 11
117.2183115281413
 21
475.16322610363113
  0
LINE
  8
_0-1_1_5
  6
CENTER2
 62
    7
 10
117.2183115281413
 20
475.16322610363113
 11
117.61823537080315
 21
474.70630575263419
  0
LINE
  8
_0-1_1_5
  6
CENTER2
 62
    7
 10
117.61823537080315
 20
474.70630575263419
 11
118.1112627045329
 21
474.31188388565039
  0
LINE
  8
_0-1_1_5
  6
CENTER2
 62
    7
 10
118.1112627045329
 20
474.31188388565039
 11
118.68241314327905
 21
473.99194481152091
  0
LINE
  8
_0-1_1_5
  6
CENTER2
 62
    7
 10
118.68241314327905
 20
473.99194481152091
 11
119.31433256997639
 21
473.75620971711618
  0
LINE
  8
_0-1_1_5
  6
CENTER2
 62
    7
 10
119.31433256997639
 20
473.75620971711618
 11
119.98782043261133
 21
473.61184129399203
  0
LINE
  8
_0-1_1_5
  6
CENTER2
 62
    7
 10
119.98782043261133
 20
473.61184129399203
 11
120.68241314327905
 21
473.56322610363111
  0
LINE
  8
_0-1_1_5
  6
CENTER2
 62
    7
 10
120.68241314327905
 20
473.56322610363111
 11
121.37700585394677
 21
473.61184129399203
  0
LINE
  8
_0-1_1_5
  6
CENTER2
 62
    7
 10
121.37700585394677
 20
473.61184129399203
 11
122.05049371658173
 21
473.75620971711618
  0
LINE
  8
_0-1_1_5
  6
CENTER2
 62
    7
 10
122.05049371658173
 20
473.75620971711618
 11
122.68241314327905
 21
473.99194481152091
  0
LINE
  8
_0-1_1_5
  6
CENTER2
 62
    7
 10
122.68241314327905
 20
473.99194481152091
 11
123.25356358202521
 21
474.31188388565039
  0
LINE
  8
_0-1_1_5
  6
CENTER2
 62
    7
 10
123.25356358202521
 20
474.31188388565039
 11
123.74659091575496
 21
474.70630575263414
  0
LINE
  8
_0-1_1_5
  6
CENTER2
 62
    7
 10
123.74659091575496
 20
474.70630575263414
 11
124.14651475841681
 21
475.16322610363108
  0
LINE
  8
_0-1_1_5
  6
CENTER2
 62
    7
 10
124.14651475841681
 20
475.16322610363108
 11
124.44118362642268
 21
475.66876164498893
  0
LINE
  8
_0-1_1_5
  6
CENTER2
 62
    7
 10
124.44118362642268
 20
475.66876164498893
 11
124.62164415532789
 21
476.20755193509689
  0
LINE
  8
_0-1_1_5
  6
CENTER2
 62
    7
 10
124.62164415532789
 20
476.20755193509689
 11
124.68241314327906
 21
476.7632261036311
  0
LINE
  8
_0-1_1_5
  6
CENTER2
 62
    7
 10
124.68241314327906
 20
476.7632261036311
 11
124.68241314327906
 21
476.7632261036311
  0
LINE
  8
_0-1_1_5
  6
CENTER2
 62
    7
 10
124.68241314327906
 20
456.97500648808648
 11
124.68241314327906
 21
456.97500648808648
  0
LINE
  8
_0-1_1_5
  6
CENTER2
 62
    7
 10
124.68241314327906
 20
456.97500648808648
 11
124.6216441553279
 21
457.53068065662063
  0
LINE
  8
_0-1_1_5
  6
CENTER2
 62
    7
 10
124.6216441553279
 20
457.53068065662063
 11
124.4411836264227
 21
458.06947094672864
  0
LINE
  8
_0-1_1_5
  6
CENTER2
 62
    7
 10
124.4411836264227
 20
458.06947094672864
 11
124.14651475841681
 21
458.5750064880865
  0
LINE
  8
_0-1_1_5
  6
CENTER2
 62
    7
 10
124.14651475841681
 20
458.5750064880865
 11
123.74659091575498
 21
459.03192683908338
  0
LINE
  8
_0-1_1_5
  6
CENTER2
 62
    7
 10
123.74659091575498
 20
459.03192683908338
 11
123.25356358202522
 21
459.42634870606719
  0
LINE
  8
_0-1_1_5
  6
CENTER2
 62
    7
 10
123.25356358202522
 20
459.42634870606719
 11
122.68241314327906
 21
459.74628778019667
  0
LINE
  8
_0-1_1_5
  6
CENTER2
 62
    7
 10
122.68241314327906
 20
459.74628778019667
 11
122.05049371658174
 21
459.9820228746014
  0
LINE
  8
_0-1_1_5
  6
CENTER2
 62
    7
 10
122.05049371658174
 20
459.9820228746014
 11
121.37700585394678
 21
460.12639129772555
  0
LINE
  8
_0-1_1_5
  6
CENTER2
 62
    7
 10
121.37700585394678
 20
460.12639129772555
 11
120.68241314327906
 21
460.17500648808647
  0
LINE
  8
_0-1_1_5
  6
CENTER2
 62
    7
 10
120.68241314327906
 20
460.17500648808647
 11
119.98782043261134
 21
460.12639129772555
  0
LINE
  8
_0-1_1_5
  6
CENTER2
 62
    7
 10
119.98782043261134
 20
460.12639129772555
 11
119.31433256997639
 21
459.9820228746014
  0
LINE
  8
_0-1_1_5
  6
CENTER2
 62
    7
 10
119.31433256997639
 20
459.9820228746014
 11
118.68241314327906
 21
459.74628778019667
  0
LINE
  8
_0-1_1_5
  6
CENTER2
 62
    7
 10
118.68241314327906
 20
459.74628778019667
 11
118.1112627045329
 21
459.42634870606719
  0
LINE
  8
_0-1_1_5
  6
CENTER2
 62
    7
 10
118.1112627045329
 20
459.42634870606719
 11
117.61823537080315
 21
459.03192683908338
  0
LINE
  8
_0-1_1_5
  6
CENTER2
 62
    7
 10
117.61823537080315
 20
459.03192683908338
 11
117.21831152814131
 21
458.5750064880865
  0
LINE
  8
_0-1_1_5
  6
CENTER2
 62
    7
 10
117.21831152814131
 20
458.5750064880865
 11
116.92364266013543
 21
458.06947094672864
  0
LINE
  8
_0-1_1_5
  6
CENTER2
 62
    7
 10
116.92364266013543
 20
458.06947094672864
 11
116.74318213123023
 21
457.53068065662063
  0
LINE
  8
_0-1_1_5
  6
CENTER2
 62
    7
 10
116.74318213123023
 20
457.53068065662063
 11
116.68241314327906
 21
456.97500648808648
  0
LINE
  8
_0-1_1_5
  6
CENTER2
 62
    7
 10
116.68241314327906
 20
456.97500648808648
 11
116.74318213123023
 21
456.41933231955232
  0
LINE
  8
_0-1_1_5
  6
CENTER2
 62
    7
 10
116.74318213123023
 20
456.41933231955232
 11
116.92364266013543
 21
455.88054202944437
  0
LINE
  8
_0-1_1_5
  6
CENTER2
 62
    7
 10
116.92364266013543
 20
455.88054202944437
 11
117.2183115281413
 21
455.37500648808646
  0
LINE
  8
_0-1_1_5
  6
CENTER2
 62
    7
 10
117.2183115281413
 20
455.37500648808646
 11
117.61823537080315
 21
454.91808613708957
  0
LINE
  8
_0-1_1_5
  6
CENTER2
 62
    7
 10
117.61823537080315
 20
454.91808613708957
 11
118.1112627045329
 21
454.52366427010577
  0
LINE
  8
_0-1_1_5
  6
CENTER2
 62
    7
 10
118.1112627045329
 20
454.52366427010577
 11
118.68241314327905
 21
454.20372519597629
  0
LINE
  8
_0-1_1_5
  6
CENTER2
 62
    7
 10
118.68241314327905
 20
454.20372519597629
 11
119.31433256997639
 21
453.96799010157156
  0
LINE
  8
_0-1_1_5
  6
CENTER2
 62
    7
 10
119.31433256997639
 20
453.96799010157156
 11
119.98782043261133
 21
453.82362167844741
  0
LINE
  8
_0-1_1_5
  6
CENTER2
 62
    7
 10
119.98782043261133
 20
453.82362167844741
 11
120.68241314327905
 21
453.77500648808649
  0
LINE
  8
_0-1_1_5
  6
CENTER2
 62
    7
 10
120.68241314327905
 20
453.77500648808649
 11
121.37700585394677
 21
453.82362167844741
  0
LINE
  8
_0-1_1_5
  6
CENTER2
 62
    7
 10
121.37700585394677
 20
453.82362167844741
 11
122.05049371658173
 21
453.96799010157156
  0
LINE
  8
_0-1_1_5
  6
CENTER2
 62
    7
 10
122.05049371658173
 20
453.96799010157156
 11
122.68241314327905
 21
454.20372519597629
  0
LINE
  8
_0-1_1_5
  6
CENTER2
 62
    7
 10
122.68241314327905
 20
454.20372519597629
 11
123.25356358202521
 21
454.52366427010577
  0
LINE
  8
_0-1_1_5
  6
CENTER2
 62
    7
 10
123.25356358202521
 20
454.52366427010577
 11
123.74659091575496
 21
454.91808613708952
  0
LINE
  8
_0-1_1_5
  6
CENTER2
 62
    7
 10
123.74659091575496
 20
454.91808613708952
 11
124.14651475841681
 21
455.37500648808646
  0
LINE
  8
_0-1_1_5
  6
CENTER2
 62
    7
 10
124.14651475841681
 20
455.37500648808646
 11
124.44118362642268
 21
455.88054202944431
  0
LINE
  8
_0-1_1_5
  6
CENTER2
 62
    7
 10
124.44118362642268
 20
455.88054202944431
 11
124.62164415532789
 21
456.41933231955227
  0
LINE
  8
_0-1_1_5
  6
CENTER2
 62
    7
 10
124.62164415532789
 20
456.41933231955227
 11
124.68241314327906
 21
456.97500648808648
  0
LINE
  8
_0-1_1_5
  6
CENTER2
 62
    7
 10
124.68241314327906
 20
456.97500648808648
 11
124.68241314327906
 21
456.97500648808648
  0
LINE
  8
_0-1_1_5
  6
CENTER2
 62
    7
 10
125.68241314327906
 20
456.97500648808648
 11
115.68241314327906
 21
456.97500648808648
  0
LINE
  8
_0-1_1_5
  6
CENTER2
 62
    7
 10
120.68241314327906
 20
452.97500648808648
 11
120.68241314327906
 21
460.97500648808654
  0
LINE
  8
_0-1_1_5
  6
CENTER2
 62
    7
 10
109.68241314327912
 20
486.86911629585882
 11
131.68241314327901
 21
486.86911629585882
  0
LINE
  8
_0-1_1_5
  6
CENTER2
 62
    7
 10
131.68241314327901
 20
486.86911629585882
 11
134.68241314327912
 21
483.86911629585882
  0
LINE
  8
_0-1_1_5
  6
CENTER2
 62
    7
 10
134.68241314327912
 20
449.86911629585876
 11
134.68241314327912
 21
483.86911629585882
  0
LINE
  8
_0-1_1_5
  6
CENTER2
 62
    7
 10
134.68241314327912
 20
449.86911629585876
 11
131.68241314327901
 21
446.86911629585882
  0
LINE
  8
_0-1_1_5
  6
CENTER2
 62
    7
 10
109.68241314327912
 20
446.86911629585882
 11
131.68241314327901
 21
446.86911629585882
  0
LINE
  8
_0-1_1_5
  6
CENTER2
 62
    7
 10
109.68241314327912
 20
446.86911629585882
 11
106.68241314327901
 21
449.86911629585876
  0
LINE
  8
_0-1_1_5
  6
CENTER2
 62
    7
 10
106.68241314327901
 20
483.86911629585882
 11
106.68241314327901
 21
449.86911629585876
  0
LINE
  8
_0-1_1_5
  6
CENTER2
 62
    7
 10
106.68241314327901
 20
483.86911629585882
 11
109.68241314327912
 21
486.86911629585882
  0
ARC
  8
_0-1_1_5
  6
CONTINUOUS
 62
    7
 10
120.68241314327906
 20
466.86911629585882
 40
25
 50
11.53695903281548
 51
348.4630409671845
  0
LINE
  8
_0-1_1_5
  6
CONTINUOUS
 62
    7
 10
126.92741114167745
 20
471.86911629585882
 11
714.43741514488067
 21
471.86911629585882
  0
LINE
  8
_0-1_1_5
  6
CONTINUOUS
 62
    7
 10
126.92741114167745
 20
461.86911629585882
 11
714.43741514488067
 21
461.86911629585882
  0
LINE
  8
_0-1_1_5
  6
CONTINUOUS
 62
    7
 10
128.68241314327918
 20
237.77499245404749
 11
712.68241314327895
 21
237.77499245404732
  0
LINE
  8
_0-1_1_5
  6
CONTINUOUS
 62
    7
 10
128.68241314327918
 20
227.77499245404732
 11
712.68241314327895
 21
227.77499245404732
  0
CIRCLE
  8
_0-1_1_5
  6
DASHED1
 62
    7
 10
952.94883877722827
 20
466.86911629585882
 40
5
  0
LINE
  8
_0-1_1_5
  6
CONTINUOUS
 62
    7
 10
1002.9488387772283
 20
441.86911629585882
 11
1012.9488387772283
 21
441.86911629585882
  0
LINE
  8
_0-1_1_5
  6
CONTINUOUS
 62
    7
 10
1012.9488387772283
 20
491.86911629585882
 11
1012.9488387772283
 21
441.86911629585882
  0
LINE
  8
_0-1_1_5
  6
CONTINUOUS
 62
    7
 10
1002.9488387772283
 20
491.86911629585882
 11
1002.9488387772283
 21
441.86911629585882
  0
LINE
  8
_0-1_1_5
  6
CONTINUOUS
 62
    7
 10
1002.9488387772283
 20
491.86911629585882
 11
1012.9488387772283
 21
491.86911629585882
  0
LINE
  8
_0-1_1_5
  6
CENTER2
 62
    7
 10
1012.9488387772283
 20
446.86911629585893
 11
1006.4488387772282
 21
450.62189304559149
  0
LINE
  8
_0-1_1_5
  6
CENTER2
 62
    7
 10
1006.4488387772282
 20
473.26322610363121
 11
1006.4488387772282
 21
480.26322610363115
  0
LINE
  8
_0-1_1_5
  6
CENTER2
 62
    7
 10
1006.4488387772282
 20
453.47500648808659
 11
1006.4488387772282
 21
460.47500648808659
  0
LINE
  8
_0-1_1_5
  6
CENTER2
 62
    7
 10
1006.4488387772282
 20
483.11633954612637
 11
1006.4488387772282
 21
450.62189304559149
  0
LINE
  8
_0-1_1_5
  6
CENTER2
 62
    7
 10
1012.9488387772283
 20
486.86911629585893
 11
1006.4488387772282
 21
483.11633954612637
  0
LINE
  8
_0-1_1_5
  6
CENTER2
 62
    7
 10
1008.1989367829324
 20
478.51312809792711
 11
1008.1989367829324
 21
475.01332410933526
  0
LINE
  8
_0-1_1_5
  6
CENTER2
 62
    7
 10
1006.4488387772282
 20
473.26322610363121
 11
1008.1989367829322
 21
475.01332410933526
  0
LINE
  8
_0-1_1_5
  6
CENTER2
 62
    7
 10
1006.4488387772282
 20
480.26322610363115
 11
1008.1989367829324
 21
478.51312809792711
  0
LINE
  8
_0-1_1_5
  6
CENTER2
 62
    7
 10
1008.1989367829324
 20
476.99830086962174
 11
1008.8545340596771
 21
478.62993835097092
  0
LINE
  8
_0-1_1_5
  6
CENTER2
 62
    7
 10
1008.8483013699475
 20
475.13013436237912
 11
1010.2545340596772
 21
478.62993835097092
  0
LINE
  8
_0-1_1_5
  6
CENTER2
 62
    7
 10
1010.2483013699476
 20
475.13013436237912
 11
1011.6545340596771
 21
478.62993835097092
  0
LINE
  8
_0-1_1_5
  6
CENTER2
 62
    7
 10
1011.6483013699475
 20
475.13013436237912
 11
1013.0545340596769
 21
478.62993835097092
  0
LINE
  8
_0-1_1_5
  6
CENTER2
 62
    7
 10
1008.1989367829324
 20
458.72490848238243
 11
1008.1989367829324
 21
455.22510449379064
  0
LINE
  8
_0-1_1_5
  6
CENTER2
 62
    7
 10
1006.4488387772282
 20
453.47500648808659
 11
1008.1989367829322
 21
455.22510449379064
  0
LINE
  8
_0-1_1_5
  6
CENTER2
 62
    7
 10
1006.4488387772282
 20
460.47500648808659
 11
1008.1989367829324
 21
458.72490848238243
  0
LINE
  8
_0-1_1_5
  6
CENTER2
 62
    7
 10
1008.1989367829324
 20
457.21008125407707
 11
1008.8545340596771
 21
458.84171873542635
  0
LINE
  8
_0-1_1_5
  6
CENTER2
 62
    7
 10
1008.8483013699475
 20
455.3419147468345
 11
1010.2545340596772
 21
458.84171873542635
  0
LINE
  8
_0-1_1_5
  6
CENTER2
 62
    7
 10
1010.2483013699476
 20
455.3419147468345
 11
1011.6545340596771
 21
458.84171873542635
  0
LINE
  8
_0-1_1_5
  6
CENTER2
 62
    7
 10
1011.6483013699475
 20
455.3419147468345
 11
1013.0545340596769
 21
458.84171873542635
  0
LINE
  8
_0-1_1_5
  6
CONTINUOUS
 62
    7
 10
1017.2483013699473
 20
455.3419147468345
 11
1018.654534059677
 21
458.84171873542635
  0
LINE
  8
_0-1_1_5
  6
CONTINUOUS
 62
    7
 10
1013.0483013699474
 20
455.3419147468345
 11
1014.4545340596771
 21
458.84171873542635
  0
LINE
  8
_0-1_1_5
  6
CONTINUOUS
 62
    7
 10
1014.4483013699472
 20
455.3419147468345
 11
1015.854534059677
 21
458.84171873542635
  0
LINE
  8
_0-1_1_5
  6
CONTINUOUS
 62
    7
 10
1015.8483013699474
 20
455.3419147468345
 11
1017.2545340596771
 21
458.84171873542635
  0
LINE
  8
_0-1_1_5
  6
CONTINUOUS
 62
    7
 10
1013.0483013699474
 20
475.13013436237912
 11
1014.4545340596771
 21
478.62993835097092
  0
LINE
  8
_0-1_1_5
  6
CONTINUOUS
 62
    7
 10
1014.4483013699472
 20
475.13013436237912
 11
1015.854534059677
 21
478.62993835097092
  0
LINE
  8
_0-1_1_5
  6
CONTINUOUS
 62
    7
 10
1015.8483013699474
 20
475.13013436237912
 11
1017.2545340596771
 21
478.62993835097092
  0
LINE
  8
_0-1_1_5
  6
CONTINUOUS
 62
    7
 10
1017.2483013699473
 20
475.13013436237912
 11
1018.654534059677
 21
478.62993835097092
  0
LINE
  8
_0-1_1_5
  6
CONTINUOUS
 62
    7
 10
1028.4919301980553
 20
475.13013436237912
 11
1029.8981628877852
 21
478.62993835097092
  0
LINE
  8
_0-1_1_5
  6
CONTINUOUS
 62
    7
 10
1042.5542570953533
 20
475.13013436237912
 11
1043.9604897850827
 21
478.62993835097092
  0
LINE
  8
_0-1_1_5
  6
CONTINUOUS
 62
    7
 10
1045.3667224748126
 20
475.13013436237912
 11
1046.7729551645421
 21
478.62993835097092
  0
LINE
  8
_0-1_1_5
  6
CONTINUOUS
 62
    7
 10
1043.9604897850827
 20
475.13013436237912
 11
1045.3667224748126
 21
478.62993835097092
  0
LINE
  8
_0-1_1_5
  6
CONTINUOUS
 62
    7
 10
1041.1480244056231
 20
475.13013436237912
 11
1042.5542570953533
 21
478.62993835097092
  0
LINE
  8
_0-1_1_5
  6
CONTINUOUS
 62
    7
 10
1027.0856975083259
 20
475.13013436237912
 11
1028.4919301980553
 21
478.62993835097092
  0
LINE
  8
_0-1_1_5
  6
CONTINUOUS
 62
    7
 10
1039.7417917158934
 20
475.13013436237912
 11
1041.1480244056231
 21
478.62993835097092
  0
LINE
  8
_0-1_1_5
  6
CONTINUOUS
 62
    7
 10
1038.3355590261638
 20
475.13013436237912
 11
1039.7417917158934
 21
478.62993835097092
  0
LINE
  8
_0-1_1_5
  6
CONTINUOUS
 62
    7
 10
1036.9293263364336
 20
475.13013436237912
 11
1038.3355590261638
 21
478.62993835097092
  0
LINE
  8
_0-1_1_5
  6
CONTINUOUS
 62
    7
 10
1035.5230936467042
 20
475.13013436237912
 11
1036.9293263364336
 21
478.62993835097092
  0
LINE
  8
_0-1_1_5
  6
CONTINUOUS
 62
    7
 10
1034.1168609569745
 20
475.13013436237912
 11
1035.5230936467042
 21
478.62993835097092
  0
LINE
  8
_0-1_1_5
  6
CONTINUOUS
 62
    7
 10
1032.7106282672448
 20
475.13013436237912
 11
1034.1168609569745
 21
478.62993835097092
  0
LINE
  8
_0-1_1_5
  6
CONTINUOUS
 62
    7
 10
1029.8981628877852
 20
475.13013436237912
 11
1031.3043955775154
 21
478.62993835097092
  0
LINE
  8
_0-1_1_5
  6
CONTINUOUS
 62
    7
 10
1031.3043955775154
 20
475.13013436237912
 11
1032.7106282672448
 21
478.62993835097092
  0
LINE
  8
_0-1_1_5
  6
CONTINUOUS
 62
    7
 10
1025.6794648185958
 20
475.13013436237912
 11
1027.0856975083259
 21
478.62993835097092
  0
LINE
  8
_0-1_1_5
  6
CONTINUOUS
 62
    7
 10
1024.2732321288663
 20
475.13013436237912
 11
1025.6794648185958
 21
478.62993835097092
  0
LINE
  8
_0-1_1_5
  6
CONTINUOUS
 62
    7
 10
1022.8669994391363
 20
475.13013436237912
 11
1024.2732321288663
 21
478.62993835097092
  0
LINE
  8
_0-1_1_5
  6
CONTINUOUS
 62
    7
 10
1021.4607667494068
 20
475.13013436237912
 11
1022.8669994391363
 21
478.62993835097092
  0
LINE
  8
_0-1_1_5
  6
CONTINUOUS
 62
    7
 10
1020.0545340596768
 20
475.13013436237912
 11
1021.4607667494068
 21
478.62993835097092
  0
LINE
  8
_0-1_1_5
  6
CONTINUOUS
 62
    7
 10
1018.6483013699474
 20
475.13013436237912
 11
1020.0545340596768
 21
478.62993835097092
  0
LINE
  8
_0-1_1_5
  6
CONTINUOUS
 62
    7
 10
1008.2357590598589
 20
478.51312809792711
 11
1046.7724012358942
 21
478.51312809792711
  0
LINE
  8
_0-1_1_5
  6
CONTINUOUS
 62
    7
 10
1008.1989367829322
 20
475.01332410933526
 11
1046.7729551645421
 21
475.01332410933526
  0
LINE
  8
_0-1_1_5
  6
CONTINUOUS
 62
    7
 10
1052.397885923461
 20
476.7632261036311
 11
1046.7729551645421
 21
475.01332410933526
  0
LINE
  8
_0-1_1_5
  6
CONTINUOUS
 62
    7
 10
1052.397885923461
 20
476.7632261036311
 11
1046.7729551645421
 21
478.51312809792711
  0
LINE
  8
_0-1_1_5
  6
CONTINUOUS
 62
    7
 10
1028.4919301980553
 20
455.3419147468345
 11
1029.8981628877852
 21
458.84171873542635
  0
LINE
  8
_0-1_1_5
  6
CONTINUOUS
 62
    7
 10
1042.5542570953533
 20
455.3419147468345
 11
1043.9604897850827
 21
458.84171873542635
  0
LINE
  8
_0-1_1_5
  6
CONTINUOUS
 62
    7
 10
1045.3667224748126
 20
455.3419147468345
 11
1046.7729551645421
 21
458.84171873542635
  0
LINE
  8
_0-1_1_5
  6
CONTINUOUS
 62
    7
 10
1043.9604897850827
 20
455.3419147468345
 11
1045.3667224748126
 21
458.84171873542635
  0
LINE
  8
_0-1_1_5
  6
CONTINUOUS
 62
    7
 10
1041.1480244056231
 20
455.3419147468345
 11
1042.5542570953533
 21
458.84171873542635
  0
LINE
  8
_0-1_1_5
  6
CONTINUOUS
 62
    7
 10
1027.0856975083259
 20
455.3419147468345
 11
1028.4919301980553
 21
458.84171873542635
  0
LINE
  8
_0-1_1_5
  6
CONTINUOUS
 62
    7
 10
1039.7417917158934
 20
455.3419147468345
 11
1041.1480244056231
 21
458.84171873542635
  0
LINE
  8
_0-1_1_5
  6
CONTINUOUS
 62
    7
 10
1038.3355590261638
 20
455.3419147468345
 11
1039.7417917158934
 21
458.84171873542635
  0
LINE
  8
_0-1_1_5
  6
CONTINUOUS
 62
    7
 10
1036.9293263364336
 20
455.3419147468345
 11
1038.3355590261638
 21
458.84171873542635
  0
LINE
  8
_0-1_1_5
  6
CONTINUOUS
 62
    7
 10
1035.5230936467042
 20
455.3419147468345
 11
1036.9293263364336
 21
458.84171873542635
  0
LINE
  8
_0-1_1_5
  6
CONTINUOUS
 62
    7
 10
1034.1168609569745
 20
455.3419147468345
 11
1035.5230936467042
 21
458.84171873542635
  0
LINE
  8
_0-1_1_5
  6
CONTINUOUS
 62
    7
 10
1032.7106282672448
 20
455.3419147468345
 11
1034.1168609569745
 21
458.84171873542635
  0
LINE
  8
_0-1_1_5
  6
CONTINUOUS
 62
    7
 10
1029.8981628877852
 20
455.3419147468345
 11
1031.3043955775154
 21
458.84171873542635
  0
LINE
  8
_0-1_1_5
  6
CONTINUOUS
 62
    7
 10
1031.3043955775154
 20
455.3419147468345
 11
1032.7106282672448
 21
458.84171873542635
  0
LINE
  8
_0-1_1_5
  6
CONTINUOUS
 62
    7
 10
1025.6794648185958
 20
455.3419147468345
 11
1027.0856975083259
 21
458.84171873542635
  0
LINE
  8
_0-1_1_5
  6
CONTINUOUS
 62
    7
 10
1024.2732321288663
 20
455.3419147468345
 11
1025.6794648185958
 21
458.84171873542635
  0
LINE
  8
_0-1_1_5
  6
CONTINUOUS
 62
    7
 10
1022.8669994391363
 20
455.3419147468345
 11
1024.2732321288663
 21
458.84171873542635
  0
LINE
  8
_0-1_1_5
  6
CONTINUOUS
 62
    7
 10
1021.4607667494068
 20
455.3419147468345
 11
1022.8669994391363
 21
458.84171873542635
  0
LINE
  8
_0-1_1_5
  6
CONTINUOUS
 62
    7
 10
1020.0545340596768
 20
455.3419147468345
 11
1021.4607667494068
 21
458.84171873542635
  0
LINE
  8
_0-1_1_5
  6
CONTINUOUS
 62
    7
 10
1018.6483013699474
 20
455.3419147468345
 11
1020.0545340596768
 21
458.84171873542635
  0
LINE
  8
_0-1_1_5
  6
CONTINUOUS
 62
    7
 10
1008.2357590598589
 20
458.72490848238243
 11
1046.7724012358942
 21
458.72490848238243
  0
LINE
  8
_0-1_1_5
  6
CONTINUOUS
 62
    7
 10
1008.1989367829322
 20
455.22510449379064
 11
1046.7729551645421
 21
455.22510449379064
  0
LINE
  8
_0-1_1_5
  6
CONTINUOUS
 62
    7
 10
1052.397885923461
 20
456.97500648808648
 11
1046.7729551645421
 21
455.22510449379064
  0
LINE
  8
_0-1_1_5
  6
CONTINUOUS
 62
    7
 10
1052.397885923461
 20
456.97500648808648
 11
1046.7729551645421
 21
458.72490848238243
  0
LINE
  8
_0-1_1_5
  6
CONTINUOUS
 62
    7
 10
943.94883877722816
 20
458.86911629585882
 11
1002.9488387772283
 21
458.86911629585882
  0
LINE
  8
_0-1_1_5
  6
CONTINUOUS
 62
    7
 10
943.94883877722816
 20
474.86911629585882
 11
1002.9488387772283
 21
474.86911629585882
  0
LINE
  8
_0-1_1_5
  6
CONTINUOUS
 62
    7
 10
943.94883877722816
 20
474.86911629585882
 11
943.94883877722816
 21
458.86911629585882
  0
POINT
  8
_0-2_ADD_LINE
 62
    7
 10
720.68241314327906
 20
510.75860632186743
  0
POINT
  8
_0-2_ADD_LINE
 62
    7
 10
745.68241314327906
 20
534.97261085326932
  0
POINT
  8
_0-2_ADD_LINE
 62
    7
 10
95.682413143279348
 20
534.97261085326932
  0
LINE
  8
_0-1_1_5
  6
CONTINUOUS
 62
    7
 10
95.682413143279348
 20
534.97261085326932
 11
745.68241314327906
 21
534.97261085326932
  0
TEXT
  8
_0-1_1_5
 62
    4
 10
411.30741314327935
 20
537.47261085326932
 40
12.5
 41
1
 50
0
  1
650
  0
LINE
  8
_0-1_1_5
  6
CONTINUOUS
 62
    7
 10
120.68241314327906
 20
510.75860632186743
 11
720.68241314327906
 21
510.75860632186743
  0
TEXT
  8
_0-1_1_5
 62
    4
 10
411.30741314327906
 20
513.25860632186743
 40
12.5
 41
1
 50
0
  1
600
  0
LINE
  8
_0-2_ADD_LINE
  6
CONTINUOUS
 62
    7
 10
95.682413143279348
 20
534.97261085326932
 11
95.682413143279348
 21
492.83003083387064
  0
POINT
  8
_0-2_ADD_LINE
 62
    7
 10
120.68241314327906
 20
510.75860632186743
  0
LINE
  8
_0-2_ADD_LINE
  6
CONTINUOUS
 62
    7
 10
120.68241314327906
 20
510.75860632186743
 11
120.68241314327906
 21
492.32213687472881
  0
LINE
  8
_0-2_ADD_LINE
  6
CONTINUOUS
 62
    7
 10
720.68241314327906
 20
510.75860632186743
 11
720.68241314327906
 21
492.32213687472881
  0
LINE
  8
_0-2_ADD_LINE
  6
CONTINUOUS
 62
    7
 10
745.68241314327906
 20
534.97261085326932
 11
745.68241314327906
 21
492.83003083387064
  0
POINT
  8
_0-2_ADD_LINE
 62
    7
 10
695.68241314327929
 20
337.18405605210557
  0
POINT
  8
_0-2_ADD_LINE
 62
    7
 10
745.68241314327906
 20
337.18405605210557
  0
LINE
  8
_0-1_1_5
  6
CONTINUOUS
 62
    7
 10
695.68241314327929
 20
337.18405605210557
 11
745.68241314327906
 21
337.18405605210557
  0
TEXT
  8
_0-1_1_5
 62
    4
 10
714.43241314327929
 20
339.68405605210557
 40
12.5
 41
1
 50
0
  1
50
  0
TEXT
  8
_0-2_ADD_LINE
 62
    4
 10
713.1428112420906
 20
352.87683425795586
 40
12.5
 41
1
 50
180
  1
φ
  0
LINE
  8
_0-2_ADD_LINE
  6
CONTINUOUS
 62
    7
 10
745.68241314327906
 20
337.18405605210557
 11
745.68241314327906
 21
299.54293093086403
  0
LINE
  8
_0-2_ADD_LINE
  6
CONTINUOUS
 62
    7
 10
695.68241314327929
 20
337.18405605210557
 11
695.68241314327929
 21
299.54293093086403
  0
LINE
  8
_0-2_ADD_LINE
  6
CONTINUOUS
 62
    7
 10
538.94883877722827
 20
237.77499245404732
 11
538.94883877722827
 21
263.64873238799561
  0
POINT
  8
_0-2_ADD_LINE
 62
    7
 10
538.94883877722827
 20
237.77499245404732
  0
POINT
  8
_0-2_ADD_LINE
 62
    7
 10
538.94883877722827
 20
227.77499245404732
  0
LINE
  8
_0-2_ADD_LINE
  6
CONTINUOUS
 62
    7
 10
538.94883877722827
 20
237.77499245404732
 11
538.94883877722827
 21
227.77499245404732
  0
TEXT
  8
_0-1_1_5
 62
    4
 10
536.3465974625143
 20
251.00490196078425
 40
12.5
 41
1
 50
90
  1
10
  0
TEXT
  8
_0-2_ADD_LINE
 62
    4
 10
536.6046278699514
 20
238.52456922978249
 40
12.5
 41
1
 50
90
  1
φ
  0
POINT
  8
_0-2_ADD_LINE
 62
    7
 10
765.22831535776027
 20
292.77499245404732
  0
POINT
  8
_0-2_ADD_LINE
 62
    7
 10
765.22831535776027
 20
222.77499245404732
  0
LINE
  8
_0-1_1_5
  6
CONTINUOUS
 62
    7
 10
765.22831535776027
 20
292.77499245404732
 11
765.22831535776027
 21
222.77499245404732
  0
TEXT
  8
_0-1_1_5
 62
    4
 10
762.72831535776027
 20
251.52499245404732
 40
12.5
 41
1
 50
90
  1
70
  0
LINE
  8
_0-2_ADD_LINE
  6
CONTINUOUS
 62
    7
 10
765.22831535776027
 20
222.77499245404732
 11
732.68241314327929
 21
222.77499245404732
  0
LINE
  8
_0-2_ADD_LINE
  6
CONTINUOUS
 62
    7
 10
765.22831535776027
 20
292.77499245404732
 11
749.18241314327906
 21
292.77499245404732
  0
LINE
  8
_0-1_1_5
  6
CONTINUOUS
 62
    7
 10
952.94883877722827
 20
510.78638388915681
 11
1012.9488387772283
 21
510.78638388915681
  0
TEXT
  8
_0-1_1_5
 62
    4
 10
976.69883877722827
 20
513.28638388915681
 40
12.5
 41
1
 50
0
  1
60
  0
POINT
  8
_0-2_ADD_LINE
 62
    7
 10
952.94883877722827
 20
510.78638388915681
  0
POINT
  8
_0-2_ADD_LINE
 62
    7
 10
1012.9488387772283
 20
510.78638388915681
  0
LINE
  8
_0-2_ADD_LINE
  6
CONTINUOUS
 62
    7
 10
1012.9488387772283
 20
510.78638388915681
 11
1012.9488387772283
 21
495.36911629585882
  0
LINE
  8
_0-2_ADD_LINE
  6
CONTINUOUS
 62
    7
 10
952.94883877722827
 20
510.78638388915681
 11
952.94883877722827
 21
488.86911629585882
  0
LINE
  8
_0-1_1_5
  6
CONTINUOUS
 62
    7
 10
921.67222095103557
 20
474.86911629585882
 11
921.67222095103557
 21
458.86911629585882
  0
TEXT
  8
_0-1_1_5
 62
    4
 10
919.17222095103557
 20
460.61911629585882
 40
12.5
 41
1
 50
90
  1
16
  0
LINE
  8
_0-2_ADD_LINE
  6
CONTINUOUS
 62
    7
 10
921.67222095103557
 20
458.86911629585882
 11
936.8652374398813
 21
458.86911629585882
  0
LINE
  8
_0-2_ADD_LINE
  6
CONTINUOUS
 62
    7
 10
921.67222095103557
 20
474.86911629585882
 11
936.8652374398813
 21
474.86911629585882
  0
POINT
  8
_0-2_ADD_LINE
 62
    7
 10
921.67222095103557
 20
458.86911629585882
  0
POINT
  8
_0-2_ADD_LINE
 62
    7
 10
921.67222095103557
 20
474.86911629585882
  0
TEXT
  8
_0-2_ADD_LINE
 62
    4
 10
909.01438084297195
 20
461.89359307023835
 40
12.5
 41
1
 50
-90
  1
φ
  0
LINE
  8
_0-2_ADD_LINE
  6
CONTINUOUS
 62
    7
 10
1002.9488387772283
 20
410.36911629585882
 11
989.64450877871582
 21
410.36911629585882
  0
LINE
  8
_0-1_1_5
  6
CONTINUOUS
 62
    7
 10
1002.9488387772283
 20
410.36911629585882
 11
1012.9488387772283
 21
410.36911629585882
  0
TEXT
  8
_0-1_1_5
 62
    4
 10
988.43303794607425
 20
412.88510257394228
 40
12.5
 41
1
 50
0
  1
10
  0
POINT
  8
_0-2_ADD_LINE
 62
    7
 10
1012.9488387772283
 20
410.36911629585882
  0
POINT
  8
_0-2_ADD_LINE
 62
    7
 10
1002.9488387772283
 20
410.36911629585882
  0
TEXT
  8
_0-2_ADD_LINE
 62
    4
 10
1031.1963255108512
 20
373.79637402934372
 40
12.5
 41
1
 50
0
  1
タッピングビス
  0
TEXT
  8
_0-2_ADD_LINE
 62
    4
 10
1031.772284508083
 20
358.08309291880136
 40
12.5
 41
1
 50
0
  1
3.5x35
  0
LINE
  8
_0-2_ADD_LINE
  6
CONTINUOUS
 62
    7
 10
1002.9488387772283
 20
410.36911629585882
 11
1002.9488387772283
 21
437.36911629585882
  0
LINE
  8
_0-2_ADD_LINE
  6
CONTINUOUS
 62
    7
 10
1012.9488387772283
 20
410.36911629585882
 11
1012.9488387772283
 21
437.36911629585882
  0
LINE
  8
_0-2_ADD_LINE
  6
CONTINUOUS
 62
    7
 10
1033.9210582664655
 20
457.02025784926502
 11
1033.9210582664655
 21
390.4942572991672
  0
TEXT
  8
_0-3_
 62
    7
 10
804.83041738030101
 20
-104.51409794816072
 40
15.270385742187502
 41
1
 50
0
  1
TFP40-B160-003
  0
TEXT
  8
_0-3_
 62
    7
 10
337.91727686287811
 20
-135.47238338108698
 40
15.270385742187502
 41
1
 50
0
  1
ポリッシュ
  0
ENDSEC
  0
EOF
