  0
SECTION
  2
HEADER
  9
$ACADVER
  1
AC1009
  9
$INSBASE
 10
0
 20
0
 30
0
  9
$EXTMIN
 10
0
 20
0
  9
$EXTMAX
 10
1485
 20
1050
  9
$LIMMIN
 10
0
 20
0
  9
$LIMMAX
 10
1485
 20
1050
  9
$LTSCALE
 40
5
  0
ENDSEC
  0
SECTION
  2
TABLES
  0
TABLE
  2
LTYPE
 70
     9
  0
LTYPE
  2
CONTINUOUS
 70
    64
  3
実線
 72
    65
 73
     0
 40
0.0
  0
LTYPE
  2
DASHED1
 70
    64
  3
--  --  --  --  --  --  --  --  
 72
    65
 73
     2
 40
2.5
 49
1.25
 49
-1.25
  0
LTYPE
  2
DASHED2
 70
    64
  3
----    ----    ----    ----    
 72
    65
 73
     2
 40
5.0
 49
2.5
 49
-2.5
  0
LTYPE
  2
DASHED3
 70
    64
  3
------  ------  ------  ------  
 72
    65
 73
     2
 40
5.0
 49
3.75
 49
-1.25
  0
LTYPE
  2
CENTER1
 70
    64
  3
----- - ----- - ----- - ----- - 
 72
    65
 73
     4
 40
10.0
 49
6.25
 49
-1.25
 49
1.25
 49
-1.25
  0
LTYPE
  2
CENTER2
 70
    64
  3
----------  --  ----------  --  
 72
    65
 73
     4
 40
20.0
 49
12.5
 49
-2.5
 49
2.5
 49
-2.5
  0
LTYPE
  2
PHANTOM1
 70
    64
  3
--- - - --- - - --- - - --- - - 
 72
    65
 73
     6
 40
10.0
 49
3.25
 49
-1.25
 49
1.25
 49
-1.25
 49
1.25
 49
-1.25
  0
LTYPE
  2
PHANTOM2
 70
    64
  3
--------  -  -  --------  -  -  
 72
    65
 73
     6
 40
20.0
 49
10.0
 49
-2.5
 49
1.25
 49
-2.5
 49
1.25
 49
-2.5
  0
LTYPE
  2
DOT
 70
    64
  3
-   -   -   -   -   -   -   -   
 72
    65
 73
     2
 40
2.5
 49
0.625
 49
-1.875
  0
LTYPE
  2
DUMMY
 70
    64
  3
ダミー
 72
    65
 73
     0
 40
0.0
  0
LTYPE
  2
RAND1
 70
    64
  3
ランダム線1
 72
    65
 73
     4
 40
10.0
 49
1.0
 49
-2.0
 49
3.0
 49
-4.0
  0
LTYPE
  2
RAND2
 70
    64
  3
ランダム線2
 72
    65
 73
     4
 40
14.0
 49
2.0
 49
-3.0
 49
4.0
 49
-5.0
  0
LTYPE
  2
RAND3
 70
    64
  3
ランダム線3
 72
    65
 73
     4
 40
18.0
 49
3.0
 49
-4.0
 49
5.0
 49
-6.0
  0
LTYPE
  2
RAND4
 70
    64
  3
ランダム線4
 72
    65
 73
     4
 40
22.0
 49
4.0
 49
-5.0
 49
6.0
 49
-7.0
  0
LTYPE
  2
RAND5
 70
    64
  3
ランダム線5
 72
    65
 73
     4
 40
26.0
 49
5.0
 49
-6.0
 49
7.0
 49
-8.0
  0
LTYPE
  2
LONG1
 70
    64
  3
----------  --  ----------  --  
 72
    65
 73
     4
 40
40.0
 49
32.5
 49
-2.5
 49
2.5
 49
-2.5
  0
LTYPE
  2
LONG2
 70
    64
  3
--------  -  -  --------  -  -  
 72
    65
 73
     6
 40
40.0
 49
30.0
 49
-2.5
 49
1.25
 49
-2.5
 49
1.25
 49
-2.5
  0
LTYPE
  2
LONG3
 70
    64
  3
+++++++++++++++..+++++++++++++++
 72
    65
 73
     2
 40
40.0
 49
37.5
 49
-2.5
  0
LTYPE
  2
LONG4
 70
    64
  3
+++++++++++++++..+++++++++++++++
 72
    65
 73
     2
 40
80.0
 49
75.0
 49
-5.0
  0
LTYPE
  2
LONG5
 70
    64
  3
----------  --  ----------  --  
 72
    65
 73
     4
 40
60.0
 49
37.5
 49
-7.5
 49
7.5
 49
-7.5
  0
LTYPE
  2
dashed
 70
   64
  3
-------   -------------   ------
 72
   65
 73
    2
 40
7.5
 49
6
 49
-1.5
  0
LTYPE
  2
dashed_spaced
 70
   64
  3
----        --------        ----
 72
   65
 73
    2
 40
12
 49
6
 49
-6
  0
LTYPE
  2
long_dashed_dotted
 70
   64
  3
------------- --- --------------
 72
   65
 73
    4
 40
15.25
 49
12
 49
-1.5
 49
0.25
 49
-1.5
  0
LTYPE
  2
long_dashed_double-dotted
 70
   64
  3
----------- --- --- ------------
 72
   65
 73
    6
 40
17
 49
12
 49
-1.5
 49
0.25
 49
-1.5
 49
0.25
 49
-1.5
  0
LTYPE
  2
long_dashed_triplicate-dotted
 70
   64
  3
--------- --- --- --- ----------
 72
   65
 73
    8
 40
18.75
 49
12
 49
-1.5
 49
0.25
 49
-1.5
 49
0.25
 49
-1.5
 49
0.25
 49
-1.5
  0
LTYPE
  2
dotted
 70
   64
  3
   -       -       -       -    
 72
   65
 73
    2
 40
1.75
 49
0.25
 49
-1.5
  0
LTYPE
  2
chain
 70
   64
  3
-------------- -- --------------
 72
   65
 73
    4
 40
18.5
 49
12
 49
-1.5
 49
3.5
 49
-1.5
  0
LTYPE
  2
chain_double_dash
 70
   64
  3
------------ -- -- -------------
 72
   65
 73
    6
 40
23.5
 49
12
 49
-1.5
 49
3.5
 49
-1.5
 49
3.5
 49
-1.5
  0
LTYPE
  2
dashed_dotted
 70
   64
  3
-----------     -     ----------
 72
   65
 73
    4
 40
9.25
 49
6
 49
-1.5
 49
0.25
 49
-1.5
  0
LTYPE
  2
double-dashed_dotted
 70
   64
  3
------   -----------   -   -----
 72
   65
 73
    6
 40
16.75
 49
6
 49
-1.5
 49
6
 49
-1.5
 49
0.25
 49
-1.5
  0
LTYPE
  2
dashed_double-dotted
 70
   64
  3
---------    -    -    ---------
 72
   65
 73
    6
 40
11
 49
6
 49
-1.5
 49
0.25
 49
-1.5
 49
0.25
 49
-1.5
  0
LTYPE
  2
double-dashed_double-dotted
 70
   64
  3
-----   ---------   -   -   ----
 72
   65
 73
    8
 40
18.5
 49
6
 49
-1.5
 49
6
 49
-1.5
 49
0.25
 49
-1.5
 49
0.25
 49
-1.5
  0
LTYPE
  2
dashed_triplicate-dotted
 70
   64
  3
-------    -    -    -    ------
 72
   65
 73
    8
 40
12.75
 49
6
 49
-1.5
 49
0.25
 49
-1.5
 49
0.25
 49
-1.5
 49
0.25
 49
-1.5
  0
LTYPE
  2
double-dashed_triplicate-dotted
 70
   64
  3
-----  ---------  -  -  -  -----
 72
   65
 73
   10
 40
20.25
 49
6
 49
-1.5
 49
6
 49
-1.5
 49
0.25
 49
-1.5
 49
0.25
 49
-1.5
 49
0.25
 49
-1.5
  0
LTYPE
  2
undefined
 70
   64
  3
--------------------------------
 72
   65
 73
    0
 40
0
  0
LTYPE
  2
STYLE_01
 70
   64
  3
----        --------        ----
 72
   65
 73
    2
 40
0.4166399999999997
 49
0.2082799999999999
 49
-0.2083599999999999
  0
LTYPE
  2
STYLE_02
 70
   64
  3
------     -----------     -----
 72
   65
 73
    2
 40
0.694425
 49
0.48607
 49
-0.2083550000000001
  0
LTYPE
  2
STYLE_03
 70
   64
  3
-------   -------------   ------
 72
   65
 73
    2
 40
1.25
 49
1.0416400000000001
 49
-0.2083599999999999
  0
LTYPE
  2
STYLE_04
 70
   64
  3
-------  --------------  -------
 72
   65
 73
    2
 40
1.5277099999999999
 49
1.3194249999999998
 49
-0.208285
  0
LTYPE
  2
STYLE_05
 70
   64
  3
---           -----           --
 72
   65
 73
    2
 40
0.20828
 49
0.069425
 49
-0.138855
  0
LTYPE
  2
STYLE_06
 70
   64
  3
----------      --    ----------
 72
   65
 73
    4
 40
1.0416399999999999
 49
0.625
 49
-0.2082799999999999
 49
0.06943
 49
-0.13893
  0
LTYPE
  2
STYLE_07
 70
   64
  3
-----    -----------    -  -----
 72
   65
 73
    6
 40
1.8749999999999998
 49
0.625
 49
-0.2082799999999999
 49
0.6250000000000001
 49
-0.2083599999999999
 49
0.06943
 49
-0.1389299999999998
  0
LTYPE
  2
STYLE_08
 70
   64
  3
--------     --    --    -------
 72
   65
 73
    6
 40
1.2499999999999996
 49
0.625
 49
-0.2082799999999999
 49
0.06943
 49
-0.13893
 49
0.0694299999999997
 49
-0.13893
  0
LTYPE
  2
STYLE_09
 70
   64
  3
------------  ----  ------------
 72
   65
 73
    4
 40
5
 49
3.75
 49
-0.2777849999999997
 49
0.6944300000000003
 49
-0.2777849999999997
  0
LTYPE
  2
STYLE_10
 70
   64
  3
----------- ---- ---  ----------
 72
   65
 73
    6
 40
5.9375
 49
3.75
 49
-0.2777849999999997
 49
0.6944300000000003
 49
-0.2777849999999997
 49
0.625
 49
-0.3125
  0
ENDTAB
  0
TABLE
  2
STYLE
  5
3
100
AcDbSymbolTable
 70
     1
  0
STYLE
  5
10
100
AcDbSymbolTableRecord
100
AcDbTextStyleTableRecord
  2
STANDARD
 70
     0
 40
0.0
 41
1.0
 50
0.0
 71
     0
 42
0.2
  3
txt
  4
bigfont.shx
  0
STYLE
  5
26
100
AcDbSymbolTableRecord
100
AcDbTextStyleTableRecord
  2
TATEGAKI
 70
    68
 40
0.0
 41
1.0
 50
0.0
 71
     0
 42
1.0
  3
txt
  4
bigfont.shx
  0
ENDTAB
  0
TABLE
  2
LAYER
 70
    5
  0
LAYER
  2
_0-0_0
 70
   64
 62
    7
  6
CONTINUOUS
  0
LAYER
  2
_0-1_1_5
 70
   64
 62
    7
  6
CONTINUOUS
  0
LAYER
  2
_0-2_ADD_LINE
 70
   64
 62
    7
  6
CONTINUOUS
  0
LAYER
  2
_0-3_
 70
   64
 62
    7
  6
CONTINUOUS
  0
LAYER
  2
ADD_LINE
 70
   64
 62
    7
  6
CONTINUOUS
  0
ENDTAB
  0
ENDSEC
  0
SECTION
  2
BLOCKS
  0
ENDSEC
  0
SECTION
  2
ENTITIES
  0
TEXT
  8
_0-3_
 62
    7
 10
337.91727686287811
 20
-165.72561040232628
 40
15.270385742187502
 41
1
 50
0
  1
ステンレススチール
  0
LINE
  8
_0-0_0
  6
CONTINUOUS
 62
    7
 10
-217.54976684701688
 20
839.39842520894683
 11
-217.54976684701688
 21
-210.60157479105314
  0
LINE
  8
_0-0_0
  6
CONTINUOUS
 62
    7
 10
-217.54976684701688
 20
-210.60157479105314
 11
1267.4502331529832
 21
-210.60157479105328
  0
LINE
  8
_0-0_0
  6
CONTINUOUS
 62
    7
 10
1267.4502331529832
 20
-210.60157479105328
 11
1267.4502331529832
 21
839.39842520894672
  0
LINE
  8
_0-0_0
  6
CONTINUOUS
 62
    7
 10
1267.4502331529832
 20
839.39842520894672
 11
-217.54976684701688
 21
839.39842520894683
  0
TEXT
  8
_0-3_
 62
    7
 10
303.1435361858484
 20
-157.2512975909325
 40
10
 41
1
 50
0
  1
材質
  0
TEXT
  8
_0-3_
 62
    7
 10
303.1435361858484
 20
-126.04446365427265
 40
10
 41
1
 50
0
  1
仕上げ
  0
TEXT
  8
_0-3_
 62
    7
 10
303.1435361858484
 20
-96.397971414445891
 40
10
 41
1
 50
0
  1
品名
  0
LINE
  8
_0-3_
  6
CONTINUOUS
 62
    7
 10
763.33333330012067
 20
-172.00135367935019
 11
763.33333330012067
 21
-82.001353679350046
  0
LINE
  8
_0-3_
  6
CONTINUOUS
 62
    7
 10
1230.0000000001207
 20
-82.001353679350046
 11
295.76393721191187
 21
-82.001353679350046
  0
LINE
  8
_0-3_
  6
CONTINUOUS
 62
    7
 10
1230.0000000001207
 20
-112.00135367935005
 11
295.76393721191187
 21
-112.00135367935005
  0
LINE
  8
_0-3_
  6
CONTINUOUS
 62
    7
 10
1230.0000000001207
 20
-142.00135367935005
 11
295.76393721191187
 21
-142.00135367935005
  0
LINE
  8
_0-3_
  6
CONTINUOUS
 62
    7
 10
295.76393721191187
 20
-172.00135367935005
 11
295.76393721191187
 21
-82.001353679350046
  0
TEXT
  8
_0-3_
 62
    7
 10
769.76611673267166
 20
-97.65079861352163
 40
10
 41
1
 50
0
  1
品番
  0
TEXT
  8
_0-3_
 62
    7
 10
769.76611673267166
 20
-126.84760541025184
 40
10
 41
1
 50
0
  1
縮尺
  0
TEXT
  8
_0-3_
 62
    7
 10
805.64122881175172
 20
-135.00091580972281
 40
15.270385742187502
 41
1
 50
0
  1
1/5
  0
TEXT
  8
_0-3_
 62
    7
 10
-167.22023496641157
 20
-191.8129578821069
 40
12.5
 41
1
 50
0
  1
120718SH
  0
LINE
  8
_0-3_
  6
CONTINUOUS
 62
    7
 10
-169.99999999987921
 20
802.99864632065021
 11
-169.99999999987921
 21
-172.00135367935005
  0
LINE
  8
_0-3_
  6
CONTINUOUS
 62
    7
 10
-169.99999999987921
 20
-172.00135367935005
 11
1230.0000000001207
 21
-172.00135367935019
  0
LINE
  8
_0-3_
  6
CONTINUOUS
 62
    7
 10
1230.0000000001207
 20
-172.00135367935019
 11
1230.0000000001207
 21
802.9986463206501
  0
LINE
  8
_0-3_
  6
CONTINUOUS
 62
    7
 10
1230.0000000001207
 20
802.9986463206501
 11
-169.99999999987921
 21
802.99864632065021
  0
TEXT
  8
_0-3_
 62
    7
 10
337.91727686287811
 20
-104.70437403928486
 40
15.270385742187502
 41
1
 50
0
  1
タオルバー
  0
TEXT
  8
_0-3_
 62
    7
 10
804.6090696281932
 20
-167.49214973604637
 40
15.5
 41
1
 50
0
  1
大洋金物株式会社  ティーエフプラス事業部
  0
TEXT
  8
_0-3_
 62
    7
 10
337.91727686287811
 20
-135.47238338108698
 40
15.270385742187502
 41
1
 50
0
  1
サテン
  0
TEXT
  8
_0-3_
 62
    7
 10
804.83041738030101
 20
-104.51409794816072
 40
15.270385742187502
 41
1
 50
0
  1
TFP40-B175-002
  0
LINE
  8
_0-1_1_5
  6
CENTER2
 62
    7
 10
785.18241314327929
 20
286.98677231290225
 11
757.1824131432794
 21
286.98677231290225
  0
LINE
  8
_0-1_1_5
  6
CONTINUOUS
 62
    7
 10
771.18241314327918
 20
332.93581945913513
 11
769.43251114898317
 21
327.31088870021603
  0
LINE
  8
_0-1_1_5
  6
CONTINUOUS
 62
    7
 10
771.18241314327918
 20
332.93581945913513
 11
772.93231513757519
 21
327.31088870021603
  0
LINE
  8
_0-1_1_5
  6
CONTINUOUS
 62
    7
 10
772.93231513757519
 20
288.73687031860607
 11
772.93231513757519
 21
327.31088870021603
  0
LINE
  8
_0-1_1_5
  6
CONTINUOUS
 62
    7
 10
769.43251114898317
 20
288.77369259553296
 11
769.43251114898317
 21
327.31033477156819
  0
LINE
  8
_0-1_1_5
  6
CONTINUOUS
 62
    7
 10
772.81550488453126
 20
299.18623490562135
 11
769.31570089593947
 21
300.5924675953508
  0
LINE
  8
_0-1_1_5
  6
CONTINUOUS
 62
    7
 10
772.81550488453126
 20
300.5924675953508
 11
769.31570089593947
 21
301.99870028508093
  0
LINE
  8
_0-1_1_5
  6
CONTINUOUS
 62
    7
 10
772.81550488453126
 20
301.99870028508093
 11
769.31570089593947
 21
303.40493297481038
  0
LINE
  8
_0-1_1_5
  6
CONTINUOUS
 62
    7
 10
772.81550488453126
 20
303.40493297481038
 11
769.31570089593947
 21
304.81116566454028
  0
LINE
  8
_0-1_1_5
  6
CONTINUOUS
 62
    7
 10
772.81550488453126
 20
304.81116566454028
 11
769.31570089593947
 21
306.21739835426973
  0
LINE
  8
_0-1_1_5
  6
CONTINUOUS
 62
    7
 10
772.81550488453126
 20
306.21739835426973
 11
769.31570089593947
 21
307.62363104399986
  0
LINE
  8
_0-1_1_5
  6
CONTINUOUS
 62
    7
 10
772.81550488453126
 20
311.84232911318907
 11
769.31570089593947
 21
313.2485618029188
  0
LINE
  8
_0-1_1_5
  6
CONTINUOUS
 62
    7
 10
772.81550488453126
 20
310.43609642345922
 11
769.31570089593947
 21
311.84232911318907
  0
LINE
  8
_0-1_1_5
  6
CONTINUOUS
 62
    7
 10
772.81550488453126
 20
313.2485618029188
 11
769.31570089593947
 21
314.65479449264842
  0
LINE
  8
_0-1_1_5
  6
CONTINUOUS
 62
    7
 10
772.81550488453126
 20
314.65479449264842
 11
769.31570089593947
 21
316.06102718237815
  0
LINE
  8
_0-1_1_5
  6
CONTINUOUS
 62
    7
 10
772.81550488453126
 20
316.06102718237815
 11
769.31570089593947
 21
317.46725987210777
  0
LINE
  8
_0-1_1_5
  6
CONTINUOUS
 62
    7
 10
772.81550488453126
 20
317.46725987210777
 11
769.31570089593947
 21
318.87349256183774
  0
LINE
  8
_0-1_1_5
  6
CONTINUOUS
 62
    7
 10
772.81550488453126
 20
318.87349256183774
 11
769.31570089593947
 21
320.27972525156741
  0
LINE
  8
_0-1_1_5
  6
CONTINUOUS
 62
    7
 10
772.81550488453126
 20
320.27972525156741
 11
769.31570089593947
 21
321.68595794129709
  0
LINE
  8
_0-1_1_5
  6
CONTINUOUS
 62
    7
 10
772.81550488453126
 20
307.62363104399986
 11
769.31570089593947
 21
309.02986373372931
  0
LINE
  8
_0-1_1_5
  6
CONTINUOUS
 62
    7
 10
772.81550488453126
 20
321.68595794129709
 11
769.31570089593947
 21
323.09219063102705
  0
LINE
  8
_0-1_1_5
  6
CONTINUOUS
 62
    7
 10
772.81550488453126
 20
324.49842332075667
 11
769.31570089593947
 21
325.90465601048658
  0
LINE
  8
_0-1_1_5
  6
CONTINUOUS
 62
    7
 10
772.81550488453126
 20
325.90465601048658
 11
769.31570089593947
 21
327.31088870021603
  0
LINE
  8
_0-1_1_5
  6
CONTINUOUS
 62
    7
 10
772.81550488453126
 20
323.09219063102705
 11
769.31570089593947
 21
324.49842332075667
  0
LINE
  8
_0-1_1_5
  6
CONTINUOUS
 62
    7
 10
772.81550488453126
 20
309.02986373372931
 11
769.31570089593947
 21
310.43609642345922
  0
LINE
  8
_0-1_1_5
  6
CONTINUOUS
 62
    7
 10
772.81550488453126
 20
297.7862349056212
 11
769.31570089593947
 21
299.19246759535093
  0
LINE
  8
_0-1_1_5
  6
CONTINUOUS
 62
    7
 10
772.81550488453126
 20
296.38623490562134
 11
769.31570089593947
 21
297.79246759535107
  0
LINE
  8
_0-1_1_5
  6
CONTINUOUS
 62
    7
 10
772.81550488453126
 20
294.9862349056213
 11
769.31570089593947
 21
296.39246759535092
  0
LINE
  8
_0-1_1_5
  6
CENTER2
 62
    7
 10
772.81550488453126
 20
293.58623490562144
 11
769.31570089593947
 21
294.99246759535106
  0
LINE
  8
_0-1_1_5
  6
CENTER2
 62
    7
 10
772.81550488453126
 20
290.78623490562143
 11
769.31570089593947
 21
292.19246759535116
  0
LINE
  8
_0-1_1_5
  6
CENTER2
 62
    7
 10
772.81550488453126
 20
289.38623490562145
 11
769.31570089593947
 21
290.7924675953513
  0
LINE
  8
_0-1_1_5
  6
CENTER2
 62
    7
 10
770.94733837728859
 20
288.73687031860635
 11
769.31570089593947
 21
289.39246759535104
  0
LINE
  8
_0-1_1_5
  6
CENTER2
 62
    7
 10
767.68241314327929
 20
286.98677231290225
 11
769.43251114898317
 21
288.73687031860635
  0
LINE
  8
_0-1_1_5
  6
CENTER2
 62
    7
 10
774.68241314327906
 20
286.98677231290225
 11
772.93231513757519
 21
288.73687031860607
  0
LINE
  8
_0-1_1_5
  6
CENTER2
 62
    7
 10
769.43251114898317
 20
288.73687031860635
 11
772.93231513757519
 21
288.73687031860635
  0
LINE
  8
_0-1_1_5
  6
CENTER2
 62
    7
 10
785.18241314327929
 20
286.98677231290225
 11
785.18241314327929
 21
293.48677231290219
  0
LINE
  8
_0-1_1_5
  6
CENTER2
 62
    7
 10
757.1824131432794
 20
286.98677231290225
 11
757.1824131432794
 21
293.48677231290219
  0
LINE
  8
_0-1_1_5
  6
CONTINUOUS
 62
    7
 10
746.18241314327952
 20
283.48677231290219
 11
746.18241314327952
 21
293.48677231290219
  0
LINE
  8
_0-1_1_5
  6
CONTINUOUS
 62
    7
 10
796.18241314327918
 20
283.48677231290219
 11
796.18241314327918
 21
293.48677231290219
  0
LINE
  8
_0-1_1_5
  6
CONTINUOUS
 62
    7
 10
746.18241314327952
 20
293.48677231290219
 11
796.18241314327918
 21
293.48677231290219
  0
LINE
  8
_0-1_1_5
  6
CONTINUOUS
 62
    7
 10
746.18241314327952
 20
283.48677231290219
 11
796.18241314327918
 21
283.48677231290219
  0
LINE
  8
_0-1_1_5
  6
CONTINUOUS
 62
    7
 10
763.18241314327906
 20
228.48677231290219
 11
763.18241314327906
 21
228.48677231290219
  0
LINE
  8
_0-1_1_5
  6
CONTINUOUS
 62
    7
 10
763.18241314327906
 20
228.48677231290219
 11
763.48629745419623
 21
228.56273354784116
  0
LINE
  8
_0-1_1_5
  6
CONTINUOUS
 62
    7
 10
763.48629745419623
 20
228.56273354784116
 11
763.78094839409903
 21
228.78830920897263
  0
LINE
  8
_0-1_1_5
  6
CONTINUOUS
 62
    7
 10
763.78094839409903
 20
228.78830920897263
 11
764.05741314327906
 21
229.15664529398001
  0
LINE
  8
_0-1_1_5
  6
CONTINUOUS
 62
    7
 10
764.05741314327906
 20
229.15664529398001
 11
764.30729146023054
 21
229.6565500973073
  0
LINE
  8
_0-1_1_5
  6
CONTINUOUS
 62
    7
 10
764.30729146023054
 20
229.6565500973073
 11
764.52299091873726
 21
230.27283426446948
  0
LINE
  8
_0-1_1_5
  6
CONTINUOUS
 62
    7
 10
764.52299091873726
 20
230.27283426446948
 11
764.69795759990188
 21
230.98677231290219
  0
LINE
  8
_0-1_1_5
  6
CONTINUOUS
 62
    7
 10
764.69795759990188
 20
230.98677231290219
 11
764.82687522965443
 21
231.77667159627384
  0
LINE
  8
_0-1_1_5
  6
CONTINUOUS
 62
    7
 10
764.82687522965443
 20
231.77667159627384
 11
764.90582671105039
 21
232.61853142456755
  0
LINE
  8
_0-1_1_5
  6
CONTINUOUS
 62
    7
 10
764.90582671105039
 20
232.61853142456755
 11
764.93241314327906
 21
233.48677231290219
  0
LINE
  8
_0-1_1_5
  6
CONTINUOUS
 62
    7
 10
764.93241314327906
 20
233.48677231290219
 11
764.90582671105039
 21
234.35501320123683
  0
LINE
  8
_0-1_1_5
  6
CONTINUOUS
 62
    7
 10
764.90582671105039
 20
234.35501320123683
 11
764.82687522965443
 21
235.19687302953054
  0
LINE
  8
_0-1_1_5
  6
CONTINUOUS
 62
    7
 10
764.82687522965443
 20
235.19687302953054
 11
764.69795759990188
 21
235.98677231290219
  0
LINE
  8
_0-1_1_5
  6
CONTINUOUS
 62
    7
 10
764.69795759990188
 20
235.98677231290219
 11
764.52299091873726
 21
236.70071036133487
  0
LINE
  8
_0-1_1_5
  6
CONTINUOUS
 62
    7
 10
764.52299091873726
 20
236.70071036133487
 11
764.30729146023054
 21
237.31699452849708
  0
LINE
  8
_0-1_1_5
  6
CONTINUOUS
 62
    7
 10
764.30729146023054
 20
237.31699452849708
 11
764.05741314327906
 21
237.81689933182437
  0
LINE
  8
_0-1_1_5
  6
CONTINUOUS
 62
    7
 10
764.05741314327906
 20
237.81689933182437
 11
763.78094839409903
 21
238.18523541683172
  0
LINE
  8
_0-1_1_5
  6
CONTINUOUS
 62
    7
 10
763.78094839409903
 20
238.18523541683172
 11
763.48629745419623
 21
238.41081107796322
  0
LINE
  8
_0-1_1_5
  6
CONTINUOUS
 62
    7
 10
763.48629745419623
 20
238.41081107796322
 11
763.18241314327906
 21
238.48677231290219
  0
LINE
  8
_0-1_1_5
  6
CONTINUOUS
 62
    7
 10
763.18241314327906
 20
238.48677231290219
 11
763.18241314327906
 21
238.48677231290219
  0
LINE
  8
_0-1_1_5
  6
CONTINUOUS
 62
    7
 10
763.18241314327906
 20
223.48677231290219
 11
779.18241314327929
 21
223.48677231290219
  0
LINE
  8
_0-1_1_5
  6
CONTINUOUS
 62
    7
 10
763.18241314327906
 20
223.48677231290219
 11
763.18241314327906
 21
228.48677231290219
  0
LINE
  8
_0-1_1_5
  6
CONTINUOUS
 62
    7
 10
779.18241314327929
 20
223.48677231290219
 11
779.18241314327929
 21
283.48677231290219
  0
LINE
  8
_0-1_1_5
  6
CONTINUOUS
 62
    7
 10
763.18241314327906
 20
238.48677231290219
 11
763.18241314327906
 21
283.48677231290219
  0
CIRCLE
  8
_0-1_1_5
  6
CONTINUOUS
 62
    7
 10
771.18241314327918
 20
467.58089615471363
 40
8
  0
LINE
  8
_0-1_1_5
  6
CENTER2
 62
    7
 10
776.18241314327918
 20
477.47500596248591
 11
766.18241314327918
 21
477.47500596248591
  0
LINE
  8
_0-1_1_5
  6
CENTER2
 62
    7
 10
771.18241314327918
 20
481.47500596248597
 11
771.18241314327918
 21
473.47500596248602
  0
LINE
  8
_0-1_1_5
  6
CENTER2
 62
    7
 10
775.18241314327918
 20
477.47500596248591
 11
775.18241314327918
 21
477.47500596248591
  0
LINE
  8
_0-1_1_5
  6
CENTER2
 62
    7
 10
775.18241314327918
 20
477.47500596248591
 11
775.121644155328
 21
478.03068013102006
  0
LINE
  8
_0-1_1_5
  6
CENTER2
 62
    7
 10
775.121644155328
 20
478.03068013102006
 11
774.9411836264228
 21
478.56947042112807
  0
LINE
  8
_0-1_1_5
  6
CENTER2
 62
    7
 10
774.9411836264228
 20
478.56947042112807
 11
774.64651475841697
 21
479.07500596248593
  0
LINE
  8
_0-1_1_5
  6
CENTER2
 62
    7
 10
774.64651475841697
 20
479.07500596248593
 11
774.24659091575506
 21
479.53192631348281
  0
LINE
  8
_0-1_1_5
  6
CENTER2
 62
    7
 10
774.24659091575506
 20
479.53192631348281
 11
773.75356358202532
 21
479.92634818046662
  0
LINE
  8
_0-1_1_5
  6
CENTER2
 62
    7
 10
773.75356358202532
 20
479.92634818046662
 11
773.18241314327918
 21
480.2462872545961
  0
LINE
  8
_0-1_1_5
  6
CENTER2
 62
    7
 10
773.18241314327918
 20
480.2462872545961
 11
772.55049371658185
 21
480.48202234900083
  0
LINE
  8
_0-1_1_5
  6
CENTER2
 62
    7
 10
772.55049371658185
 20
480.48202234900083
 11
771.87700585394691
 21
480.62639077212498
  0
LINE
  8
_0-1_1_5
  6
CENTER2
 62
    7
 10
771.87700585394691
 20
480.62639077212498
 11
771.18241314327918
 21
480.6750059624859
  0
LINE
  8
_0-1_1_5
  6
CENTER2
 62
    7
 10
771.18241314327918
 20
480.6750059624859
 11
770.48782043261144
 21
480.62639077212498
  0
LINE
  8
_0-1_1_5
  6
CENTER2
 62
    7
 10
770.48782043261144
 20
480.62639077212498
 11
769.8143325699765
 21
480.48202234900083
  0
LINE
  8
_0-1_1_5
  6
CENTER2
 62
    7
 10
769.8143325699765
 20
480.48202234900083
 11
769.18241314327918
 21
480.2462872545961
  0
LINE
  8
_0-1_1_5
  6
CENTER2
 62
    7
 10
769.18241314327918
 20
480.2462872545961
 11
768.61126270453303
 21
479.92634818046662
  0
LINE
  8
_0-1_1_5
  6
CENTER2
 62
    7
 10
768.61126270453303
 20
479.92634818046662
 11
768.11823537080329
 21
479.53192631348281
  0
LINE
  8
_0-1_1_5
  6
CENTER2
 62
    7
 10
768.11823537080329
 20
479.53192631348281
 11
767.71831152814138
 21
479.07500596248593
  0
LINE
  8
_0-1_1_5
  6
CENTER2
 62
    7
 10
767.71831152814138
 20
479.07500596248593
 11
767.42364266013556
 21
478.56947042112807
  0
LINE
  8
_0-1_1_5
  6
CENTER2
 62
    7
 10
767.42364266013556
 20
478.56947042112807
 11
767.24318213123036
 21
478.03068013102006
  0
LINE
  8
_0-1_1_5
  6
CENTER2
 62
    7
 10
767.24318213123036
 20
478.03068013102006
 11
767.18241314327918
 21
477.47500596248591
  0
LINE
  8
_0-1_1_5
  6
CENTER2
 62
    7
 10
767.18241314327918
 20
477.47500596248591
 11
767.24318213123036
 21
476.91933179395176
  0
LINE
  8
_0-1_1_5
  6
CENTER2
 62
    7
 10
767.24318213123036
 20
476.91933179395176
 11
767.42364266013556
 21
476.3805415038438
  0
LINE
  8
_0-1_1_5
  6
CENTER2
 62
    7
 10
767.42364266013556
 20
476.3805415038438
 11
767.71831152814138
 21
475.87500596248594
  0
LINE
  8
_0-1_1_5
  6
CENTER2
 62
    7
 10
767.71831152814138
 20
475.87500596248594
 11
768.11823537080329
 21
475.418085611489
  0
LINE
  8
_0-1_1_5
  6
CENTER2
 62
    7
 10
768.11823537080329
 20
475.418085611489
 11
768.61126270453303
 21
475.0236637445052
  0
LINE
  8
_0-1_1_5
  6
CENTER2
 62
    7
 10
768.61126270453303
 20
475.0236637445052
 11
769.18241314327918
 21
474.70372467037572
  0
LINE
  8
_0-1_1_5
  6
CENTER2
 62
    7
 10
769.18241314327918
 20
474.70372467037572
 11
769.8143325699765
 21
474.46798957597099
  0
LINE
  8
_0-1_1_5
  6
CENTER2
 62
    7
 10
769.8143325699765
 20
474.46798957597099
 11
770.48782043261144
 21
474.32362115284684
  0
LINE
  8
_0-1_1_5
  6
CENTER2
 62
    7
 10
770.48782043261144
 20
474.32362115284684
 11
771.18241314327918
 21
474.27500596248592
  0
LINE
  8
_0-1_1_5
  6
CENTER2
 62
    7
 10
771.18241314327918
 20
474.27500596248592
 11
771.87700585394691
 21
474.32362115284684
  0
LINE
  8
_0-1_1_5
  6
CENTER2
 62
    7
 10
771.87700585394691
 20
474.32362115284684
 11
772.55049371658185
 21
474.46798957597099
  0
LINE
  8
_0-1_1_5
  6
CENTER2
 62
    7
 10
772.55049371658185
 20
474.46798957597099
 11
773.18241314327918
 21
474.70372467037572
  0
LINE
  8
_0-1_1_5
  6
CENTER2
 62
    7
 10
773.18241314327918
 20
474.70372467037572
 11
773.75356358202532
 21
475.0236637445052
  0
LINE
  8
_0-1_1_5
  6
CENTER2
 62
    7
 10
773.75356358202532
 20
475.0236637445052
 11
774.24659091575506
 21
475.41808561148895
  0
LINE
  8
_0-1_1_5
  6
CENTER2
 62
    7
 10
774.24659091575506
 20
475.41808561148895
 11
774.64651475841697
 21
475.87500596248589
  0
LINE
  8
_0-1_1_5
  6
CENTER2
 62
    7
 10
774.64651475841697
 20
475.87500596248589
 11
774.9411836264228
 21
476.38054150384374
  0
LINE
  8
_0-1_1_5
  6
CENTER2
 62
    7
 10
774.9411836264228
 20
476.38054150384374
 11
775.121644155328
 21
476.9193317939517
  0
LINE
  8
_0-1_1_5
  6
CENTER2
 62
    7
 10
775.121644155328
 20
476.9193317939517
 11
775.18241314327918
 21
477.47500596248591
  0
LINE
  8
_0-1_1_5
  6
CENTER2
 62
    7
 10
775.18241314327918
 20
477.47500596248591
 11
775.18241314327918
 21
477.47500596248591
  0
LINE
  8
_0-1_1_5
  6
CENTER2
 62
    7
 10
775.18241314327918
 20
457.6867863469414
 11
775.18241314327918
 21
457.6867863469414
  0
LINE
  8
_0-1_1_5
  6
CENTER2
 62
    7
 10
775.18241314327918
 20
457.6867863469414
 11
775.121644155328
 21
458.24246051547556
  0
LINE
  8
_0-1_1_5
  6
CENTER2
 62
    7
 10
775.121644155328
 20
458.24246051547556
 11
774.9411836264228
 21
458.78125080558357
  0
LINE
  8
_0-1_1_5
  6
CENTER2
 62
    7
 10
774.9411836264228
 20
458.78125080558357
 11
774.64651475841697
 21
459.28678634694143
  0
LINE
  8
_0-1_1_5
  6
CENTER2
 62
    7
 10
774.64651475841697
 20
459.28678634694143
 11
774.24659091575506
 21
459.74370669793831
  0
LINE
  8
_0-1_1_5
  6
CENTER2
 62
    7
 10
774.24659091575506
 20
459.74370669793831
 11
773.75356358202532
 21
460.13812856492211
  0
LINE
  8
_0-1_1_5
  6
CENTER2
 62
    7
 10
773.75356358202532
 20
460.13812856492211
 11
773.18241314327918
 21
460.45806763905159
  0
LINE
  8
_0-1_1_5
  6
CENTER2
 62
    7
 10
773.18241314327918
 20
460.45806763905159
 11
772.55049371658185
 21
460.69380273345632
  0
LINE
  8
_0-1_1_5
  6
CENTER2
 62
    7
 10
772.55049371658185
 20
460.69380273345632
 11
771.87700585394691
 21
460.83817115658047
  0
LINE
  8
_0-1_1_5
  6
CENTER2
 62
    7
 10
771.87700585394691
 20
460.83817115658047
 11
771.18241314327918
 21
460.88678634694139
  0
LINE
  8
_0-1_1_5
  6
CENTER2
 62
    7
 10
771.18241314327918
 20
460.88678634694139
 11
770.48782043261144
 21
460.83817115658047
  0
LINE
  8
_0-1_1_5
  6
CENTER2
 62
    7
 10
770.48782043261144
 20
460.83817115658047
 11
769.8143325699765
 21
460.69380273345632
  0
LINE
  8
_0-1_1_5
  6
CENTER2
 62
    7
 10
769.8143325699765
 20
460.69380273345632
 11
769.18241314327918
 21
460.45806763905159
  0
LINE
  8
_0-1_1_5
  6
CENTER2
 62
    7
 10
769.18241314327918
 20
460.45806763905159
 11
768.61126270453303
 21
460.13812856492211
  0
LINE
  8
_0-1_1_5
  6
CENTER2
 62
    7
 10
768.61126270453303
 20
460.13812856492211
 11
768.11823537080329
 21
459.74370669793831
  0
LINE
  8
_0-1_1_5
  6
CENTER2
 62
    7
 10
768.11823537080329
 20
459.74370669793831
 11
767.71831152814138
 21
459.28678634694143
  0
LINE
  8
_0-1_1_5
  6
CENTER2
 62
    7
 10
767.71831152814138
 20
459.28678634694143
 11
767.42364266013556
 21
458.78125080558357
  0
LINE
  8
_0-1_1_5
  6
CENTER2
 62
    7
 10
767.42364266013556
 20
458.78125080558357
 11
767.24318213123036
 21
458.24246051547556
  0
LINE
  8
_0-1_1_5
  6
CENTER2
 62
    7
 10
767.24318213123036
 20
458.24246051547556
 11
767.18241314327918
 21
457.6867863469414
  0
LINE
  8
_0-1_1_5
  6
CENTER2
 62
    7
 10
767.18241314327918
 20
457.6867863469414
 11
767.24318213123036
 21
457.13111217840725
  0
LINE
  8
_0-1_1_5
  6
CENTER2
 62
    7
 10
767.24318213123036
 20
457.13111217840725
 11
767.42364266013556
 21
456.5923218882993
  0
LINE
  8
_0-1_1_5
  6
CENTER2
 62
    7
 10
767.42364266013556
 20
456.5923218882993
 11
767.71831152814138
 21
456.08678634694138
  0
LINE
  8
_0-1_1_5
  6
CENTER2
 62
    7
 10
767.71831152814138
 20
456.08678634694138
 11
768.11823537080329
 21
455.6298659959445
  0
LINE
  8
_0-1_1_5
  6
CENTER2
 62
    7
 10
768.11823537080329
 20
455.6298659959445
 11
768.61126270453303
 21
455.23544412896069
  0
LINE
  8
_0-1_1_5
  6
CENTER2
 62
    7
 10
768.61126270453303
 20
455.23544412896069
 11
769.18241314327918
 21
454.91550505483121
  0
LINE
  8
_0-1_1_5
  6
CENTER2
 62
    7
 10
769.18241314327918
 20
454.91550505483121
 11
769.8143325699765
 21
454.67976996042648
  0
LINE
  8
_0-1_1_5
  6
CENTER2
 62
    7
 10
769.8143325699765
 20
454.67976996042648
 11
770.48782043261144
 21
454.53540153730233
  0
LINE
  8
_0-1_1_5
  6
CENTER2
 62
    7
 10
770.48782043261144
 20
454.53540153730233
 11
771.18241314327918
 21
454.48678634694141
  0
LINE
  8
_0-1_1_5
  6
CENTER2
 62
    7
 10
771.18241314327918
 20
454.48678634694141
 11
771.87700585394691
 21
454.53540153730233
  0
LINE
  8
_0-1_1_5
  6
CENTER2
 62
    7
 10
771.87700585394691
 20
454.53540153730233
 11
772.55049371658185
 21
454.67976996042648
  0
LINE
  8
_0-1_1_5
  6
CENTER2
 62
    7
 10
772.55049371658185
 20
454.67976996042648
 11
773.18241314327918
 21
454.91550505483121
  0
LINE
  8
_0-1_1_5
  6
CENTER2
 62
    7
 10
773.18241314327918
 20
454.91550505483121
 11
773.75356358202532
 21
455.23544412896069
  0
LINE
  8
_0-1_1_5
  6
CENTER2
 62
    7
 10
773.75356358202532
 20
455.23544412896069
 11
774.24659091575506
 21
455.62986599594444
  0
LINE
  8
_0-1_1_5
  6
CENTER2
 62
    7
 10
774.24659091575506
 20
455.62986599594444
 11
774.64651475841697
 21
456.08678634694138
  0
LINE
  8
_0-1_1_5
  6
CENTER2
 62
    7
 10
774.64651475841697
 20
456.08678634694138
 11
774.9411836264228
 21
456.59232188829924
  0
LINE
  8
_0-1_1_5
  6
CENTER2
 62
    7
 10
774.9411836264228
 20
456.59232188829924
 11
775.121644155328
 21
457.13111217840719
  0
LINE
  8
_0-1_1_5
  6
CENTER2
 62
    7
 10
775.121644155328
 20
457.13111217840719
 11
775.18241314327918
 21
457.6867863469414
  0
LINE
  8
_0-1_1_5
  6
CENTER2
 62
    7
 10
775.18241314327918
 20
457.6867863469414
 11
775.18241314327918
 21
457.6867863469414
  0
LINE
  8
_0-1_1_5
  6
CENTER2
 62
    7
 10
776.18241314327918
 20
457.6867863469414
 11
766.18241314327918
 21
457.6867863469414
  0
LINE
  8
_0-1_1_5
  6
CENTER2
 62
    7
 10
771.18241314327918
 20
453.68678634694135
 11
771.18241314327918
 21
461.6867863469414
  0
LINE
  8
_0-1_1_5
  6
CENTER2
 62
    7
 10
760.18241314327929
 20
487.58089615471363
 11
782.1824131432794
 21
487.58089615471363
  0
LINE
  8
_0-1_1_5
  6
CENTER2
 62
    7
 10
782.1824131432794
 20
487.58089615471363
 11
785.18241314327929
 21
484.58089615471363
  0
LINE
  8
_0-1_1_5
  6
CENTER2
 62
    7
 10
785.18241314327929
 20
450.58089615471368
 11
785.18241314327929
 21
484.58089615471363
  0
LINE
  8
_0-1_1_5
  6
CENTER2
 62
    7
 10
785.18241314327929
 20
450.58089615471368
 11
782.1824131432794
 21
447.58089615471363
  0
LINE
  8
_0-1_1_5
  6
CENTER2
 62
    7
 10
760.18241314327929
 20
447.58089615471363
 11
782.1824131432794
 21
447.58089615471363
  0
LINE
  8
_0-1_1_5
  6
CENTER2
 62
    7
 10
760.18241314327929
 20
447.58089615471363
 11
757.1824131432794
 21
450.58089615471368
  0
LINE
  8
_0-1_1_5
  6
CENTER2
 62
    7
 10
757.1824131432794
 20
484.58089615471363
 11
757.1824131432794
 21
450.58089615471368
  0
LINE
  8
_0-1_1_5
  6
CENTER2
 62
    7
 10
757.1824131432794
 20
484.58089615471363
 11
760.18241314327929
 21
487.58089615471363
  0
ARC
  8
_0-1_1_5
  6
CONTINUOUS
 62
    7
 10
771.18241314327918
 20
467.58089615471363
 40
25
 50
191.53695903281547
 51
168.46304096718453
  0
LINE
  8
_0-1_1_5
  6
CONTINUOUS
 62
    7
 10
21.182413143279177
 20
332.93581945913525
 11
19.432511148983167
 21
327.31088870021608
  0
LINE
  8
_0-1_1_5
  6
CONTINUOUS
 62
    7
 10
21.182413143279177
 20
332.93581945913525
 11
22.932315137575188
 21
327.31088870021608
  0
LINE
  8
_0-1_1_5
  6
CONTINUOUS
 62
    7
 10
22.932315137575188
 20
288.73687031860612
 11
22.932315137575188
 21
327.31088870021608
  0
LINE
  8
_0-1_1_5
  6
CONTINUOUS
 62
    7
 10
19.432511148983167
 20
288.77369259553302
 11
19.432511148983167
 21
327.31033477156825
  0
LINE
  8
_0-1_1_5
  6
CONTINUOUS
 62
    7
 10
22.815504884531208
 20
299.1862349056214
 11
19.315700895939472
 21
300.59246759535085
  0
LINE
  8
_0-1_1_5
  6
CONTINUOUS
 62
    7
 10
22.815504884531208
 20
300.59246759535085
 11
19.315700895939472
 21
301.99870028508099
  0
LINE
  8
_0-1_1_5
  6
CONTINUOUS
 62
    7
 10
22.815504884531208
 20
301.99870028508099
 11
19.315700895939472
 21
303.40493297481044
  0
LINE
  8
_0-1_1_5
  6
CONTINUOUS
 62
    7
 10
22.815504884531208
 20
303.40493297481044
 11
19.315700895939472
 21
304.81116566454034
  0
LINE
  8
_0-1_1_5
  6
CONTINUOUS
 62
    7
 10
22.815504884531208
 20
304.81116566454034
 11
19.315700895939472
 21
306.21739835426979
  0
LINE
  8
_0-1_1_5
  6
CONTINUOUS
 62
    7
 10
22.815504884531208
 20
306.21739835426979
 11
19.315700895939472
 21
307.62363104399992
  0
LINE
  8
_0-1_1_5
  6
CONTINUOUS
 62
    7
 10
22.815504884531208
 20
311.84232911318918
 11
19.315700895939472
 21
313.24856180291886
  0
LINE
  8
_0-1_1_5
  6
CONTINUOUS
 62
    7
 10
22.815504884531208
 20
310.43609642345928
 11
19.315700895939472
 21
311.84232911318918
  0
LINE
  8
_0-1_1_5
  6
CONTINUOUS
 62
    7
 10
22.815504884531208
 20
313.24856180291886
 11
19.315700895939472
 21
314.65479449264848
  0
LINE
  8
_0-1_1_5
  6
CONTINUOUS
 62
    7
 10
22.815504884531208
 20
314.65479449264848
 11
19.315700895939472
 21
316.06102718237821
  0
LINE
  8
_0-1_1_5
  6
CONTINUOUS
 62
    7
 10
22.815504884531208
 20
316.06102718237821
 11
19.315700895939472
 21
317.46725987210789
  0
LINE
  8
_0-1_1_5
  6
CONTINUOUS
 62
    7
 10
22.815504884531208
 20
317.46725987210789
 11
19.315700895939472
 21
318.87349256183779
  0
LINE
  8
_0-1_1_5
  6
CONTINUOUS
 62
    7
 10
22.815504884531208
 20
318.87349256183779
 11
19.315700895939472
 21
320.27972525156747
  0
LINE
  8
_0-1_1_5
  6
CONTINUOUS
 62
    7
 10
22.815504884531208
 20
320.27972525156747
 11
19.315700895939472
 21
321.68595794129715
  0
LINE
  8
_0-1_1_5
  6
CONTINUOUS
 62
    7
 10
22.815504884531208
 20
307.62363104399992
 11
19.315700895939472
 21
309.02986373372937
  0
LINE
  8
_0-1_1_5
  6
CONTINUOUS
 62
    7
 10
22.815504884531208
 20
321.68595794129715
 11
19.315700895939472
 21
323.09219063102711
  0
LINE
  8
_0-1_1_5
  6
CONTINUOUS
 62
    7
 10
22.815504884531208
 20
324.49842332075673
 11
19.315700895939472
 21
325.90465601048663
  0
LINE
  8
_0-1_1_5
  6
CONTINUOUS
 62
    7
 10
22.815504884531208
 20
325.90465601048663
 11
19.315700895939472
 21
327.31088870021608
  0
LINE
  8
_0-1_1_5
  6
CONTINUOUS
 62
    7
 10
22.815504884531208
 20
323.09219063102711
 11
19.315700895939472
 21
324.49842332075673
  0
LINE
  8
_0-1_1_5
  6
CONTINUOUS
 62
    7
 10
22.815504884531208
 20
309.02986373372937
 11
19.315700895939472
 21
310.43609642345928
  0
LINE
  8
_0-1_1_5
  6
CONTINUOUS
 62
    7
 10
22.815504884531208
 20
297.78623490562126
 11
19.315700895939472
 21
299.19246759535099
  0
LINE
  8
_0-1_1_5
  6
CONTINUOUS
 62
    7
 10
22.815504884531208
 20
296.38623490562139
 11
19.315700895939472
 21
297.79246759535113
  0
LINE
  8
_0-1_1_5
  6
CONTINUOUS
 62
    7
 10
22.815504884531208
 20
294.98623490562136
 11
19.315700895939472
 21
296.39246759535098
  0
LINE
  8
_0-1_1_5
  6
CONTINUOUS
 62
    7
 10
22.815504884531208
 20
293.5862349056215
 11
19.315700895939472
 21
294.99246759535112
  0
LINE
  8
_0-1_1_5
  6
CENTER2
 62
    7
 10
22.815504884531208
 20
290.78623490562154
 11
19.315700895939472
 21
292.19246759535122
  0
LINE
  8
_0-1_1_5
  6
CENTER2
 62
    7
 10
22.815504884531208
 20
289.38623490562151
 11
19.315700895939472
 21
290.79246759535135
  0
LINE
  8
_0-1_1_5
  6
CENTER2
 62
    7
 10
20.947338377288531
 20
288.73687031860641
 11
19.315700895939472
 21
289.39246759535109
  0
LINE
  8
_0-1_1_5
  6
CENTER2
 62
    7
 10
17.682413143279234
 20
286.9867723129023
 11
19.432511148983167
 21
288.73687031860641
  0
LINE
  8
_0-1_1_5
  6
CENTER2
 62
    7
 10
24.682413143279121
 20
286.9867723129023
 11
22.932315137575188
 21
288.73687031860612
  0
LINE
  8
_0-1_1_5
  6
CENTER2
 62
    7
 10
19.432511148983167
 20
288.73687031860641
 11
22.932315137575188
 21
288.73687031860641
  0
LINE
  8
_0-1_1_5
  6
CENTER2
 62
    7
 10
35.182413143279234
 20
286.9867723129023
 11
7.1824131432791205
 21
286.9867723129023
  0
LINE
  8
_0-1_1_5
  6
CENTER2
 62
    7
 10
7.1824131432791205
 20
286.9867723129023
 11
7.1824131432791205
 21
293.48677231290225
  0
LINE
  8
_0-1_1_5
  6
CENTER2
 62
    7
 10
35.182413143279234
 20
286.9867723129023
 11
35.182413143279234
 21
293.48677231290225
  0
LINE
  8
_0-1_1_5
  6
CONTINUOUS
 62
    7
 10
-3.8175868567205384
 20
283.48677231290225
 11
-3.8175868567205384
 21
293.48677231290225
  0
LINE
  8
_0-1_1_5
  6
CONTINUOUS
 62
    7
 10
46.182413143279177
 20
283.48677231290225
 11
46.182413143279177
 21
293.48677231290225
  0
LINE
  8
_0-1_1_5
  6
CONTINUOUS
 62
    7
 10
-3.8175868567205384
 20
293.48677231290225
 11
46.182413143279177
 21
293.48677231290225
  0
LINE
  8
_0-1_1_5
  6
CONTINUOUS
 62
    7
 10
-3.8175868567205384
 20
283.48677231290225
 11
46.182413143279177
 21
283.48677231290225
  0
LINE
  8
_0-1_1_5
  6
CONTINUOUS
 62
    7
 10
13.182413143279064
 20
223.48677231290219
 11
29.182413143279291
 21
223.48677231290219
  0
LINE
  8
_0-1_1_5
  6
CONTINUOUS
 62
    7
 10
29.182413143279291
 20
238.48677231290227
 11
29.182413143279291
 21
238.48677231290227
  0
LINE
  8
_0-1_1_5
  6
CONTINUOUS
 62
    7
 10
29.182413143279291
 20
238.48677231290227
 11
28.878528832362164
 21
238.41081107796333
  0
LINE
  8
_0-1_1_5
  6
CONTINUOUS
 62
    7
 10
28.878528832362164
 20
238.41081107796333
 11
28.58387789245937
 21
238.18523541683183
  0
LINE
  8
_0-1_1_5
  6
CONTINUOUS
 62
    7
 10
28.58387789245937
 20
238.18523541683183
 11
28.307413143279291
 21
237.81689933182446
  0
LINE
  8
_0-1_1_5
  6
CONTINUOUS
 62
    7
 10
28.307413143279291
 20
237.81689933182446
 11
28.057534826327846
 21
237.31699452849716
  0
LINE
  8
_0-1_1_5
  6
CONTINUOUS
 62
    7
 10
28.057534826327846
 20
237.31699452849716
 11
27.84183536782108
 21
236.70071036133498
  0
LINE
  8
_0-1_1_5
  6
CONTINUOUS
 62
    7
 10
27.84183536782108
 20
236.70071036133498
 11
27.666868686656525
 21
235.98677231290227
  0
LINE
  8
_0-1_1_5
  6
CONTINUOUS
 62
    7
 10
27.666868686656525
 20
235.98677231290227
 11
27.53795105690395
 21
235.19687302953062
  0
LINE
  8
_0-1_1_5
  6
CONTINUOUS
 62
    7
 10
27.53795105690395
 20
235.19687302953062
 11
27.458999575507928
 21
234.35501320123694
  0
LINE
  8
_0-1_1_5
  6
CONTINUOUS
 62
    7
 10
27.458999575507928
 20
234.35501320123694
 11
27.432413143279291
 21
233.48677231290227
  0
LINE
  8
_0-1_1_5
  6
CONTINUOUS
 62
    7
 10
27.432413143279291
 20
233.48677231290227
 11
27.458999575507928
 21
232.61853142456764
  0
LINE
  8
_0-1_1_5
  6
CONTINUOUS
 62
    7
 10
27.458999575507928
 20
232.61853142456764
 11
27.53795105690395
 21
231.77667159627393
  0
LINE
  8
_0-1_1_5
  6
CONTINUOUS
 62
    7
 10
27.53795105690395
 20
231.77667159627393
 11
27.666868686656521
 21
230.98677231290227
  0
LINE
  8
_0-1_1_5
  6
CONTINUOUS
 62
    7
 10
27.666868686656521
 20
230.98677231290227
 11
27.84183536782108
 21
230.27283426446959
  0
LINE
  8
_0-1_1_5
  6
CONTINUOUS
 62
    7
 10
27.84183536782108
 20
230.27283426446959
 11
28.057534826327846
 21
229.65655009730739
  0
LINE
  8
_0-1_1_5
  6
CONTINUOUS
 62
    7
 10
28.057534826327846
 20
229.65655009730739
 11
28.307413143279287
 21
229.15664529398009
  0
LINE
  8
_0-1_1_5
  6
CONTINUOUS
 62
    7
 10
28.307413143279287
 20
229.15664529398009
 11
28.58387789245937
 21
228.78830920897275
  0
LINE
  8
_0-1_1_5
  6
CONTINUOUS
 62
    7
 10
28.58387789245937
 20
228.78830920897275
 11
28.878528832362161
 21
228.56273354784125
  0
LINE
  8
_0-1_1_5
  6
CONTINUOUS
 62
    7
 10
28.878528832362161
 20
228.56273354784125
 11
29.182413143279287
 21
228.48677231290227
  0
LINE
  8
_0-1_1_5
  6
CONTINUOUS
 62
    7
 10
29.182413143279287
 20
228.48677231290227
 11
29.182413143279291
 21
228.48677231290227
  0
LINE
  8
_0-1_1_5
  6
CONTINUOUS
 62
    7
 10
29.182413143279291
 20
223.48677231290219
 11
29.182413143279291
 21
228.48677231290219
  0
LINE
  8
_0-1_1_5
  6
CONTINUOUS
 62
    7
 10
13.182413143279064
 20
223.48677231290219
 11
13.182413143279064
 21
283.48677231290225
  0
LINE
  8
_0-1_1_5
  6
CONTINUOUS
 62
    7
 10
29.182413143279291
 20
238.48677231290225
 11
29.182413143279291
 21
283.48677231290225
  0
CIRCLE
  8
_0-1_1_5
  6
CONTINUOUS
 62
    7
 10
21.182413143279177
 20
467.58089615471363
 40
8
  0
LINE
  8
_0-1_1_5
  6
CENTER2
 62
    7
 10
26.182413143279177
 20
477.47500596248591
 11
16.182413143279177
 21
477.47500596248591
  0
LINE
  8
_0-1_1_5
  6
CENTER2
 62
    7
 10
21.182413143279177
 20
481.47500596248597
 11
21.182413143279177
 21
473.47500596248602
  0
LINE
  8
_0-1_1_5
  6
CENTER2
 62
    7
 10
25.182413143279177
 20
477.47500596248591
 11
25.182413143279177
 21
477.47500596248591
  0
LINE
  8
_0-1_1_5
  6
CENTER2
 62
    7
 10
25.182413143279177
 20
477.47500596248591
 11
25.12164415532801
 21
478.03068013102006
  0
LINE
  8
_0-1_1_5
  6
CENTER2
 62
    7
 10
25.12164415532801
 20
478.03068013102006
 11
24.941183626422813
 21
478.56947042112807
  0
LINE
  8
_0-1_1_5
  6
CENTER2
 62
    7
 10
24.941183626422813
 20
478.56947042112807
 11
24.646514758416931
 21
479.07500596248593
  0
LINE
  8
_0-1_1_5
  6
CENTER2
 62
    7
 10
24.646514758416931
 20
479.07500596248593
 11
24.246590915755089
 21
479.53192631348281
  0
LINE
  8
_0-1_1_5
  6
CENTER2
 62
    7
 10
24.246590915755089
 20
479.53192631348281
 11
23.753563582025336
 21
479.92634818046662
  0
LINE
  8
_0-1_1_5
  6
CENTER2
 62
    7
 10
23.753563582025336
 20
479.92634818046662
 11
23.182413143279177
 21
480.2462872545961
  0
LINE
  8
_0-1_1_5
  6
CENTER2
 62
    7
 10
23.182413143279177
 20
480.2462872545961
 11
22.550493716581851
 21
480.48202234900083
  0
LINE
  8
_0-1_1_5
  6
CENTER2
 62
    7
 10
22.550493716581851
 20
480.48202234900083
 11
21.877005853946898
 21
480.62639077212498
  0
LINE
  8
_0-1_1_5
  6
CENTER2
 62
    7
 10
21.877005853946898
 20
480.62639077212498
 11
21.182413143279177
 21
480.6750059624859
  0
LINE
  8
_0-1_1_5
  6
CENTER2
 62
    7
 10
21.182413143279177
 20
480.6750059624859
 11
20.487820432611457
 21
480.62639077212498
  0
LINE
  8
_0-1_1_5
  6
CENTER2
 62
    7
 10
20.487820432611457
 20
480.62639077212498
 11
19.814332569976504
 21
480.48202234900083
  0
LINE
  8
_0-1_1_5
  6
CENTER2
 62
    7
 10
19.814332569976504
 20
480.48202234900083
 11
19.182413143279177
 21
480.2462872545961
  0
LINE
  8
_0-1_1_5
  6
CENTER2
 62
    7
 10
19.182413143279177
 20
480.2462872545961
 11
18.611262704533022
 21
479.92634818046662
  0
LINE
  8
_0-1_1_5
  6
CENTER2
 62
    7
 10
18.611262704533022
 20
479.92634818046662
 11
18.118235370803266
 21
479.53192631348281
  0
LINE
  8
_0-1_1_5
  6
CENTER2
 62
    7
 10
18.118235370803266
 20
479.53192631348281
 11
17.718311528141424
 21
479.07500596248593
  0
LINE
  8
_0-1_1_5
  6
CENTER2
 62
    7
 10
17.718311528141424
 20
479.07500596248593
 11
17.423642660135545
 21
478.56947042112807
  0
LINE
  8
_0-1_1_5
  6
CENTER2
 62
    7
 10
17.423642660135545
 20
478.56947042112807
 11
17.243182131230345
 21
478.03068013102006
  0
LINE
  8
_0-1_1_5
  6
CENTER2
 62
    7
 10
17.243182131230345
 20
478.03068013102006
 11
17.182413143279177
 21
477.47500596248591
  0
LINE
  8
_0-1_1_5
  6
CENTER2
 62
    7
 10
17.182413143279177
 20
477.47500596248591
 11
17.243182131230345
 21
476.91933179395176
  0
LINE
  8
_0-1_1_5
  6
CENTER2
 62
    7
 10
17.243182131230345
 20
476.91933179395176
 11
17.423642660135542
 21
476.3805415038438
  0
LINE
  8
_0-1_1_5
  6
CENTER2
 62
    7
 10
17.423642660135542
 20
476.3805415038438
 11
17.71831152814142
 21
475.87500596248594
  0
LINE
  8
_0-1_1_5
  6
CENTER2
 62
    7
 10
17.71831152814142
 20
475.87500596248594
 11
18.118235370803259
 21
475.418085611489
  0
LINE
  8
_0-1_1_5
  6
CENTER2
 62
    7
 10
18.118235370803259
 20
475.418085611489
 11
18.611262704533015
 21
475.0236637445052
  0
LINE
  8
_0-1_1_5
  6
CENTER2
 62
    7
 10
18.611262704533015
 20
475.0236637445052
 11
19.18241314327917
 21
474.70372467037572
  0
LINE
  8
_0-1_1_5
  6
CENTER2
 62
    7
 10
19.18241314327917
 20
474.70372467037572
 11
19.814332569976493
 21
474.46798957597099
  0
LINE
  8
_0-1_1_5
  6
CENTER2
 62
    7
 10
19.814332569976493
 20
474.46798957597099
 11
20.487820432611446
 21
474.32362115284684
  0
LINE
  8
_0-1_1_5
  6
CENTER2
 62
    7
 10
20.487820432611446
 20
474.32362115284684
 11
21.182413143279167
 21
474.27500596248592
  0
LINE
  8
_0-1_1_5
  6
CENTER2
 62
    7
 10
21.182413143279167
 20
474.27500596248592
 11
21.877005853946887
 21
474.32362115284684
  0
LINE
  8
_0-1_1_5
  6
CENTER2
 62
    7
 10
21.877005853946887
 20
474.32362115284684
 11
22.55049371658184
 21
474.46798957597099
  0
LINE
  8
_0-1_1_5
  6
CENTER2
 62
    7
 10
22.55049371658184
 20
474.46798957597099
 11
23.182413143279167
 21
474.70372467037572
  0
LINE
  8
_0-1_1_5
  6
CENTER2
 62
    7
 10
23.182413143279167
 20
474.70372467037572
 11
23.753563582025322
 21
475.0236637445052
  0
LINE
  8
_0-1_1_5
  6
CENTER2
 62
    7
 10
23.753563582025322
 20
475.0236637445052
 11
24.246590915755078
 21
475.41808561148895
  0
LINE
  8
_0-1_1_5
  6
CENTER2
 62
    7
 10
24.246590915755078
 20
475.41808561148895
 11
24.646514758416924
 21
475.87500596248589
  0
LINE
  8
_0-1_1_5
  6
CENTER2
 62
    7
 10
24.646514758416924
 20
475.87500596248589
 11
24.941183626422806
 21
476.38054150384374
  0
LINE
  8
_0-1_1_5
  6
CENTER2
 62
    7
 10
24.941183626422806
 20
476.38054150384374
 11
25.121644155328006
 21
476.9193317939517
  0
LINE
  8
_0-1_1_5
  6
CENTER2
 62
    7
 10
25.121644155328006
 20
476.9193317939517
 11
25.182413143279177
 21
477.47500596248591
  0
LINE
  8
_0-1_1_5
  6
CENTER2
 62
    7
 10
25.182413143279177
 20
477.47500596248591
 11
25.182413143279177
 21
477.47500596248591
  0
LINE
  8
_0-1_1_5
  6
CENTER2
 62
    7
 10
25.182413143279177
 20
457.6867863469414
 11
25.182413143279177
 21
457.6867863469414
  0
LINE
  8
_0-1_1_5
  6
CENTER2
 62
    7
 10
25.182413143279177
 20
457.6867863469414
 11
25.12164415532801
 21
458.24246051547556
  0
LINE
  8
_0-1_1_5
  6
CENTER2
 62
    7
 10
25.12164415532801
 20
458.24246051547556
 11
24.941183626422813
 21
458.78125080558357
  0
LINE
  8
_0-1_1_5
  6
CENTER2
 62
    7
 10
24.941183626422813
 20
458.78125080558357
 11
24.646514758416931
 21
459.28678634694143
  0
LINE
  8
_0-1_1_5
  6
CENTER2
 62
    7
 10
24.646514758416931
 20
459.28678634694143
 11
24.246590915755089
 21
459.74370669793831
  0
LINE
  8
_0-1_1_5
  6
CENTER2
 62
    7
 10
24.246590915755089
 20
459.74370669793831
 11
23.753563582025336
 21
460.13812856492211
  0
LINE
  8
_0-1_1_5
  6
CENTER2
 62
    7
 10
23.753563582025336
 20
460.13812856492211
 11
23.182413143279177
 21
460.45806763905159
  0
LINE
  8
_0-1_1_5
  6
CENTER2
 62
    7
 10
23.182413143279177
 20
460.45806763905159
 11
22.550493716581851
 21
460.69380273345632
  0
LINE
  8
_0-1_1_5
  6
CENTER2
 62
    7
 10
22.550493716581851
 20
460.69380273345632
 11
21.877005853946898
 21
460.83817115658047
  0
LINE
  8
_0-1_1_5
  6
CENTER2
 62
    7
 10
21.877005853946898
 20
460.83817115658047
 11
21.182413143279177
 21
460.88678634694139
  0
LINE
  8
_0-1_1_5
  6
CENTER2
 62
    7
 10
21.182413143279177
 20
460.88678634694139
 11
20.487820432611457
 21
460.83817115658047
  0
LINE
  8
_0-1_1_5
  6
CENTER2
 62
    7
 10
20.487820432611457
 20
460.83817115658047
 11
19.814332569976504
 21
460.69380273345632
  0
LINE
  8
_0-1_1_5
  6
CENTER2
 62
    7
 10
19.814332569976504
 20
460.69380273345632
 11
19.182413143279177
 21
460.45806763905159
  0
LINE
  8
_0-1_1_5
  6
CENTER2
 62
    7
 10
19.182413143279177
 20
460.45806763905159
 11
18.611262704533022
 21
460.13812856492211
  0
LINE
  8
_0-1_1_5
  6
CENTER2
 62
    7
 10
18.611262704533022
 20
460.13812856492211
 11
18.118235370803266
 21
459.74370669793831
  0
LINE
  8
_0-1_1_5
  6
CENTER2
 62
    7
 10
18.118235370803266
 20
459.74370669793831
 11
17.718311528141424
 21
459.28678634694143
  0
LINE
  8
_0-1_1_5
  6
CENTER2
 62
    7
 10
17.718311528141424
 20
459.28678634694143
 11
17.423642660135545
 21
458.78125080558357
  0
LINE
  8
_0-1_1_5
  6
CENTER2
 62
    7
 10
17.423642660135545
 20
458.78125080558357
 11
17.243182131230345
 21
458.24246051547556
  0
LINE
  8
_0-1_1_5
  6
CENTER2
 62
    7
 10
17.243182131230345
 20
458.24246051547556
 11
17.182413143279177
 21
457.6867863469414
  0
LINE
  8
_0-1_1_5
  6
CENTER2
 62
    7
 10
17.182413143279177
 20
457.6867863469414
 11
17.243182131230345
 21
457.13111217840725
  0
LINE
  8
_0-1_1_5
  6
CENTER2
 62
    7
 10
17.243182131230345
 20
457.13111217840725
 11
17.423642660135542
 21
456.5923218882993
  0
LINE
  8
_0-1_1_5
  6
CENTER2
 62
    7
 10
17.423642660135542
 20
456.5923218882993
 11
17.71831152814142
 21
456.08678634694138
  0
LINE
  8
_0-1_1_5
  6
CENTER2
 62
    7
 10
17.71831152814142
 20
456.08678634694138
 11
18.118235370803259
 21
455.6298659959445
  0
LINE
  8
_0-1_1_5
  6
CENTER2
 62
    7
 10
18.118235370803259
 20
455.6298659959445
 11
18.611262704533015
 21
455.23544412896069
  0
LINE
  8
_0-1_1_5
  6
CENTER2
 62
    7
 10
18.611262704533015
 20
455.23544412896069
 11
19.18241314327917
 21
454.91550505483121
  0
LINE
  8
_0-1_1_5
  6
CENTER2
 62
    7
 10
19.18241314327917
 20
454.91550505483121
 11
19.814332569976493
 21
454.67976996042648
  0
LINE
  8
_0-1_1_5
  6
CENTER2
 62
    7
 10
19.814332569976493
 20
454.67976996042648
 11
20.487820432611446
 21
454.53540153730233
  0
LINE
  8
_0-1_1_5
  6
CENTER2
 62
    7
 10
20.487820432611446
 20
454.53540153730233
 11
21.182413143279167
 21
454.48678634694141
  0
LINE
  8
_0-1_1_5
  6
CENTER2
 62
    7
 10
21.182413143279167
 20
454.48678634694141
 11
21.877005853946887
 21
454.53540153730233
  0
LINE
  8
_0-1_1_5
  6
CENTER2
 62
    7
 10
21.877005853946887
 20
454.53540153730233
 11
22.55049371658184
 21
454.67976996042648
  0
LINE
  8
_0-1_1_5
  6
CENTER2
 62
    7
 10
22.55049371658184
 20
454.67976996042648
 11
23.182413143279167
 21
454.91550505483121
  0
LINE
  8
_0-1_1_5
  6
CENTER2
 62
    7
 10
23.182413143279167
 20
454.91550505483121
 11
23.753563582025322
 21
455.23544412896069
  0
LINE
  8
_0-1_1_5
  6
CENTER2
 62
    7
 10
23.753563582025322
 20
455.23544412896069
 11
24.246590915755078
 21
455.62986599594444
  0
LINE
  8
_0-1_1_5
  6
CENTER2
 62
    7
 10
24.246590915755078
 20
455.62986599594444
 11
24.646514758416924
 21
456.08678634694138
  0
LINE
  8
_0-1_1_5
  6
CENTER2
 62
    7
 10
24.646514758416924
 20
456.08678634694138
 11
24.941183626422806
 21
456.59232188829924
  0
LINE
  8
_0-1_1_5
  6
CENTER2
 62
    7
 10
24.941183626422806
 20
456.59232188829924
 11
25.121644155328006
 21
457.13111217840719
  0
LINE
  8
_0-1_1_5
  6
CENTER2
 62
    7
 10
25.121644155328006
 20
457.13111217840719
 11
25.182413143279177
 21
457.6867863469414
  0
LINE
  8
_0-1_1_5
  6
CENTER2
 62
    7
 10
25.182413143279177
 20
457.6867863469414
 11
25.182413143279177
 21
457.6867863469414
  0
LINE
  8
_0-1_1_5
  6
CENTER2
 62
    7
 10
26.182413143279177
 20
457.6867863469414
 11
16.182413143279177
 21
457.6867863469414
  0
LINE
  8
_0-1_1_5
  6
CENTER2
 62
    7
 10
21.182413143279177
 20
453.68678634694135
 11
21.182413143279177
 21
461.6867863469414
  0
LINE
  8
_0-1_1_5
  6
CENTER2
 62
    7
 10
10.182413143279234
 20
487.58089615471363
 11
32.182413143279121
 21
487.58089615471363
  0
LINE
  8
_0-1_1_5
  6
CENTER2
 62
    7
 10
32.182413143279121
 20
487.58089615471363
 11
35.182413143279234
 21
484.58089615471363
  0
LINE
  8
_0-1_1_5
  6
CENTER2
 62
    7
 10
35.182413143279234
 20
450.58089615471368
 11
35.182413143279234
 21
484.58089615471363
  0
LINE
  8
_0-1_1_5
  6
CENTER2
 62
    7
 10
35.182413143279234
 20
450.58089615471368
 11
32.182413143279121
 21
447.58089615471363
  0
LINE
  8
_0-1_1_5
  6
CENTER2
 62
    7
 10
10.182413143279234
 20
447.58089615471363
 11
32.182413143279121
 21
447.58089615471363
  0
LINE
  8
_0-1_1_5
  6
CENTER2
 62
    7
 10
10.182413143279234
 20
447.58089615471363
 11
7.1824131432791205
 21
450.58089615471368
  0
LINE
  8
_0-1_1_5
  6
CENTER2
 62
    7
 10
7.1824131432791205
 20
484.58089615471363
 11
7.1824131432791205
 21
450.58089615471368
  0
LINE
  8
_0-1_1_5
  6
CENTER2
 62
    7
 10
7.1824131432791205
 20
484.58089615471363
 11
10.182413143279234
 21
487.58089615471363
  0
ARC
  8
_0-1_1_5
  6
CONTINUOUS
 62
    7
 10
21.182413143279177
 20
467.58089615471363
 40
25
 50
11.53695903281548
 51
348.4630409671845
  0
LINE
  8
_0-1_1_5
  6
CONTINUOUS
 62
    7
 10
27.427411141677567
 20
472.58089615471363
 11
764.93741514488079
 21
472.58089615471363
  0
LINE
  8
_0-1_1_5
  6
CONTINUOUS
 62
    7
 10
27.427411141677567
 20
462.58089615471363
 11
764.93741514488079
 21
462.58089615471363
  0
LINE
  8
_0-1_1_5
  6
CONTINUOUS
 62
    7
 10
29.182413143279291
 20
238.48677231290236
 11
763.18241314327906
 21
238.48677231290219
  0
LINE
  8
_0-1_1_5
  6
CONTINUOUS
 62
    7
 10
29.182413143279291
 20
228.48677231290219
 11
763.18241314327906
 21
228.48677231290219
  0
CIRCLE
  8
_0-1_1_5
  6
DASHED1
 62
    7
 10
968.94883877722827
 20
467.58089615471363
 40
5
  0
LINE
  8
_0-1_1_5
  6
CONTINUOUS
 62
    7
 10
1018.9488387772283
 20
442.58089615471363
 11
1028.9488387772283
 21
442.58089615471363
  0
LINE
  8
_0-1_1_5
  6
CONTINUOUS
 62
    7
 10
1028.9488387772283
 20
492.58089615471363
 11
1028.9488387772283
 21
442.58089615471363
  0
LINE
  8
_0-1_1_5
  6
CONTINUOUS
 62
    7
 10
1018.9488387772283
 20
492.58089615471363
 11
1018.9488387772283
 21
442.58089615471363
  0
LINE
  8
_0-1_1_5
  6
CONTINUOUS
 62
    7
 10
1018.9488387772283
 20
492.58089615471363
 11
1028.9488387772283
 21
492.58089615471363
  0
LINE
  8
_0-1_1_5
  6
CENTER2
 62
    7
 10
1028.9488387772283
 20
447.58089615471374
 11
1022.4488387772283
 21
451.3336729044463
  0
LINE
  8
_0-1_1_5
  6
CENTER2
 62
    7
 10
1022.4488387772283
 20
473.97500596248608
 11
1022.4488387772283
 21
480.97500596248602
  0
LINE
  8
_0-1_1_5
  6
CENTER2
 62
    7
 10
1022.4488387772283
 20
454.18678634694146
 11
1022.4488387772283
 21
461.1867863469414
  0
LINE
  8
_0-1_1_5
  6
CENTER2
 62
    7
 10
1022.4488387772283
 20
483.82811940498124
 11
1022.4488387772283
 21
451.3336729044463
  0
LINE
  8
_0-1_1_5
  6
CENTER2
 62
    7
 10
1028.9488387772283
 20
487.58089615471374
 11
1022.4488387772283
 21
483.82811940498124
  0
LINE
  8
_0-1_1_5
  6
CENTER2
 62
    7
 10
1024.1989367829324
 20
479.22490795678192
 11
1024.1989367829324
 21
475.72510396819013
  0
LINE
  8
_0-1_1_5
  6
CENTER2
 62
    7
 10
1022.4488387772283
 20
473.97500596248608
 11
1024.1989367829322
 21
475.72510396819013
  0
LINE
  8
_0-1_1_5
  6
CENTER2
 62
    7
 10
1022.4488387772283
 20
480.97500596248602
 11
1024.1989367829324
 21
479.22490795678192
  0
LINE
  8
_0-1_1_5
  6
CENTER2
 62
    7
 10
1024.1989367829324
 20
477.71008072847656
 11
1024.8545340596772
 21
479.34171820982579
  0
LINE
  8
_0-1_1_5
  6
CENTER2
 62
    7
 10
1024.8483013699476
 20
475.84191422123399
 11
1026.2545340596773
 21
479.34171820982579
  0
LINE
  8
_0-1_1_5
  6
CENTER2
 62
    7
 10
1026.2483013699477
 20
475.84191422123399
 11
1027.6545340596772
 21
479.34171820982579
  0
LINE
  8
_0-1_1_5
  6
CENTER2
 62
    7
 10
1027.6483013699476
 20
475.84191422123399
 11
1029.0545340596771
 21
479.34171820982579
  0
LINE
  8
_0-1_1_5
  6
CENTER2
 62
    7
 10
1024.1989367829324
 20
459.4366883412373
 11
1024.1989367829324
 21
455.93688435264551
  0
LINE
  8
_0-1_1_5
  6
CENTER2
 62
    7
 10
1022.4488387772283
 20
454.18678634694146
 11
1024.1989367829322
 21
455.93688435264551
  0
LINE
  8
_0-1_1_5
  6
CENTER2
 62
    7
 10
1022.4488387772283
 20
461.1867863469414
 11
1024.1989367829324
 21
459.4366883412373
  0
LINE
  8
_0-1_1_5
  6
CENTER2
 62
    7
 10
1024.1989367829324
 20
457.92186111293188
 11
1024.8545340596772
 21
459.55349859428117
  0
LINE
  8
_0-1_1_5
  6
CENTER2
 62
    7
 10
1024.8483013699476
 20
456.05369460568937
 11
1026.2545340596773
 21
459.55349859428117
  0
LINE
  8
_0-1_1_5
  6
CENTER2
 62
    7
 10
1026.2483013699477
 20
456.05369460568937
 11
1027.6545340596772
 21
459.55349859428117
  0
LINE
  8
_0-1_1_5
  6
CENTER2
 62
    7
 10
1027.6483013699476
 20
456.05369460568937
 11
1029.0545340596771
 21
459.55349859428117
  0
LINE
  8
_0-1_1_5
  6
CONTINUOUS
 62
    7
 10
1033.2483013699473
 20
456.05369460568937
 11
1034.6545340596772
 21
459.55349859428117
  0
LINE
  8
_0-1_1_5
  6
CONTINUOUS
 62
    7
 10
1029.0483013699475
 20
456.05369460568937
 11
1030.4545340596771
 21
459.55349859428117
  0
LINE
  8
_0-1_1_5
  6
CONTINUOUS
 62
    7
 10
1030.4483013699473
 20
456.05369460568937
 11
1031.854534059677
 21
459.55349859428117
  0
LINE
  8
_0-1_1_5
  6
CONTINUOUS
 62
    7
 10
1031.8483013699474
 20
456.05369460568937
 11
1033.2545340596771
 21
459.55349859428117
  0
LINE
  8
_0-1_1_5
  6
CONTINUOUS
 62
    7
 10
1029.0483013699475
 20
475.84191422123399
 11
1030.4545340596771
 21
479.34171820982579
  0
LINE
  8
_0-1_1_5
  6
CONTINUOUS
 62
    7
 10
1030.4483013699473
 20
475.84191422123399
 11
1031.854534059677
 21
479.34171820982579
  0
LINE
  8
_0-1_1_5
  6
CONTINUOUS
 62
    7
 10
1031.8483013699474
 20
475.84191422123399
 11
1033.2545340596771
 21
479.34171820982579
  0
LINE
  8
_0-1_1_5
  6
CONTINUOUS
 62
    7
 10
1033.2483013699473
 20
475.84191422123399
 11
1034.6545340596772
 21
479.34171820982579
  0
LINE
  8
_0-1_1_5
  6
CONTINUOUS
 62
    7
 10
1044.4919301980553
 20
475.84191422123399
 11
1045.8981628877855
 21
479.34171820982579
  0
LINE
  8
_0-1_1_5
  6
CONTINUOUS
 62
    7
 10
1058.5542570953533
 20
475.84191422123399
 11
1059.9604897850827
 21
479.34171820982579
  0
LINE
  8
_0-1_1_5
  6
CONTINUOUS
 62
    7
 10
1061.3667224748128
 20
475.84191422123399
 11
1062.7729551645421
 21
479.34171820982579
  0
LINE
  8
_0-1_1_5
  6
CONTINUOUS
 62
    7
 10
1059.9604897850827
 20
475.84191422123399
 11
1061.3667224748128
 21
479.34171820982579
  0
LINE
  8
_0-1_1_5
  6
CONTINUOUS
 62
    7
 10
1057.1480244056233
 20
475.84191422123399
 11
1058.5542570953533
 21
479.34171820982579
  0
LINE
  8
_0-1_1_5
  6
CONTINUOUS
 62
    7
 10
1043.0856975083259
 20
475.84191422123399
 11
1044.4919301980553
 21
479.34171820982579
  0
LINE
  8
_0-1_1_5
  6
CONTINUOUS
 62
    7
 10
1055.7417917158934
 20
475.84191422123399
 11
1057.1480244056233
 21
479.34171820982579
  0
LINE
  8
_0-1_1_5
  6
CONTINUOUS
 62
    7
 10
1054.3355590261638
 20
475.84191422123399
 11
1055.7417917158934
 21
479.34171820982579
  0
LINE
  8
_0-1_1_5
  6
CONTINUOUS
 62
    7
 10
1052.9293263364339
 20
475.84191422123399
 11
1054.3355590261638
 21
479.34171820982579
  0
LINE
  8
_0-1_1_5
  6
CONTINUOUS
 62
    7
 10
1051.5230936467042
 20
475.84191422123399
 11
1052.9293263364339
 21
479.34171820982579
  0
LINE
  8
_0-1_1_5
  6
CONTINUOUS
 62
    7
 10
1050.1168609569745
 20
475.84191422123399
 11
1051.5230936467042
 21
479.34171820982579
  0
LINE
  8
_0-1_1_5
  6
CONTINUOUS
 62
    7
 10
1048.7106282672448
 20
475.84191422123399
 11
1050.1168609569745
 21
479.34171820982579
  0
LINE
  8
_0-1_1_5
  6
CONTINUOUS
 62
    7
 10
1045.8981628877855
 20
475.84191422123399
 11
1047.3043955775154
 21
479.34171820982579
  0
LINE
  8
_0-1_1_5
  6
CONTINUOUS
 62
    7
 10
1047.3043955775154
 20
475.84191422123399
 11
1048.7106282672448
 21
479.34171820982579
  0
LINE
  8
_0-1_1_5
  6
CONTINUOUS
 62
    7
 10
1041.679464818596
 20
475.84191422123399
 11
1043.0856975083259
 21
479.34171820982579
  0
LINE
  8
_0-1_1_5
  6
CONTINUOUS
 62
    7
 10
1040.2732321288663
 20
475.84191422123399
 11
1041.679464818596
 21
479.34171820982579
  0
LINE
  8
_0-1_1_5
  6
CONTINUOUS
 62
    7
 10
1038.8669994391364
 20
475.84191422123399
 11
1040.2732321288663
 21
479.34171820982579
  0
LINE
  8
_0-1_1_5
  6
CONTINUOUS
 62
    7
 10
1037.460766749407
 20
475.84191422123399
 11
1038.8669994391364
 21
479.34171820982579
  0
LINE
  8
_0-1_1_5
  6
CONTINUOUS
 62
    7
 10
1036.0545340596768
 20
475.84191422123399
 11
1037.460766749407
 21
479.34171820982579
  0
LINE
  8
_0-1_1_5
  6
CONTINUOUS
 62
    7
 10
1034.6483013699476
 20
475.84191422123399
 11
1036.0545340596768
 21
479.34171820982579
  0
LINE
  8
_0-1_1_5
  6
CONTINUOUS
 62
    7
 10
1024.235759059859
 20
479.22490795678192
 11
1062.7724012358942
 21
479.22490795678192
  0
LINE
  8
_0-1_1_5
  6
CONTINUOUS
 62
    7
 10
1024.1989367829322
 20
475.72510396819013
 11
1062.7729551645421
 21
475.72510396819013
  0
LINE
  8
_0-1_1_5
  6
CONTINUOUS
 62
    7
 10
1068.3978859234612
 20
477.47500596248597
 11
1062.7729551645421
 21
475.72510396819013
  0
LINE
  8
_0-1_1_5
  6
CONTINUOUS
 62
    7
 10
1068.3978859234612
 20
477.47500596248597
 11
1062.7729551645421
 21
479.22490795678192
  0
LINE
  8
_0-1_1_5
  6
CONTINUOUS
 62
    7
 10
1044.4919301980553
 20
456.05369460568937
 11
1045.8981628877855
 21
459.55349859428117
  0
LINE
  8
_0-1_1_5
  6
CONTINUOUS
 62
    7
 10
1058.5542570953533
 20
456.05369460568937
 11
1059.9604897850827
 21
459.55349859428117
  0
LINE
  8
_0-1_1_5
  6
CONTINUOUS
 62
    7
 10
1061.3667224748128
 20
456.05369460568937
 11
1062.7729551645421
 21
459.55349859428117
  0
LINE
  8
_0-1_1_5
  6
CONTINUOUS
 62
    7
 10
1059.9604897850827
 20
456.05369460568937
 11
1061.3667224748128
 21
459.55349859428117
  0
LINE
  8
_0-1_1_5
  6
CONTINUOUS
 62
    7
 10
1057.1480244056233
 20
456.05369460568937
 11
1058.5542570953533
 21
459.55349859428117
  0
LINE
  8
_0-1_1_5
  6
CONTINUOUS
 62
    7
 10
1043.0856975083259
 20
456.05369460568937
 11
1044.4919301980553
 21
459.55349859428117
  0
LINE
  8
_0-1_1_5
  6
CONTINUOUS
 62
    7
 10
1055.7417917158934
 20
456.05369460568937
 11
1057.1480244056233
 21
459.55349859428117
  0
LINE
  8
_0-1_1_5
  6
CONTINUOUS
 62
    7
 10
1054.3355590261638
 20
456.05369460568937
 11
1055.7417917158934
 21
459.55349859428117
  0
LINE
  8
_0-1_1_5
  6
CONTINUOUS
 62
    7
 10
1052.9293263364339
 20
456.05369460568937
 11
1054.3355590261638
 21
459.55349859428117
  0
LINE
  8
_0-1_1_5
  6
CONTINUOUS
 62
    7
 10
1051.5230936467042
 20
456.05369460568937
 11
1052.9293263364339
 21
459.55349859428117
  0
LINE
  8
_0-1_1_5
  6
CONTINUOUS
 62
    7
 10
1050.1168609569745
 20
456.05369460568937
 11
1051.5230936467042
 21
459.55349859428117
  0
LINE
  8
_0-1_1_5
  6
CONTINUOUS
 62
    7
 10
1048.7106282672448
 20
456.05369460568937
 11
1050.1168609569745
 21
459.55349859428117
  0
LINE
  8
_0-1_1_5
  6
CONTINUOUS
 62
    7
 10
1045.8981628877855
 20
456.05369460568937
 11
1047.3043955775154
 21
459.55349859428117
  0
LINE
  8
_0-1_1_5
  6
CONTINUOUS
 62
    7
 10
1047.3043955775154
 20
456.05369460568937
 11
1048.7106282672448
 21
459.55349859428117
  0
LINE
  8
_0-1_1_5
  6
CONTINUOUS
 62
    7
 10
1041.679464818596
 20
456.05369460568937
 11
1043.0856975083259
 21
459.55349859428117
  0
LINE
  8
_0-1_1_5
  6
CONTINUOUS
 62
    7
 10
1040.2732321288663
 20
456.05369460568937
 11
1041.679464818596
 21
459.55349859428117
  0
LINE
  8
_0-1_1_5
  6
CONTINUOUS
 62
    7
 10
1038.8669994391364
 20
456.05369460568937
 11
1040.2732321288663
 21
459.55349859428117
  0
LINE
  8
_0-1_1_5
  6
CONTINUOUS
 62
    7
 10
1037.460766749407
 20
456.05369460568937
 11
1038.8669994391364
 21
459.55349859428117
  0
LINE
  8
_0-1_1_5
  6
CONTINUOUS
 62
    7
 10
1036.0545340596768
 20
456.05369460568937
 11
1037.460766749407
 21
459.55349859428117
  0
LINE
  8
_0-1_1_5
  6
CONTINUOUS
 62
    7
 10
1034.6483013699476
 20
456.05369460568937
 11
1036.0545340596768
 21
459.55349859428117
  0
LINE
  8
_0-1_1_5
  6
CONTINUOUS
 62
    7
 10
1024.235759059859
 20
459.4366883412373
 11
1062.7724012358942
 21
459.4366883412373
  0
LINE
  8
_0-1_1_5
  6
CONTINUOUS
 62
    7
 10
1024.1989367829322
 20
455.93688435264551
 11
1062.7729551645421
 21
455.93688435264551
  0
LINE
  8
_0-1_1_5
  6
CONTINUOUS
 62
    7
 10
1068.3978859234612
 20
457.68678634694135
 11
1062.7729551645421
 21
455.93688435264551
  0
LINE
  8
_0-1_1_5
  6
CONTINUOUS
 62
    7
 10
1068.3978859234612
 20
457.68678634694135
 11
1062.7729551645421
 21
459.4366883412373
  0
LINE
  8
_0-1_1_5
  6
CONTINUOUS
 62
    7
 10
959.94883877722827
 20
459.58089615471363
 11
1018.9488387772283
 21
459.58089615471363
  0
LINE
  8
_0-1_1_5
  6
CONTINUOUS
 62
    7
 10
959.94883877722827
 20
475.58089615471368
 11
1018.9488387772283
 21
475.58089615471368
  0
LINE
  8
_0-1_1_5
  6
CONTINUOUS
 62
    7
 10
959.94883877722827
 20
475.58089615471368
 11
959.94883877722827
 21
459.58089615471363
  0
POINT
  8
_0-2_ADD_LINE
 62
    7
 10
796.18241314327918
 20
535.68439071212413
  0
POINT
  8
_0-2_ADD_LINE
 62
    7
 10
-3.8175868567205384
 20
535.68439071212413
  0
LINE
  8
_0-1_1_5
  6
CONTINUOUS
 62
    7
 10
-3.8175868567205384
 20
535.68439071212413
 11
796.18241314327918
 21
535.68439071212413
  0
TEXT
  8
_0-1_1_5
 62
    4
 10
386.80741314327946
 20
538.18439071212413
 40
12.5
 41
1
 50
0
  1
800
  0
LINE
  8
_0-1_1_5
  6
CONTINUOUS
 62
    7
 10
21.182413143279177
 20
511.4703861807223
 11
771.18241314327918
 21
511.4703861807223
  0
TEXT
  8
_0-1_1_5
 62
    4
 10
386.80741314327918
 20
513.97038618072224
 40
12.5
 41
1
 50
0
  1
750
  0
LINE
  8
_0-2_ADD_LINE
  6
CONTINUOUS
 62
    7
 10
796.18241314327918
 20
535.68439071212413
 11
796.18241314327918
 21
493.54181069272551
  0
POINT
  8
_0-2_ADD_LINE
 62
    7
 10
771.18241314327918
 20
511.4703861807223
  0
LINE
  8
_0-2_ADD_LINE
  6
CONTINUOUS
 62
    7
 10
771.18241314327918
 20
511.4703861807223
 11
771.18241314327918
 21
493.03391673358362
  0
LINE
  8
_0-2_ADD_LINE
  6
CONTINUOUS
 62
    7
 10
-3.8175868567205384
 20
535.68439071212413
 11
-3.8175868567205384
 21
493.54181069272551
  0
POINT
  8
_0-2_ADD_LINE
 62
    7
 10
21.182413143279177
 20
511.4703861807223
  0
LINE
  8
_0-2_ADD_LINE
  6
CONTINUOUS
 62
    7
 10
21.182413143279177
 20
511.4703861807223
 11
21.182413143279177
 21
493.03391673358362
  0
POINT
  8
_0-2_ADD_LINE
 62
    7
 10
746.18241314327952
 20
337.89583591096039
  0
POINT
  8
_0-2_ADD_LINE
 62
    7
 10
796.18241314327918
 20
337.89583591096039
  0
LINE
  8
_0-1_1_5
  6
CONTINUOUS
 62
    7
 10
746.18241314327952
 20
337.89583591096039
 11
796.18241314327918
 21
337.89583591096039
  0
TEXT
  8
_0-1_1_5
 62
    4
 10
764.93241314327952
 20
340.39583591096039
 40
12.5
 41
1
 50
0
  1
50
  0
TEXT
  8
_0-2_ADD_LINE
 62
    4
 10
763.64281124209072
 20
353.58861411681067
 40
12.5
 41
1
 50
180
  1
φ
  0
LINE
  8
_0-2_ADD_LINE
  6
CONTINUOUS
 62
    7
 10
796.18241314327918
 20
337.89583591096039
 11
796.18241314327918
 21
300.2547107897189
  0
LINE
  8
_0-2_ADD_LINE
  6
CONTINUOUS
 62
    7
 10
746.18241314327952
 20
337.89583591096039
 11
746.18241314327952
 21
300.2547107897189
  0
LINE
  8
_0-2_ADD_LINE
  6
CONTINUOUS
 62
    7
 10
589.4488387772285
 20
238.48677231290219
 11
589.4488387772285
 21
264.36051224685048
  0
POINT
  8
_0-2_ADD_LINE
 62
    7
 10
589.4488387772285
 20
238.48677231290219
  0
POINT
  8
_0-2_ADD_LINE
 62
    7
 10
589.4488387772285
 20
228.48677231290219
  0
LINE
  8
_0-2_ADD_LINE
  6
CONTINUOUS
 62
    7
 10
589.4488387772285
 20
238.48677231290219
 11
589.4488387772285
 21
228.48677231290219
  0
TEXT
  8
_0-1_1_5
 62
    4
 10
586.84659746251441
 20
251.71668181963909
 40
12.5
 41
1
 50
90
  1
10
  0
TEXT
  8
_0-2_ADD_LINE
 62
    4
 10
587.10462786995151
 20
239.23634908863733
 40
12.5
 41
1
 50
90
  1
φ
  0
POINT
  8
_0-2_ADD_LINE
 62
    7
 10
815.72831535776027
 20
293.48677231290219
  0
POINT
  8
_0-2_ADD_LINE
 62
    7
 10
815.72831535776027
 20
223.48677231290219
  0
LINE
  8
_0-1_1_5
  6
CONTINUOUS
 62
    7
 10
815.72831535776027
 20
293.48677231290219
 11
815.72831535776027
 21
223.48677231290219
  0
TEXT
  8
_0-1_1_5
 62
    4
 10
813.22831535776027
 20
252.23677231290219
 40
12.5
 41
1
 50
90
  1
70
  0
LINE
  8
_0-2_ADD_LINE
  6
CONTINUOUS
 62
    7
 10
815.72831535776027
 20
293.48677231290219
 11
799.68241314327906
 21
293.48677231290219
  0
LINE
  8
_0-2_ADD_LINE
  6
CONTINUOUS
 62
    7
 10
815.72831535776027
 20
223.48677231290219
 11
783.18241314327929
 21
223.48677231290219
  0
LINE
  8
_0-1_1_5
  6
CONTINUOUS
 62
    7
 10
968.94883877722827
 20
511.49816374801162
 11
1028.9488387772283
 21
511.49816374801162
  0
TEXT
  8
_0-1_1_5
 62
    4
 10
992.69883877722827
 20
513.99816374801162
 40
12.5
 41
1
 50
0
  1
60
  0
POINT
  8
_0-2_ADD_LINE
 62
    7
 10
968.94883877722827
 20
511.49816374801162
  0
POINT
  8
_0-2_ADD_LINE
 62
    7
 10
1028.9488387772283
 20
511.49816374801162
  0
LINE
  8
_0-2_ADD_LINE
  6
CONTINUOUS
 62
    7
 10
1028.9488387772283
 20
511.49816374801162
 11
1028.9488387772283
 21
496.08089615471363
  0
LINE
  8
_0-2_ADD_LINE
  6
CONTINUOUS
 62
    7
 10
968.94883877722827
 20
511.49816374801162
 11
968.94883877722827
 21
489.58089615471363
  0
LINE
  8
_0-1_1_5
  6
CONTINUOUS
 62
    7
 10
937.67222095103557
 20
475.58089615471368
 11
937.67222095103557
 21
459.58089615471363
  0
TEXT
  8
_0-1_1_5
 62
    4
 10
935.17222095103557
 20
461.33089615471363
 40
12.5
 41
1
 50
90
  1
16
  0
LINE
  8
_0-2_ADD_LINE
  6
CONTINUOUS
 62
    7
 10
937.67222095103557
 20
459.58089615471363
 11
952.86523743988141
 21
459.58089615471363
  0
LINE
  8
_0-2_ADD_LINE
  6
CONTINUOUS
 62
    7
 10
937.67222095103557
 20
475.58089615471368
 11
952.86523743988141
 21
475.58089615471368
  0
POINT
  8
_0-2_ADD_LINE
 62
    7
 10
937.67222095103557
 20
459.58089615471363
  0
POINT
  8
_0-2_ADD_LINE
 62
    7
 10
937.67222095103557
 20
475.58089615471368
  0
TEXT
  8
_0-2_ADD_LINE
 62
    4
 10
925.01438084297206
 20
462.60537292909316
 40
12.5
 41
1
 50
-90
  1
φ
  0
LINE
  8
_0-2_ADD_LINE
  6
CONTINUOUS
 62
    7
 10
1018.9488387772283
 20
411.08089615471363
 11
1005.6445087787159
 21
411.08089615471363
  0
LINE
  8
_0-1_1_5
  6
CONTINUOUS
 62
    7
 10
1018.9488387772283
 20
411.08089615471363
 11
1028.9488387772283
 21
411.08089615471363
  0
TEXT
  8
_0-1_1_5
 62
    4
 10
1004.4330379460744
 20
413.59688243279714
 40
12.5
 41
1
 50
0
  1
10
  0
POINT
  8
_0-2_ADD_LINE
 62
    7
 10
1028.9488387772283
 20
411.08089615471363
  0
POINT
  8
_0-2_ADD_LINE
 62
    7
 10
1018.9488387772283
 20
411.08089615471363
  0
TEXT
  8
_0-2_ADD_LINE
 62
    4
 10
1047.1963255108515
 20
374.50815388819865
 40
12.5
 41
1
 50
0
  1
タッピングビス
  0
TEXT
  8
_0-2_ADD_LINE
 62
    4
 10
1047.772284508083
 20
358.79487277765622
 40
12.5
 41
1
 50
0
  1
3.5x35
  0
LINE
  8
_0-2_ADD_LINE
  6
CONTINUOUS
 62
    7
 10
1018.9488387772283
 20
411.08089615471363
 11
1018.9488387772283
 21
438.08089615471368
  0
LINE
  8
_0-2_ADD_LINE
  6
CONTINUOUS
 62
    7
 10
1028.9488387772283
 20
411.08089615471363
 11
1028.9488387772283
 21
438.08089615471368
  0
LINE
  8
_0-2_ADD_LINE
  6
CONTINUOUS
 62
    7
 10
1049.9210582664657
 20
457.73203770811995
 11
1049.9210582664657
 21
391.20603715802201
  0
ENDSEC
  0
EOF
