  0
SECTION
  2
HEADER
  9
$ACADVER
  1
AC1009
  9
$INSBASE
 10
0
 20
0
 30
0
  9
$EXTMIN
 10
0
 20
0
  9
$EXTMAX
 10
1485
 20
1050
  9
$LIMMIN
 10
0
 20
0
  9
$LIMMAX
 10
1485
 20
1050
  9
$LTSCALE
 40
5
  0
ENDSEC
  0
SECTION
  2
TABLES
  0
TABLE
  2
LTYPE
 70
     9
  0
LTYPE
  2
CONTINUOUS
 70
    64
  3
実線
 72
    65
 73
     0
 40
0.0
  0
LTYPE
  2
DASHED1
 70
    64
  3
--  --  --  --  --  --  --  --  
 72
    65
 73
     2
 40
2.5
 49
1.25
 49
-1.25
  0
LTYPE
  2
DASHED2
 70
    64
  3
----    ----    ----    ----    
 72
    65
 73
     2
 40
5.0
 49
2.5
 49
-2.5
  0
LTYPE
  2
DASHED3
 70
    64
  3
------  ------  ------  ------  
 72
    65
 73
     2
 40
5.0
 49
3.75
 49
-1.25
  0
LTYPE
  2
CENTER1
 70
    64
  3
----- - ----- - ----- - ----- - 
 72
    65
 73
     4
 40
10.0
 49
6.25
 49
-1.25
 49
1.25
 49
-1.25
  0
LTYPE
  2
CENTER2
 70
    64
  3
----------  --  ----------  --  
 72
    65
 73
     4
 40
20.0
 49
12.5
 49
-2.5
 49
2.5
 49
-2.5
  0
LTYPE
  2
PHANTOM1
 70
    64
  3
--- - - --- - - --- - - --- - - 
 72
    65
 73
     6
 40
10.0
 49
3.25
 49
-1.25
 49
1.25
 49
-1.25
 49
1.25
 49
-1.25
  0
LTYPE
  2
PHANTOM2
 70
    64
  3
--------  -  -  --------  -  -  
 72
    65
 73
     6
 40
20.0
 49
10.0
 49
-2.5
 49
1.25
 49
-2.5
 49
1.25
 49
-2.5
  0
LTYPE
  2
DOT
 70
    64
  3
-   -   -   -   -   -   -   -   
 72
    65
 73
     2
 40
2.5
 49
0.625
 49
-1.875
  0
LTYPE
  2
DUMMY
 70
    64
  3
ダミー
 72
    65
 73
     0
 40
0.0
  0
LTYPE
  2
RAND1
 70
    64
  3
ランダム線1
 72
    65
 73
     4
 40
10.0
 49
1.0
 49
-2.0
 49
3.0
 49
-4.0
  0
LTYPE
  2
RAND2
 70
    64
  3
ランダム線2
 72
    65
 73
     4
 40
14.0
 49
2.0
 49
-3.0
 49
4.0
 49
-5.0
  0
LTYPE
  2
RAND3
 70
    64
  3
ランダム線3
 72
    65
 73
     4
 40
18.0
 49
3.0
 49
-4.0
 49
5.0
 49
-6.0
  0
LTYPE
  2
RAND4
 70
    64
  3
ランダム線4
 72
    65
 73
     4
 40
22.0
 49
4.0
 49
-5.0
 49
6.0
 49
-7.0
  0
LTYPE
  2
RAND5
 70
    64
  3
ランダム線5
 72
    65
 73
     4
 40
26.0
 49
5.0
 49
-6.0
 49
7.0
 49
-8.0
  0
LTYPE
  2
LONG1
 70
    64
  3
----------  --  ----------  --  
 72
    65
 73
     4
 40
40.0
 49
32.5
 49
-2.5
 49
2.5
 49
-2.5
  0
LTYPE
  2
LONG2
 70
    64
  3
--------  -  -  --------  -  -  
 72
    65
 73
     6
 40
40.0
 49
30.0
 49
-2.5
 49
1.25
 49
-2.5
 49
1.25
 49
-2.5
  0
LTYPE
  2
LONG3
 70
    64
  3
+++++++++++++++..+++++++++++++++
 72
    65
 73
     2
 40
40.0
 49
37.5
 49
-2.5
  0
LTYPE
  2
LONG4
 70
    64
  3
+++++++++++++++..+++++++++++++++
 72
    65
 73
     2
 40
80.0
 49
75.0
 49
-5.0
  0
LTYPE
  2
LONG5
 70
    64
  3
----------  --  ----------  --  
 72
    65
 73
     4
 40
60.0
 49
37.5
 49
-7.5
 49
7.5
 49
-7.5
  0
LTYPE
  2
dashed
 70
   64
  3
-------   -------------   ------
 72
   65
 73
    2
 40
7.5
 49
6
 49
-1.5
  0
LTYPE
  2
dashed_spaced
 70
   64
  3
----        --------        ----
 72
   65
 73
    2
 40
12
 49
6
 49
-6
  0
LTYPE
  2
long_dashed_dotted
 70
   64
  3
------------- --- --------------
 72
   65
 73
    4
 40
15.25
 49
12
 49
-1.5
 49
0.25
 49
-1.5
  0
LTYPE
  2
long_dashed_double-dotted
 70
   64
  3
----------- --- --- ------------
 72
   65
 73
    6
 40
17
 49
12
 49
-1.5
 49
0.25
 49
-1.5
 49
0.25
 49
-1.5
  0
LTYPE
  2
long_dashed_triplicate-dotted
 70
   64
  3
--------- --- --- --- ----------
 72
   65
 73
    8
 40
18.75
 49
12
 49
-1.5
 49
0.25
 49
-1.5
 49
0.25
 49
-1.5
 49
0.25
 49
-1.5
  0
LTYPE
  2
dotted
 70
   64
  3
   -       -       -       -    
 72
   65
 73
    2
 40
1.75
 49
0.25
 49
-1.5
  0
LTYPE
  2
chain
 70
   64
  3
-------------- -- --------------
 72
   65
 73
    4
 40
18.5
 49
12
 49
-1.5
 49
3.5
 49
-1.5
  0
LTYPE
  2
chain_double_dash
 70
   64
  3
------------ -- -- -------------
 72
   65
 73
    6
 40
23.5
 49
12
 49
-1.5
 49
3.5
 49
-1.5
 49
3.5
 49
-1.5
  0
LTYPE
  2
dashed_dotted
 70
   64
  3
-----------     -     ----------
 72
   65
 73
    4
 40
9.25
 49
6
 49
-1.5
 49
0.25
 49
-1.5
  0
LTYPE
  2
double-dashed_dotted
 70
   64
  3
------   -----------   -   -----
 72
   65
 73
    6
 40
16.75
 49
6
 49
-1.5
 49
6
 49
-1.5
 49
0.25
 49
-1.5
  0
LTYPE
  2
dashed_double-dotted
 70
   64
  3
---------    -    -    ---------
 72
   65
 73
    6
 40
11
 49
6
 49
-1.5
 49
0.25
 49
-1.5
 49
0.25
 49
-1.5
  0
LTYPE
  2
double-dashed_double-dotted
 70
   64
  3
-----   ---------   -   -   ----
 72
   65
 73
    8
 40
18.5
 49
6
 49
-1.5
 49
6
 49
-1.5
 49
0.25
 49
-1.5
 49
0.25
 49
-1.5
  0
LTYPE
  2
dashed_triplicate-dotted
 70
   64
  3
-------    -    -    -    ------
 72
   65
 73
    8
 40
12.75
 49
6
 49
-1.5
 49
0.25
 49
-1.5
 49
0.25
 49
-1.5
 49
0.25
 49
-1.5
  0
LTYPE
  2
double-dashed_triplicate-dotted
 70
   64
  3
-----  ---------  -  -  -  -----
 72
   65
 73
   10
 40
20.25
 49
6
 49
-1.5
 49
6
 49
-1.5
 49
0.25
 49
-1.5
 49
0.25
 49
-1.5
 49
0.25
 49
-1.5
  0
LTYPE
  2
undefined
 70
   64
  3
--------------------------------
 72
   65
 73
    0
 40
0
  0
LTYPE
  2
STYLE_01
 70
   64
  3
----        --------        ----
 72
   65
 73
    2
 40
0.4166399999999997
 49
0.2082799999999999
 49
-0.2083599999999999
  0
LTYPE
  2
STYLE_02
 70
   64
  3
------     -----------     -----
 72
   65
 73
    2
 40
0.694425
 49
0.48607
 49
-0.2083550000000001
  0
LTYPE
  2
STYLE_03
 70
   64
  3
-------   -------------   ------
 72
   65
 73
    2
 40
1.25
 49
1.0416400000000001
 49
-0.2083599999999999
  0
LTYPE
  2
STYLE_04
 70
   64
  3
-------  --------------  -------
 72
   65
 73
    2
 40
1.5277099999999999
 49
1.3194249999999998
 49
-0.208285
  0
LTYPE
  2
STYLE_05
 70
   64
  3
---           -----           --
 72
   65
 73
    2
 40
0.20828
 49
0.069425
 49
-0.138855
  0
LTYPE
  2
STYLE_06
 70
   64
  3
----------      --    ----------
 72
   65
 73
    4
 40
1.0416399999999999
 49
0.625
 49
-0.2082799999999999
 49
0.06943
 49
-0.13893
  0
LTYPE
  2
STYLE_07
 70
   64
  3
-----    -----------    -  -----
 72
   65
 73
    6
 40
1.8749999999999998
 49
0.625
 49
-0.2082799999999999
 49
0.6250000000000001
 49
-0.2083599999999999
 49
0.06943
 49
-0.1389299999999998
  0
LTYPE
  2
STYLE_08
 70
   64
  3
--------     --    --    -------
 72
   65
 73
    6
 40
1.2499999999999996
 49
0.625
 49
-0.2082799999999999
 49
0.06943
 49
-0.13893
 49
0.0694299999999997
 49
-0.13893
  0
LTYPE
  2
STYLE_09
 70
   64
  3
------------  ----  ------------
 72
   65
 73
    4
 40
5
 49
3.75
 49
-0.2777849999999997
 49
0.6944300000000003
 49
-0.2777849999999997
  0
LTYPE
  2
STYLE_10
 70
   64
  3
----------- ---- ---  ----------
 72
   65
 73
    6
 40
5.9375
 49
3.75
 49
-0.2777849999999997
 49
0.6944300000000003
 49
-0.2777849999999997
 49
0.625
 49
-0.3125
  0
ENDTAB
  0
TABLE
  2
STYLE
  5
3
100
AcDbSymbolTable
 70
     1
  0
STYLE
  5
10
100
AcDbSymbolTableRecord
100
AcDbTextStyleTableRecord
  2
STANDARD
 70
     0
 40
0.0
 41
1.0
 50
0.0
 71
     0
 42
0.2
  3
txt
  4
bigfont.shx
  0
STYLE
  5
26
100
AcDbSymbolTableRecord
100
AcDbTextStyleTableRecord
  2
TATEGAKI
 70
    68
 40
0.0
 41
1.0
 50
0.0
 71
     0
 42
1.0
  3
txt
  4
bigfont.shx
  0
ENDTAB
  0
TABLE
  2
LAYER
 70
    5
  0
LAYER
  2
_0-0_0
 70
   64
 62
    7
  6
CONTINUOUS
  0
LAYER
  2
_0-1_1_5
 70
   64
 62
    7
  6
CONTINUOUS
  0
LAYER
  2
_0-2_ADD_LINE
 70
   64
 62
    7
  6
CONTINUOUS
  0
LAYER
  2
_0-3_
 70
   64
 62
    7
  6
CONTINUOUS
  0
LAYER
  2
ADD_LINE
 70
   64
 62
    7
  6
CONTINUOUS
  0
ENDTAB
  0
ENDSEC
  0
SECTION
  2
BLOCKS
  0
ENDSEC
  0
SECTION
  2
ENTITIES
  0
TEXT
  8
_0-3_
 62
    7
 10
337.91727686287811
 20
-165.72561040232628
 40
15.270385742187502
 41
1
 50
0
  1
ステンレススチール
  0
LINE
  8
_0-0_0
  6
CONTINUOUS
 62
    7
 10
-217.54976684701688
 20
839.39842520894683
 11
-217.54976684701688
 21
-210.60157479105314
  0
LINE
  8
_0-0_0
  6
CONTINUOUS
 62
    7
 10
-217.54976684701688
 20
-210.60157479105314
 11
1267.4502331529832
 21
-210.60157479105328
  0
LINE
  8
_0-0_0
  6
CONTINUOUS
 62
    7
 10
1267.4502331529832
 20
-210.60157479105328
 11
1267.4502331529832
 21
839.39842520894672
  0
LINE
  8
_0-0_0
  6
CONTINUOUS
 62
    7
 10
1267.4502331529832
 20
839.39842520894672
 11
-217.54976684701688
 21
839.39842520894683
  0
TEXT
  8
_0-3_
 62
    7
 10
303.1435361858484
 20
-157.2512975909325
 40
10
 41
1
 50
0
  1
材質
  0
TEXT
  8
_0-3_
 62
    7
 10
303.1435361858484
 20
-126.04446365427265
 40
10
 41
1
 50
0
  1
仕上げ
  0
TEXT
  8
_0-3_
 62
    7
 10
303.1435361858484
 20
-96.397971414445891
 40
10
 41
1
 50
0
  1
品名
  0
LINE
  8
_0-3_
  6
CONTINUOUS
 62
    7
 10
763.33333330012067
 20
-172.00135367935019
 11
763.33333330012067
 21
-82.001353679350046
  0
LINE
  8
_0-3_
  6
CONTINUOUS
 62
    7
 10
1230.0000000001207
 20
-82.001353679350046
 11
295.76393721191187
 21
-82.001353679350046
  0
LINE
  8
_0-3_
  6
CONTINUOUS
 62
    7
 10
1230.0000000001207
 20
-112.00135367935005
 11
295.76393721191187
 21
-112.00135367935005
  0
LINE
  8
_0-3_
  6
CONTINUOUS
 62
    7
 10
1230.0000000001207
 20
-142.00135367935005
 11
295.76393721191187
 21
-142.00135367935005
  0
LINE
  8
_0-3_
  6
CONTINUOUS
 62
    7
 10
295.76393721191187
 20
-172.00135367935005
 11
295.76393721191187
 21
-82.001353679350046
  0
TEXT
  8
_0-3_
 62
    7
 10
769.76611673267166
 20
-97.65079861352163
 40
10
 41
1
 50
0
  1
品番
  0
TEXT
  8
_0-3_
 62
    7
 10
769.76611673267166
 20
-126.84760541025184
 40
10
 41
1
 50
0
  1
縮尺
  0
TEXT
  8
_0-3_
 62
    7
 10
805.64122881175172
 20
-135.00091580972281
 40
15.270385742187502
 41
1
 50
0
  1
1/5
  0
TEXT
  8
_0-3_
 62
    7
 10
-167.22023496641157
 20
-191.8129578821069
 40
12.5
 41
1
 50
0
  1
120718SH
  0
LINE
  8
_0-3_
  6
CONTINUOUS
 62
    7
 10
-169.99999999987921
 20
802.99864632065021
 11
-169.99999999987921
 21
-172.00135367935005
  0
LINE
  8
_0-3_
  6
CONTINUOUS
 62
    7
 10
-169.99999999987921
 20
-172.00135367935005
 11
1230.0000000001207
 21
-172.00135367935019
  0
LINE
  8
_0-3_
  6
CONTINUOUS
 62
    7
 10
1230.0000000001207
 20
-172.00135367935019
 11
1230.0000000001207
 21
802.9986463206501
  0
LINE
  8
_0-3_
  6
CONTINUOUS
 62
    7
 10
1230.0000000001207
 20
802.9986463206501
 11
-169.99999999987921
 21
802.99864632065021
  0
TEXT
  8
_0-3_
 62
    7
 10
337.91727686287811
 20
-104.70437403928486
 40
15.270385742187502
 41
1
 50
0
  1
タオルバー
  0
TEXT
  8
_0-3_
 62
    7
 10
804.6090696281932
 20
-167.49214973604637
 40
15.5
 41
1
 50
0
  1
大洋金物株式会社  ティーエフプラス事業部
  0
POINT
  8
_0-2_ADD_LINE
 62
    7
 10
770.68241314327929
 20
519.47300119316969
  0
LINE
  8
_0-2_ADD_LINE
  6
CONTINUOUS
 62
    7
 10
770.68241314327929
 20
519.47300119316969
 11
770.68241314327929
 21
497.36911629585882
  0
POINT
  8
_0-2_ADD_LINE
 62
    7
 10
795.18241314327952
 20
539.34912037466029
  0
LINE
  8
_0-2_ADD_LINE
  6
CONTINUOUS
 62
    7
 10
795.18241314327952
 20
539.34912037466029
 11
795.18241314327952
 21
477.86911629585882
  0
POINT
  8
_0-2_ADD_LINE
 62
    7
 10
1018.9488387772282
 20
519.47300119316969
  0
LINE
  8
_0-2_ADD_LINE
  6
CONTINUOUS
 62
    7
 10
1018.9488387772282
 20
519.47300119316969
 11
1018.9488387772282
 21
497.36911629585882
  0
LINE
  8
_0-1_1_5
  6
CONTINUOUS
 62
    7
 10
1008.9488387772282
 20
487.36911629585882
 11
1018.9488387772282
 21
487.36911629585882
  0
LINE
  8
_0-1_1_5
  6
CONTINUOUS
 62
    7
 10
1008.9488387772282
 20
438.36911629585882
 11
1018.9488387772282
 21
438.36911629585882
  0
LINE
  8
_0-1_1_5
  6
CONTINUOUS
 62
    7
 10
1008.9488387772282
 20
487.36911629585882
 11
1008.9488387772282
 21
438.36911629585882
  0
LINE
  8
_0-1_1_5
  6
CONTINUOUS
 62
    7
 10
1018.9488387772282
 20
487.36911629585882
 11
1018.9488387772282
 21
438.36911629585882
  0
CIRCLE
  8
_0-1_1_5
  6
CONTINUOUS
 62
    7
 10
770.68241314327929
 20
462.86911629585882
 40
8
  0
ARC
  8
_0-1_1_5
  6
CONTINUOUS
 62
    7
 10
770.68241314327929
 20
462.86911629585882
 40
24.5
 50
191.77574398586668
 51
168.22425601413332
  0
POINT
  8
_0-2_ADD_LINE
 62
    7
 10
918.00622531390957
 20
470.86911629585882
  0
POINT
  8
_0-2_ADD_LINE
 62
    7
 10
918.00622531390957
 20
454.86911629585876
  0
LINE
  8
_0-2_ADD_LINE
  6
CONTINUOUS
 62
    7
 10
918.00622531390957
 20
470.86911629585882
 11
939.94883877722827
 21
470.86911629585882
  0
LINE
  8
_0-2_ADD_LINE
  6
CONTINUOUS
 62
    7
 10
918.00622531390957
 20
454.86911629585876
 11
939.94883877722827
 21
454.86911629585876
  0
LINE
  8
_0-2_ADD_LINE
  6
CONTINUOUS
 62
    7
 10
918.00622531390957
 20
470.86911629585882
 11
918.00622531390957
 21
454.86911629585876
  0
TEXT
  8
_0-2_ADD_LINE
 62
    4
 10
915.50622531390957
 20
456.61911629585882
 40
12.5
 41
1
 50
90
  1
16
  0
LINE
  8
_0-1_1_5
  6
CONTINUOUS
 62
    7
 10
949.94883877722827
 20
470.86911629585882
 11
949.94883877722827
 21
454.86911629585876
  0
CIRCLE
  8
_0-1_1_5
  6
DASHED1
 62
    7
 10
959.94883877722827
 20
462.86911629585882
 40
5
  0
LINE
  8
_0-1_1_5
  6
CONTINUOUS
 62
    7
 10
949.94883877722827
 20
470.86911629585882
 11
1008.9488387772282
 21
470.86911629585882
  0
LINE
  8
_0-1_1_5
  6
CONTINUOUS
 62
    7
 10
949.94883877722827
 20
454.86911629585876
 11
1008.9488387772282
 21
454.86911629585876
  0
LINE
  8
_0-1_1_5
  6
CENTER2
 62
    7
 10
775.68241314327929
 20
472.7632261036311
 11
765.68241314327929
 21
472.7632261036311
  0
LINE
  8
_0-1_1_5
  6
CENTER2
 62
    7
 10
770.68241314327929
 20
476.76322610363115
 11
770.68241314327929
 21
468.76322610363115
  0
LINE
  8
_0-1_1_5
  6
CENTER2
 62
    7
 10
774.68241314327929
 20
472.7632261036311
 11
774.68241314327929
 21
472.7632261036311
  0
LINE
  8
_0-1_1_5
  6
CENTER2
 62
    7
 10
774.68241314327929
 20
472.7632261036311
 11
774.62164415532811
 21
473.31890027216525
  0
LINE
  8
_0-1_1_5
  6
CENTER2
 62
    7
 10
774.62164415532811
 20
473.31890027216525
 11
774.44118362642291
 21
473.85769056227326
  0
LINE
  8
_0-1_1_5
  6
CENTER2
 62
    7
 10
774.44118362642291
 20
473.85769056227326
 11
774.14651475841708
 21
474.36322610363112
  0
LINE
  8
_0-1_1_5
  6
CENTER2
 62
    7
 10
774.14651475841708
 20
474.36322610363112
 11
773.74659091575518
 21
474.820146454628
  0
LINE
  8
_0-1_1_5
  6
CENTER2
 62
    7
 10
773.74659091575518
 20
474.820146454628
 11
773.25356358202544
 21
475.21456832161181
  0
LINE
  8
_0-1_1_5
  6
CENTER2
 62
    7
 10
773.25356358202544
 20
475.21456832161181
 11
772.68241314327929
 21
475.53450739574129
  0
LINE
  8
_0-1_1_5
  6
CENTER2
 62
    7
 10
772.68241314327929
 20
475.53450739574129
 11
772.05049371658197
 21
475.77024249014602
  0
LINE
  8
_0-1_1_5
  6
CENTER2
 62
    7
 10
772.05049371658197
 20
475.77024249014602
 11
771.37700585394703
 21
475.91461091327017
  0
LINE
  8
_0-1_1_5
  6
CENTER2
 62
    7
 10
771.37700585394703
 20
475.91461091327017
 11
770.68241314327929
 21
475.96322610363109
  0
LINE
  8
_0-1_1_5
  6
CENTER2
 62
    7
 10
770.68241314327929
 20
475.96322610363109
 11
769.98782043261156
 21
475.91461091327017
  0
LINE
  8
_0-1_1_5
  6
CENTER2
 62
    7
 10
769.98782043261156
 20
475.91461091327017
 11
769.31433256997661
 21
475.77024249014602
  0
LINE
  8
_0-1_1_5
  6
CENTER2
 62
    7
 10
769.31433256997661
 20
475.77024249014602
 11
768.68241314327929
 21
475.53450739574129
  0
LINE
  8
_0-1_1_5
  6
CENTER2
 62
    7
 10
768.68241314327929
 20
475.53450739574129
 11
768.11126270453315
 21
475.21456832161181
  0
LINE
  8
_0-1_1_5
  6
CENTER2
 62
    7
 10
768.11126270453315
 20
475.21456832161181
 11
767.6182353708034
 21
474.820146454628
  0
LINE
  8
_0-1_1_5
  6
CENTER2
 62
    7
 10
767.6182353708034
 20
474.820146454628
 11
767.2183115281415
 21
474.36322610363112
  0
LINE
  8
_0-1_1_5
  6
CENTER2
 62
    7
 10
767.2183115281415
 20
474.36322610363112
 11
766.92364266013567
 21
473.85769056227326
  0
LINE
  8
_0-1_1_5
  6
CENTER2
 62
    7
 10
766.92364266013567
 20
473.85769056227326
 11
766.74318213123047
 21
473.31890027216525
  0
LINE
  8
_0-1_1_5
  6
CENTER2
 62
    7
 10
766.74318213123047
 20
473.31890027216525
 11
766.68241314327929
 21
472.7632261036311
  0
LINE
  8
_0-1_1_5
  6
CENTER2
 62
    7
 10
766.68241314327929
 20
472.7632261036311
 11
766.74318213123047
 21
472.20755193509694
  0
LINE
  8
_0-1_1_5
  6
CENTER2
 62
    7
 10
766.74318213123047
 20
472.20755193509694
 11
766.92364266013567
 21
471.66876164498899
  0
LINE
  8
_0-1_1_5
  6
CENTER2
 62
    7
 10
766.92364266013567
 20
471.66876164498899
 11
767.2183115281415
 21
471.16322610363113
  0
LINE
  8
_0-1_1_5
  6
CENTER2
 62
    7
 10
767.2183115281415
 20
471.16322610363113
 11
767.6182353708034
 21
470.70630575263419
  0
LINE
  8
_0-1_1_5
  6
CENTER2
 62
    7
 10
767.6182353708034
 20
470.70630575263419
 11
768.11126270453315
 21
470.31188388565039
  0
LINE
  8
_0-1_1_5
  6
CENTER2
 62
    7
 10
768.11126270453315
 20
470.31188388565039
 11
768.68241314327929
 21
469.99194481152091
  0
LINE
  8
_0-1_1_5
  6
CENTER2
 62
    7
 10
768.68241314327929
 20
469.99194481152091
 11
769.31433256997661
 21
469.75620971711618
  0
LINE
  8
_0-1_1_5
  6
CENTER2
 62
    7
 10
769.31433256997661
 20
469.75620971711618
 11
769.98782043261156
 21
469.61184129399203
  0
LINE
  8
_0-1_1_5
  6
CENTER2
 62
    7
 10
769.98782043261156
 20
469.61184129399203
 11
770.68241314327929
 21
469.56322610363111
  0
LINE
  8
_0-1_1_5
  6
CENTER2
 62
    7
 10
770.68241314327929
 20
469.56322610363111
 11
771.37700585394703
 21
469.61184129399203
  0
LINE
  8
_0-1_1_5
  6
CENTER2
 62
    7
 10
771.37700585394703
 20
469.61184129399203
 11
772.05049371658197
 21
469.75620971711618
  0
LINE
  8
_0-1_1_5
  6
CENTER2
 62
    7
 10
772.05049371658197
 20
469.75620971711618
 11
772.68241314327929
 21
469.99194481152091
  0
LINE
  8
_0-1_1_5
  6
CENTER2
 62
    7
 10
772.68241314327929
 20
469.99194481152091
 11
773.25356358202544
 21
470.31188388565039
  0
LINE
  8
_0-1_1_5
  6
CENTER2
 62
    7
 10
773.25356358202544
 20
470.31188388565039
 11
773.74659091575518
 21
470.70630575263414
  0
LINE
  8
_0-1_1_5
  6
CENTER2
 62
    7
 10
773.74659091575518
 20
470.70630575263414
 11
774.14651475841708
 21
471.16322610363108
  0
LINE
  8
_0-1_1_5
  6
CENTER2
 62
    7
 10
774.14651475841708
 20
471.16322610363108
 11
774.44118362642291
 21
471.66876164498893
  0
LINE
  8
_0-1_1_5
  6
CENTER2
 62
    7
 10
774.44118362642291
 20
471.66876164498893
 11
774.62164415532811
 21
472.20755193509689
  0
LINE
  8
_0-1_1_5
  6
CENTER2
 62
    7
 10
774.62164415532811
 20
472.20755193509689
 11
774.68241314327929
 21
472.7632261036311
  0
LINE
  8
_0-1_1_5
  6
CENTER2
 62
    7
 10
774.68241314327929
 20
472.7632261036311
 11
774.68241314327929
 21
472.7632261036311
  0
LINE
  8
_0-1_1_5
  6
CENTER2
 62
    7
 10
774.68241314327929
 20
452.97500648808648
 11
774.68241314327929
 21
452.97500648808648
  0
LINE
  8
_0-1_1_5
  6
CENTER2
 62
    7
 10
774.68241314327929
 20
452.97500648808648
 11
774.62164415532811
 21
453.53068065662063
  0
LINE
  8
_0-1_1_5
  6
CENTER2
 62
    7
 10
774.62164415532811
 20
453.53068065662063
 11
774.44118362642291
 21
454.06947094672864
  0
LINE
  8
_0-1_1_5
  6
CENTER2
 62
    7
 10
774.44118362642291
 20
454.06947094672864
 11
774.14651475841708
 21
454.5750064880865
  0
LINE
  8
_0-1_1_5
  6
CENTER2
 62
    7
 10
774.14651475841708
 20
454.5750064880865
 11
773.74659091575518
 21
455.03192683908338
  0
LINE
  8
_0-1_1_5
  6
CENTER2
 62
    7
 10
773.74659091575518
 20
455.03192683908338
 11
773.25356358202544
 21
455.42634870606719
  0
LINE
  8
_0-1_1_5
  6
CENTER2
 62
    7
 10
773.25356358202544
 20
455.42634870606719
 11
772.68241314327929
 21
455.74628778019667
  0
LINE
  8
_0-1_1_5
  6
CENTER2
 62
    7
 10
772.68241314327929
 20
455.74628778019667
 11
772.05049371658197
 21
455.9820228746014
  0
LINE
  8
_0-1_1_5
  6
CENTER2
 62
    7
 10
772.05049371658197
 20
455.9820228746014
 11
771.37700585394703
 21
456.12639129772555
  0
LINE
  8
_0-1_1_5
  6
CENTER2
 62
    7
 10
771.37700585394703
 20
456.12639129772555
 11
770.68241314327929
 21
456.17500648808647
  0
LINE
  8
_0-1_1_5
  6
CENTER2
 62
    7
 10
770.68241314327929
 20
456.17500648808647
 11
769.98782043261156
 21
456.12639129772555
  0
LINE
  8
_0-1_1_5
  6
CENTER2
 62
    7
 10
769.98782043261156
 20
456.12639129772555
 11
769.31433256997661
 21
455.9820228746014
  0
LINE
  8
_0-1_1_5
  6
CENTER2
 62
    7
 10
769.31433256997661
 20
455.9820228746014
 11
768.68241314327929
 21
455.74628778019667
  0
LINE
  8
_0-1_1_5
  6
CENTER2
 62
    7
 10
768.68241314327929
 20
455.74628778019667
 11
768.11126270453315
 21
455.42634870606719
  0
LINE
  8
_0-1_1_5
  6
CENTER2
 62
    7
 10
768.11126270453315
 20
455.42634870606719
 11
767.6182353708034
 21
455.03192683908338
  0
LINE
  8
_0-1_1_5
  6
CENTER2
 62
    7
 10
767.6182353708034
 20
455.03192683908338
 11
767.2183115281415
 21
454.5750064880865
  0
LINE
  8
_0-1_1_5
  6
CENTER2
 62
    7
 10
767.2183115281415
 20
454.5750064880865
 11
766.92364266013567
 21
454.06947094672864
  0
LINE
  8
_0-1_1_5
  6
CENTER2
 62
    7
 10
766.92364266013567
 20
454.06947094672864
 11
766.74318213123047
 21
453.53068065662063
  0
LINE
  8
_0-1_1_5
  6
CENTER2
 62
    7
 10
766.74318213123047
 20
453.53068065662063
 11
766.68241314327929
 21
452.97500648808648
  0
LINE
  8
_0-1_1_5
  6
CENTER2
 62
    7
 10
766.68241314327929
 20
452.97500648808648
 11
766.74318213123047
 21
452.41933231955232
  0
LINE
  8
_0-1_1_5
  6
CENTER2
 62
    7
 10
766.74318213123047
 20
452.41933231955232
 11
766.92364266013567
 21
451.88054202944437
  0
LINE
  8
_0-1_1_5
  6
CENTER2
 62
    7
 10
766.92364266013567
 20
451.88054202944437
 11
767.2183115281415
 21
451.37500648808646
  0
LINE
  8
_0-1_1_5
  6
CENTER2
 62
    7
 10
767.2183115281415
 20
451.37500648808646
 11
767.6182353708034
 21
450.91808613708957
  0
LINE
  8
_0-1_1_5
  6
CENTER2
 62
    7
 10
767.6182353708034
 20
450.91808613708957
 11
768.11126270453315
 21
450.52366427010577
  0
LINE
  8
_0-1_1_5
  6
CENTER2
 62
    7
 10
768.11126270453315
 20
450.52366427010577
 11
768.68241314327929
 21
450.20372519597629
  0
LINE
  8
_0-1_1_5
  6
CENTER2
 62
    7
 10
768.68241314327929
 20
450.20372519597629
 11
769.31433256997661
 21
449.96799010157156
  0
LINE
  8
_0-1_1_5
  6
CENTER2
 62
    7
 10
769.31433256997661
 20
449.96799010157156
 11
769.98782043261156
 21
449.82362167844741
  0
LINE
  8
_0-1_1_5
  6
CENTER2
 62
    7
 10
769.98782043261156
 20
449.82362167844741
 11
770.68241314327929
 21
449.77500648808649
  0
LINE
  8
_0-1_1_5
  6
CENTER2
 62
    7
 10
770.68241314327929
 20
449.77500648808649
 11
771.37700585394703
 21
449.82362167844741
  0
LINE
  8
_0-1_1_5
  6
CENTER2
 62
    7
 10
771.37700585394703
 20
449.82362167844741
 11
772.05049371658197
 21
449.96799010157156
  0
LINE
  8
_0-1_1_5
  6
CENTER2
 62
    7
 10
772.05049371658197
 20
449.96799010157156
 11
772.68241314327929
 21
450.20372519597629
  0
LINE
  8
_0-1_1_5
  6
CENTER2
 62
    7
 10
772.68241314327929
 20
450.20372519597629
 11
773.25356358202544
 21
450.52366427010577
  0
LINE
  8
_0-1_1_5
  6
CENTER2
 62
    7
 10
773.25356358202544
 20
450.52366427010577
 11
773.74659091575518
 21
450.91808613708952
  0
LINE
  8
_0-1_1_5
  6
CENTER2
 62
    7
 10
773.74659091575518
 20
450.91808613708952
 11
774.14651475841708
 21
451.37500648808646
  0
LINE
  8
_0-1_1_5
  6
CENTER2
 62
    7
 10
774.14651475841708
 20
451.37500648808646
 11
774.44118362642291
 21
451.88054202944431
  0
LINE
  8
_0-1_1_5
  6
CENTER2
 62
    7
 10
774.44118362642291
 20
451.88054202944431
 11
774.62164415532811
 21
452.41933231955227
  0
LINE
  8
_0-1_1_5
  6
CENTER2
 62
    7
 10
774.62164415532811
 20
452.41933231955227
 11
774.68241314327929
 21
452.97500648808648
  0
LINE
  8
_0-1_1_5
  6
CENTER2
 62
    7
 10
774.68241314327929
 20
452.97500648808648
 11
774.68241314327929
 21
452.97500648808648
  0
LINE
  8
_0-1_1_5
  6
CENTER2
 62
    7
 10
775.68241314327929
 20
452.97500648808648
 11
765.68241314327929
 21
452.97500648808648
  0
LINE
  8
_0-1_1_5
  6
CENTER2
 62
    7
 10
770.68241314327929
 20
448.97500648808654
 11
770.68241314327929
 21
456.97500648808659
  0
LINE
  8
_0-1_1_5
  6
CONTINUOUS
 62
    7
 10
1058.3978859234612
 20
452.97500648808648
 11
1052.7729551645418
 21
454.72490848238243
  0
LINE
  8
_0-1_1_5
  6
CONTINUOUS
 62
    7
 10
1058.3978859234612
 20
452.97500648808648
 11
1052.7729551645418
 21
451.22510449379064
  0
LINE
  8
_0-1_1_5
  6
CONTINUOUS
 62
    7
 10
1014.198936782932
 20
451.22510449379064
 11
1052.7729551645418
 21
451.22510449379064
  0
LINE
  8
_0-1_1_5
  6
CONTINUOUS
 62
    7
 10
1014.235759059859
 20
454.72490848238243
 11
1052.7724012358942
 21
454.72490848238243
  0
LINE
  8
_0-1_1_5
  6
CONTINUOUS
 62
    7
 10
1024.6483013699471
 20
451.3419147468345
 11
1026.0545340596766
 21
454.8417187354263
  0
LINE
  8
_0-1_1_5
  6
CONTINUOUS
 62
    7
 10
1026.0545340596766
 20
451.3419147468345
 11
1027.460766749407
 21
454.8417187354263
  0
LINE
  8
_0-1_1_5
  6
CONTINUOUS
 62
    7
 10
1027.460766749407
 20
451.3419147468345
 11
1028.8669994391364
 21
454.8417187354263
  0
LINE
  8
_0-1_1_5
  6
CONTINUOUS
 62
    7
 10
1028.8669994391364
 20
451.3419147468345
 11
1030.2732321288661
 21
454.8417187354263
  0
LINE
  8
_0-1_1_5
  6
CONTINUOUS
 62
    7
 10
1030.2732321288661
 20
451.3419147468345
 11
1031.6794648185955
 21
454.8417187354263
  0
LINE
  8
_0-1_1_5
  6
CONTINUOUS
 62
    7
 10
1031.6794648185955
 20
451.3419147468345
 11
1033.0856975083259
 21
454.8417187354263
  0
LINE
  8
_0-1_1_5
  6
CONTINUOUS
 62
    7
 10
1037.3043955775152
 20
451.3419147468345
 11
1038.7106282672448
 21
454.8417187354263
  0
LINE
  8
_0-1_1_5
  6
CONTINUOUS
 62
    7
 10
1035.898162887785
 20
451.3419147468345
 11
1037.3043955775152
 21
454.8417187354263
  0
LINE
  8
_0-1_1_5
  6
CONTINUOUS
 62
    7
 10
1038.7106282672448
 20
451.3419147468345
 11
1040.1168609569745
 21
454.8417187354263
  0
LINE
  8
_0-1_1_5
  6
CONTINUOUS
 62
    7
 10
1040.1168609569745
 20
451.3419147468345
 11
1041.523093646704
 21
454.8417187354263
  0
LINE
  8
_0-1_1_5
  6
CONTINUOUS
 62
    7
 10
1041.523093646704
 20
451.3419147468345
 11
1042.9293263364339
 21
454.8417187354263
  0
LINE
  8
_0-1_1_5
  6
CONTINUOUS
 62
    7
 10
1042.9293263364339
 20
451.3419147468345
 11
1044.3355590261638
 21
454.8417187354263
  0
LINE
  8
_0-1_1_5
  6
CONTINUOUS
 62
    7
 10
1044.3355590261638
 20
451.3419147468345
 11
1045.7417917158934
 21
454.8417187354263
  0
LINE
  8
_0-1_1_5
  6
CONTINUOUS
 62
    7
 10
1045.7417917158934
 20
451.3419147468345
 11
1047.1480244056229
 21
454.8417187354263
  0
LINE
  8
_0-1_1_5
  6
CONTINUOUS
 62
    7
 10
1033.0856975083259
 20
451.3419147468345
 11
1034.4919301980553
 21
454.8417187354263
  0
LINE
  8
_0-1_1_5
  6
CONTINUOUS
 62
    7
 10
1047.1480244056229
 20
451.3419147468345
 11
1048.554257095353
 21
454.8417187354263
  0
LINE
  8
_0-1_1_5
  6
CONTINUOUS
 62
    7
 10
1049.9604897850827
 20
451.3419147468345
 11
1051.3667224748124
 21
454.8417187354263
  0
LINE
  8
_0-1_1_5
  6
CONTINUOUS
 62
    7
 10
1051.3667224748124
 20
451.3419147468345
 11
1052.7729551645418
 21
454.8417187354263
  0
LINE
  8
_0-1_1_5
  6
CONTINUOUS
 62
    7
 10
1048.554257095353
 20
451.3419147468345
 11
1049.9604897850827
 21
454.8417187354263
  0
LINE
  8
_0-1_1_5
  6
CONTINUOUS
 62
    7
 10
1034.4919301980553
 20
451.3419147468345
 11
1035.898162887785
 21
454.8417187354263
  0
LINE
  8
_0-1_1_5
  6
CONTINUOUS
 62
    7
 10
1058.3978859234612
 20
472.7632261036311
 11
1052.7729551645418
 21
474.51312809792705
  0
LINE
  8
_0-1_1_5
  6
CONTINUOUS
 62
    7
 10
1058.3978859234612
 20
472.7632261036311
 11
1052.7729551645418
 21
471.01332410933526
  0
LINE
  8
_0-1_1_5
  6
CONTINUOUS
 62
    7
 10
1014.198936782932
 20
471.01332410933526
 11
1052.7729551645418
 21
471.01332410933526
  0
LINE
  8
_0-1_1_5
  6
CONTINUOUS
 62
    7
 10
1014.235759059859
 20
474.51312809792705
 11
1052.7724012358942
 21
474.51312809792705
  0
LINE
  8
_0-1_1_5
  6
CONTINUOUS
 62
    7
 10
1024.6483013699471
 20
471.13013436237912
 11
1026.0545340596766
 21
474.62993835097097
  0
LINE
  8
_0-1_1_5
  6
CONTINUOUS
 62
    7
 10
1026.0545340596766
 20
471.13013436237912
 11
1027.460766749407
 21
474.62993835097097
  0
LINE
  8
_0-1_1_5
  6
CONTINUOUS
 62
    7
 10
1027.460766749407
 20
471.13013436237912
 11
1028.8669994391364
 21
474.62993835097097
  0
LINE
  8
_0-1_1_5
  6
CONTINUOUS
 62
    7
 10
1028.8669994391364
 20
471.13013436237912
 11
1030.2732321288661
 21
474.62993835097097
  0
LINE
  8
_0-1_1_5
  6
CONTINUOUS
 62
    7
 10
1030.2732321288661
 20
471.13013436237912
 11
1031.6794648185955
 21
474.62993835097097
  0
LINE
  8
_0-1_1_5
  6
CONTINUOUS
 62
    7
 10
1031.6794648185955
 20
471.13013436237912
 11
1033.0856975083259
 21
474.62993835097097
  0
LINE
  8
_0-1_1_5
  6
CONTINUOUS
 62
    7
 10
1037.3043955775152
 20
471.13013436237912
 11
1038.7106282672448
 21
474.62993835097097
  0
LINE
  8
_0-1_1_5
  6
CONTINUOUS
 62
    7
 10
1035.898162887785
 20
471.13013436237912
 11
1037.3043955775152
 21
474.62993835097097
  0
LINE
  8
_0-1_1_5
  6
CONTINUOUS
 62
    7
 10
1038.7106282672448
 20
471.13013436237912
 11
1040.1168609569745
 21
474.62993835097097
  0
LINE
  8
_0-1_1_5
  6
CONTINUOUS
 62
    7
 10
1040.1168609569745
 20
471.13013436237912
 11
1041.523093646704
 21
474.62993835097097
  0
LINE
  8
_0-1_1_5
  6
CONTINUOUS
 62
    7
 10
1041.523093646704
 20
471.13013436237912
 11
1042.9293263364339
 21
474.62993835097097
  0
LINE
  8
_0-1_1_5
  6
CONTINUOUS
 62
    7
 10
1042.9293263364339
 20
471.13013436237912
 11
1044.3355590261638
 21
474.62993835097097
  0
LINE
  8
_0-1_1_5
  6
CONTINUOUS
 62
    7
 10
1044.3355590261638
 20
471.13013436237912
 11
1045.7417917158934
 21
474.62993835097097
  0
LINE
  8
_0-1_1_5
  6
CONTINUOUS
 62
    7
 10
1045.7417917158934
 20
471.13013436237912
 11
1047.1480244056229
 21
474.62993835097097
  0
LINE
  8
_0-1_1_5
  6
CONTINUOUS
 62
    7
 10
1033.0856975083259
 20
471.13013436237912
 11
1034.4919301980553
 21
474.62993835097097
  0
LINE
  8
_0-1_1_5
  6
CONTINUOUS
 62
    7
 10
1047.1480244056229
 20
471.13013436237912
 11
1048.554257095353
 21
474.62993835097097
  0
LINE
  8
_0-1_1_5
  6
CONTINUOUS
 62
    7
 10
1049.9604897850827
 20
471.13013436237912
 11
1051.3667224748124
 21
474.62993835097097
  0
LINE
  8
_0-1_1_5
  6
CONTINUOUS
 62
    7
 10
1051.3667224748124
 20
471.13013436237912
 11
1052.7729551645418
 21
474.62993835097097
  0
LINE
  8
_0-1_1_5
  6
CONTINUOUS
 62
    7
 10
1048.554257095353
 20
471.13013436237912
 11
1049.9604897850827
 21
474.62993835097097
  0
LINE
  8
_0-1_1_5
  6
CONTINUOUS
 62
    7
 10
1034.4919301980553
 20
471.13013436237912
 11
1035.898162887785
 21
474.62993835097097
  0
LINE
  8
_0-1_1_5
  6
CONTINUOUS
 62
    7
 10
1023.2483013699472
 20
471.13013436237912
 11
1024.6545340596767
 21
474.62993835097097
  0
LINE
  8
_0-1_1_5
  6
CONTINUOUS
 62
    7
 10
1021.8483013699473
 20
471.13013436237912
 11
1023.2545340596769
 21
474.62993835097097
  0
LINE
  8
_0-1_1_5
  6
CONTINUOUS
 62
    7
 10
1020.4483013699473
 20
471.13013436237912
 11
1021.8545340596769
 21
474.62993835097097
  0
LINE
  8
_0-1_1_5
  6
CONTINUOUS
 62
    7
 10
1019.0483013699475
 20
471.13013436237912
 11
1020.454534059677
 21
474.62993835097097
  0
LINE
  8
_0-1_1_5
  6
CONTINUOUS
 62
    7
 10
1021.8483013699473
 20
451.3419147468345
 11
1023.2545340596769
 21
454.8417187354263
  0
LINE
  8
_0-1_1_5
  6
CONTINUOUS
 62
    7
 10
1020.4483013699473
 20
451.3419147468345
 11
1021.8545340596769
 21
454.8417187354263
  0
LINE
  8
_0-1_1_5
  6
CONTINUOUS
 62
    7
 10
1019.0483013699475
 20
451.3419147468345
 11
1020.454534059677
 21
454.8417187354263
  0
LINE
  8
_0-1_1_5
  6
CONTINUOUS
 62
    7
 10
1023.2483013699472
 20
451.3419147468345
 11
1024.6545340596767
 21
454.8417187354263
  0
LINE
  8
_0-1_1_5
  6
CENTER2
 62
    7
 10
1017.6483013699476
 20
451.3419147468345
 11
1019.0545340596771
 21
454.8417187354263
  0
LINE
  8
_0-1_1_5
  6
CENTER2
 62
    7
 10
1016.2483013699475
 20
451.3419147468345
 11
1017.6545340596772
 21
454.8417187354263
  0
LINE
  8
_0-1_1_5
  6
CENTER2
 62
    7
 10
1014.8483013699473
 20
451.3419147468345
 11
1016.2545340596773
 21
454.8417187354263
  0
LINE
  8
_0-1_1_5
  6
CENTER2
 62
    7
 10
1014.1989367829322
 20
453.21008125407707
 11
1014.8545340596769
 21
454.8417187354263
  0
LINE
  8
_0-1_1_5
  6
CENTER2
 62
    7
 10
1012.4488387772283
 20
456.47500648808654
 11
1014.1989367829322
 21
454.72490848238243
  0
LINE
  8
_0-1_1_5
  6
CENTER2
 62
    7
 10
1012.4488387772283
 20
449.47500648808659
 11
1014.198936782932
 21
451.22510449379064
  0
LINE
  8
_0-1_1_5
  6
CENTER2
 62
    7
 10
1014.1989367829322
 20
454.72490848238243
 11
1014.1989367829322
 21
451.22510449379064
  0
LINE
  8
_0-1_1_5
  6
CENTER2
 62
    7
 10
1017.6483013699476
 20
471.13013436237912
 11
1019.0545340596771
 21
474.62993835097097
  0
LINE
  8
_0-1_1_5
  6
CENTER2
 62
    7
 10
1016.2483013699475
 20
471.13013436237912
 11
1017.6545340596772
 21
474.62993835097097
  0
LINE
  8
_0-1_1_5
  6
CENTER2
 62
    7
 10
1014.8483013699473
 20
471.13013436237912
 11
1016.2545340596773
 21
474.62993835097097
  0
LINE
  8
_0-1_1_5
  6
CENTER2
 62
    7
 10
1014.1989367829322
 20
472.99830086962169
 11
1014.8545340596769
 21
474.62993835097097
  0
LINE
  8
_0-1_1_5
  6
CENTER2
 62
    7
 10
1012.4488387772283
 20
476.26322610363115
 11
1014.1989367829322
 21
474.51312809792705
  0
LINE
  8
_0-1_1_5
  6
CENTER2
 62
    7
 10
1012.4488387772283
 20
469.26322610363121
 11
1014.198936782932
 21
471.01332410933526
  0
LINE
  8
_0-1_1_5
  6
CENTER2
 62
    7
 10
1014.1989367829322
 20
474.51312809792705
 11
1014.1989367829322
 21
471.01332410933526
  0
LINE
  8
_0-1_1_5
  6
CENTER2
 62
    7
 10
1018.9488387772282
 20
482.86911629585893
 11
1012.4488387772283
 21
479.11633954612637
  0
LINE
  8
_0-1_1_5
  6
CENTER2
 62
    7
 10
1012.4488387772283
 20
479.11633954612637
 11
1012.4488387772283
 21
446.62189304559149
  0
LINE
  8
_0-1_1_5
  6
CENTER2
 62
    7
 10
1012.4488387772283
 20
449.47500648808659
 11
1012.4488387772283
 21
456.47500648808654
  0
LINE
  8
_0-1_1_5
  6
CENTER2
 62
    7
 10
1012.4488387772283
 20
469.26322610363121
 11
1012.4488387772283
 21
476.26322610363115
  0
LINE
  8
_0-1_1_5
  6
CENTER2
 62
    7
 10
1018.9488387772282
 20
442.86911629585887
 11
1012.4488387772283
 21
446.62189304559149
  0
POINT
  8
_0-2_ADD_LINE
 62
    7
 10
959.94883877722827
 20
519.47300119316969
  0
LINE
  8
_0-2_ADD_LINE
  6
CONTINUOUS
 62
    7
 10
959.94883877722827
 20
519.47300119316969
 11
959.94883877722827
 21
480.86911629585882
  0
LINE
  8
_0-2_ADD_LINE
  6
CONTINUOUS
 62
    7
 10
1018.9488387772282
 20
519.47300119316969
 11
959.94883877722827
 21
519.47300119316969
  0
TEXT
  8
_0-2_ADD_LINE
 62
    4
 10
983.19883877722816
 20
521.97300119316969
 40
12.5
 41
1
 50
0
  1
59
  0
LINE
  8
_0-1_1_5
  6
CENTER2
 62
    7
 10
759.6824131432794
 20
482.86911629585882
 11
781.68241314327929
 21
482.86911629585882
  0
LINE
  8
_0-1_1_5
  6
CENTER2
 62
    7
 10
781.68241314327929
 20
482.86911629585882
 11
784.6824131432794
 21
479.86911629585882
  0
LINE
  8
_0-1_1_5
  6
CENTER2
 62
    7
 10
784.6824131432794
 20
445.86911629585876
 11
784.6824131432794
 21
479.86911629585882
  0
LINE
  8
_0-1_1_5
  6
CENTER2
 62
    7
 10
784.6824131432794
 20
445.86911629585876
 11
781.68241314327929
 21
442.86911629585882
  0
LINE
  8
_0-1_1_5
  6
CENTER2
 62
    7
 10
759.6824131432794
 20
442.86911629585882
 11
781.68241314327929
 21
442.86911629585882
  0
LINE
  8
_0-1_1_5
  6
CENTER2
 62
    7
 10
759.6824131432794
 20
442.86911629585882
 11
756.68241314327929
 21
445.86911629585876
  0
LINE
  8
_0-1_1_5
  6
CENTER2
 62
    7
 10
756.68241314327929
 20
479.86911629585882
 11
756.68241314327929
 21
445.86911629585876
  0
LINE
  8
_0-1_1_5
  6
CENTER2
 62
    7
 10
756.68241314327929
 20
479.86911629585882
 11
759.6824131432794
 21
482.86911629585882
  0
LINE
  8
_0-2_ADD_LINE
  6
CONTINUOUS
 62
    7
 10
1039.9210582664657
 20
453.02025784926508
 11
1039.9210582664657
 21
386.49425729916715
  0
POINT
  8
_0-2_ADD_LINE
 62
    7
 10
1008.9488387772282
 20
406.36911629585882
  0
POINT
  8
_0-2_ADD_LINE
 62
    7
 10
1018.9488387772282
 20
406.36911629585882
  0
LINE
  8
_0-2_ADD_LINE
  6
CONTINUOUS
 62
    7
 10
1008.9488387772282
 20
406.36911629585882
 11
1008.9488387772282
 21
433.36911629585882
  0
LINE
  8
_0-2_ADD_LINE
  6
CONTINUOUS
 62
    7
 10
1018.9488387772282
 20
406.36911629585882
 11
1018.9488387772282
 21
433.36911629585882
  0
LINE
  8
_0-1_1_5
  6
CONTINUOUS
 62
    7
 10
1008.9488387772282
 20
406.36911629585882
 11
1018.9488387772282
 21
406.36911629585882
  0
TEXT
  8
_0-2_ADD_LINE
 62
    4
 10
994.43303794607436
 20
408.88510257394228
 40
12.5
 41
1
 50
0
  1
10
  0
LINE
  8
_0-2_ADD_LINE
  6
CONTINUOUS
 62
    7
 10
1008.9488387772282
 20
406.36911629585882
 11
995.64450877871593
 21
406.36911629585882
  0
LINE
  8
_0-1_1_5
  6
CENTER2
 62
    7
 10
784.6824131432794
 20
286.27499245404738
 11
756.68241314327929
 21
286.27499245404738
  0
LINE
  8
_0-1_1_5
  6
CONTINUOUS
 62
    7
 10
746.18241314327952
 20
282.77499245404726
 11
746.18241314327952
 21
292.77499245404726
  0
LINE
  8
_0-1_1_5
  6
CONTINUOUS
 62
    7
 10
795.18241314327929
 20
282.77499245404726
 11
795.18241314327929
 21
292.77499245404726
  0
LINE
  8
_0-1_1_5
  6
CONTINUOUS
 62
    7
 10
746.18241314327952
 20
282.77499245404726
 11
795.18241314327929
 21
282.77499245404726
  0
LINE
  8
_0-1_1_5
  6
CONTINUOUS
 62
    7
 10
746.18241314327952
 20
292.77499245404726
 11
795.18241314327929
 21
292.77499245404726
  0
LINE
  8
_0-1_1_5
  6
CONTINUOUS
 62
    7
 10
762.68241314327929
 20
228.77499245404726
 11
762.68241314327929
 21
228.77499245404726
  0
LINE
  8
_0-1_1_5
  6
CONTINUOUS
 62
    7
 10
762.68241314327929
 20
228.77499245404726
 11
762.98629745419646
 21
228.85095368898624
  0
LINE
  8
_0-1_1_5
  6
CONTINUOUS
 62
    7
 10
762.98629745419646
 20
228.85095368898624
 11
763.28094839409925
 21
229.07652935011771
  0
LINE
  8
_0-1_1_5
  6
CONTINUOUS
 62
    7
 10
763.28094839409925
 20
229.07652935011771
 11
763.55741314327929
 21
229.44486543512508
  0
LINE
  8
_0-1_1_5
  6
CONTINUOUS
 62
    7
 10
763.55741314327929
 20
229.44486543512508
 11
763.80729146023077
 21
229.94477023845238
  0
LINE
  8
_0-1_1_5
  6
CONTINUOUS
 62
    7
 10
763.80729146023077
 20
229.94477023845238
 11
764.02299091873749
 21
230.56105440561456
  0
LINE
  8
_0-1_1_5
  6
CONTINUOUS
 62
    7
 10
764.02299091873749
 20
230.56105440561456
 11
764.19795759990211
 21
231.27499245404726
  0
LINE
  8
_0-1_1_5
  6
CONTINUOUS
 62
    7
 10
764.19795759990211
 20
231.27499245404726
 11
764.32687522965466
 21
232.06489173741892
  0
LINE
  8
_0-1_1_5
  6
CONTINUOUS
 62
    7
 10
764.32687522965466
 20
232.06489173741892
 11
764.40582671105062
 21
232.90675156571263
  0
LINE
  8
_0-1_1_5
  6
CONTINUOUS
 62
    7
 10
764.40582671105062
 20
232.90675156571263
 11
764.43241314327929
 21
233.77499245404726
  0
LINE
  8
_0-1_1_5
  6
CONTINUOUS
 62
    7
 10
764.43241314327929
 20
233.77499245404726
 11
764.40582671105062
 21
234.6432333423819
  0
LINE
  8
_0-1_1_5
  6
CONTINUOUS
 62
    7
 10
764.40582671105062
 20
234.6432333423819
 11
764.32687522965466
 21
235.48509317067561
  0
LINE
  8
_0-1_1_5
  6
CONTINUOUS
 62
    7
 10
764.32687522965466
 20
235.48509317067561
 11
764.19795759990211
 21
236.27499245404726
  0
LINE
  8
_0-1_1_5
  6
CONTINUOUS
 62
    7
 10
764.19795759990211
 20
236.27499245404726
 11
764.02299091873749
 21
236.98893050247995
  0
LINE
  8
_0-1_1_5
  6
CONTINUOUS
 62
    7
 10
764.02299091873749
 20
236.98893050247995
 11
763.80729146023077
 21
237.60521466964215
  0
LINE
  8
_0-1_1_5
  6
CONTINUOUS
 62
    7
 10
763.80729146023077
 20
237.60521466964215
 11
763.55741314327929
 21
238.10511947296945
  0
LINE
  8
_0-1_1_5
  6
CONTINUOUS
 62
    7
 10
763.55741314327929
 20
238.10511947296945
 11
763.28094839409925
 21
238.47345555797679
  0
LINE
  8
_0-1_1_5
  6
CONTINUOUS
 62
    7
 10
763.28094839409925
 20
238.47345555797679
 11
762.98629745419646
 21
238.69903121910829
  0
LINE
  8
_0-1_1_5
  6
CONTINUOUS
 62
    7
 10
762.98629745419646
 20
238.69903121910829
 11
762.68241314327929
 21
238.77499245404726
  0
LINE
  8
_0-1_1_5
  6
CONTINUOUS
 62
    7
 10
762.68241314327929
 20
238.77499245404726
 11
762.68241314327929
 21
238.77499245404726
  0
LINE
  8
_0-1_1_5
  6
CONTINUOUS
 62
    7
 10
762.68241314327929
 20
223.77499245404726
 11
778.68241314327952
 21
223.77499245404726
  0
LINE
  8
_0-1_1_5
  6
CONTINUOUS
 62
    7
 10
762.68241314327929
 20
223.77499245404726
 11
762.68241314327929
 21
228.77499245404726
  0
LINE
  8
_0-1_1_5
  6
CONTINUOUS
 62
    7
 10
778.68241314327952
 20
223.77499245404726
 11
778.68241314327952
 21
282.77499245404726
  0
LINE
  8
_0-1_1_5
  6
CONTINUOUS
 62
    7
 10
762.68241314327929
 20
238.77499245404726
 11
762.68241314327929
 21
282.77499245404726
  0
LINE
  8
_0-1_1_5
  6
CONTINUOUS
 62
    7
 10
770.68241314327929
 20
332.22403960028026
 11
768.93251114898339
 21
326.5991088413611
  0
LINE
  8
_0-1_1_5
  6
CONTINUOUS
 62
    7
 10
770.68241314327929
 20
332.22403960028026
 11
772.43231513757519
 21
326.5991088413611
  0
LINE
  8
_0-1_1_5
  6
CONTINUOUS
 62
    7
 10
772.43231513757519
 20
288.02509045975114
 11
772.43231513757519
 21
326.5991088413611
  0
LINE
  8
_0-1_1_5
  6
CONTINUOUS
 62
    7
 10
768.93251114898339
 20
288.0619127366781
 11
768.93251114898339
 21
326.59855491271333
  0
LINE
  8
_0-1_1_5
  6
CONTINUOUS
 62
    7
 10
772.31550488453138
 20
298.47445504676642
 11
768.81570089593947
 21
299.88068773649587
  0
LINE
  8
_0-1_1_5
  6
CONTINUOUS
 62
    7
 10
772.31550488453138
 20
299.88068773649587
 11
768.81570089593947
 21
301.28692042622606
  0
LINE
  8
_0-1_1_5
  6
CONTINUOUS
 62
    7
 10
772.31550488453138
 20
301.28692042622606
 11
768.81570089593947
 21
302.69315311595551
  0
LINE
  8
_0-1_1_5
  6
CONTINUOUS
 62
    7
 10
772.31550488453138
 20
302.69315311595551
 11
768.81570089593947
 21
304.09938580568536
  0
LINE
  8
_0-1_1_5
  6
CONTINUOUS
 62
    7
 10
772.31550488453138
 20
304.09938580568536
 11
768.81570089593947
 21
305.50561849541481
  0
LINE
  8
_0-1_1_5
  6
CONTINUOUS
 62
    7
 10
772.31550488453138
 20
305.50561849541481
 11
768.81570089593947
 21
306.911851185145
  0
LINE
  8
_0-1_1_5
  6
CONTINUOUS
 62
    7
 10
772.31550488453138
 20
311.13054925433414
 11
768.81570089593947
 21
312.53678194406393
  0
LINE
  8
_0-1_1_5
  6
CONTINUOUS
 62
    7
 10
772.31550488453138
 20
309.72431656460429
 11
768.81570089593947
 21
311.13054925433414
  0
LINE
  8
_0-1_1_5
  6
CONTINUOUS
 62
    7
 10
772.31550488453138
 20
312.53678194406393
 11
768.81570089593947
 21
313.9430146337935
  0
LINE
  8
_0-1_1_5
  6
CONTINUOUS
 62
    7
 10
772.31550488453138
 20
313.9430146337935
 11
768.81570089593947
 21
315.34924732352323
  0
LINE
  8
_0-1_1_5
  6
CONTINUOUS
 62
    7
 10
772.31550488453138
 20
315.34924732352323
 11
768.81570089593947
 21
316.75548001325291
  0
LINE
  8
_0-1_1_5
  6
CONTINUOUS
 62
    7
 10
772.31550488453138
 20
316.75548001325291
 11
768.81570089593947
 21
318.16171270298287
  0
LINE
  8
_0-1_1_5
  6
CONTINUOUS
 62
    7
 10
772.31550488453138
 20
318.16171270298287
 11
768.81570089593947
 21
319.56794539271249
  0
LINE
  8
_0-1_1_5
  6
CONTINUOUS
 62
    7
 10
772.31550488453138
 20
319.56794539271249
 11
768.81570089593947
 21
320.97417808244217
  0
LINE
  8
_0-1_1_5
  6
CONTINUOUS
 62
    7
 10
772.31550488453138
 20
306.911851185145
 11
768.81570089593947
 21
308.31808387487445
  0
LINE
  8
_0-1_1_5
  6
CONTINUOUS
 62
    7
 10
772.31550488453138
 20
320.97417808244217
 11
768.81570089593947
 21
322.38041077217213
  0
LINE
  8
_0-1_1_5
  6
CONTINUOUS
 62
    7
 10
772.31550488453138
 20
323.7866434619018
 11
768.81570089593947
 21
325.19287615163165
  0
LINE
  8
_0-1_1_5
  6
CONTINUOUS
 62
    7
 10
772.31550488453138
 20
325.19287615163165
 11
768.81570089593947
 21
326.5991088413611
  0
LINE
  8
_0-1_1_5
  6
CONTINUOUS
 62
    7
 10
772.31550488453138
 20
322.38041077217213
 11
768.81570089593947
 21
323.7866434619018
  0
LINE
  8
_0-1_1_5
  6
CONTINUOUS
 62
    7
 10
772.31550488453138
 20
308.31808387487445
 11
768.81570089593947
 21
309.72431656460429
  0
LINE
  8
_0-1_1_5
  6
CONTINUOUS
 62
    7
 10
772.31550488453138
 20
297.07445504676627
 11
768.81570089593947
 21
298.48068773649601
  0
LINE
  8
_0-1_1_5
  6
CONTINUOUS
 62
    7
 10
772.31550488453138
 20
295.67445504676641
 11
768.81570089593947
 21
297.08068773649615
  0
LINE
  8
_0-1_1_5
  6
CONTINUOUS
 62
    7
 10
772.31550488453138
 20
294.27445504676643
 11
768.81570089593947
 21
295.680687736496
  0
LINE
  8
_0-1_1_5
  6
CENTER2
 62
    7
 10
772.31550488453138
 20
292.87445504676657
 11
768.81570089593947
 21
294.28068773649613
  0
LINE
  8
_0-1_1_5
  6
CENTER2
 62
    7
 10
772.31550488453138
 20
290.0744550467665
 11
768.81570089593947
 21
291.48068773649629
  0
LINE
  8
_0-1_1_5
  6
CENTER2
 62
    7
 10
772.31550488453138
 20
288.67445504676652
 11
768.81570089593947
 21
290.08068773649643
  0
LINE
  8
_0-1_1_5
  6
CENTER2
 62
    7
 10
770.4473383772887
 20
288.02509045975142
 11
768.81570089593947
 21
288.68068773649611
  0
LINE
  8
_0-1_1_5
  6
CENTER2
 62
    7
 10
767.18241314327929
 20
286.27499245404738
 11
768.93251114898339
 21
288.02509045975142
  0
LINE
  8
_0-1_1_5
  6
CENTER2
 62
    7
 10
774.18241314327929
 20
286.27499245404738
 11
772.43231513757519
 21
288.02509045975114
  0
LINE
  8
_0-1_1_5
  6
CENTER2
 62
    7
 10
768.93251114898339
 20
288.02509045975142
 11
772.43231513757519
 21
288.02509045975142
  0
LINE
  8
_0-1_1_5
  6
CENTER2
 62
    7
 10
784.6824131432794
 20
286.27499245404738
 11
784.6824131432794
 21
292.77499245404726
  0
LINE
  8
_0-1_1_5
  6
CENTER2
 62
    7
 10
756.68241314327929
 20
286.27499245404738
 11
756.68241314327929
 21
292.77499245404726
  0
POINT
  8
_0-2_ADD_LINE
 62
    7
 10
746.18241314327952
 20
356.0499606027488
  0
POINT
  8
_0-2_ADD_LINE
 62
    7
 10
795.18241314327929
 20
356.0499606027488
  0
LINE
  8
_0-2_ADD_LINE
  6
CONTINUOUS
 62
    7
 10
795.18241314327929
 20
356.0499606027488
 11
795.18241314327929
 21
302.77499245404732
  0
LINE
  8
_0-2_ADD_LINE
  6
CONTINUOUS
 62
    7
 10
746.18241314327952
 20
356.0499606027488
 11
746.18241314327952
 21
302.77499245404732
  0
POINT
  8
_0-2_ADD_LINE
 62
    7
 10
588.94883877722827
 20
238.77499245404726
  0
POINT
  8
_0-2_ADD_LINE
 62
    7
 10
588.94883877722827
 20
228.77499245404726
  0
LINE
  8
_0-2_ADD_LINE
  6
CONTINUOUS
 62
    7
 10
588.94883877722827
 20
238.77499245404726
 11
588.94883877722827
 21
228.77499245404726
  0
TEXT
  8
_0-2_ADD_LINE
 62
    4
 10
586.34659746251441
 20
252.00490196078422
 40
12.5
 41
1
 50
90
  1
10
  0
LINE
  8
_0-2_ADD_LINE
  6
CONTINUOUS
 62
    7
 10
588.94883877722827
 20
238.77499245404726
 11
588.94883877722827
 21
264.64873238799549
  0
LINE
  8
_0-1_1_5
  6
CONTINUOUS
 62
    7
 10
746.18241314327952
 20
356.0499606027488
 11
795.18241314327929
 21
356.0499606027488
  0
TEXT
  8
_0-1_1_5
 62
    4
 10
764.43241314327929
 20
358.5499606027488
 40
12.5
 41
1
 50
0
  1
49
  0
POINT
  8
_0-2_ADD_LINE
 62
    7
 10
826.92477951856233
 20
223.77499245404726
  0
POINT
  8
_0-2_ADD_LINE
 62
    7
 10
826.92477951856233
 20
292.77499245404726
  0
LINE
  8
_0-2_ADD_LINE
  6
CONTINUOUS
 62
    7
 10
826.92477951856233
 20
292.77499245404726
 11
826.92477951856233
 21
223.77499245404726
  0
TEXT
  8
_0-2_ADD_LINE
 62
    4
 10
824.42477951856233
 20
252.02499245404726
 40
12.5
 41
1
 50
90
  1
69
  0
LINE
  8
_0-2_ADD_LINE
  6
CONTINUOUS
 62
    7
 10
826.92477951856233
 20
292.77499245404726
 11
804.68709169945237
 21
292.77499245404726
  0
LINE
  8
_0-2_ADD_LINE
  6
CONTINUOUS
 62
    7
 10
826.92477951856233
 20
223.77499245404726
 11
787.52167219043156
 21
223.77499245404726
  0
POINT
  8
_0-2_ADD_LINE
 62
    7
 10
20.682413143279348
 20
519.47300119316969
  0
LINE
  8
_0-2_ADD_LINE
  6
CONTINUOUS
 62
    7
 10
20.682413143279348
 20
519.47300119316969
 11
20.682413143279348
 21
497.47300119316969
  0
POINT
  8
_0-2_ADD_LINE
 62
    7
 10
-3.8175868567205384
 20
539.34912037466029
  0
LINE
  8
_0-2_ADD_LINE
  6
CONTINUOUS
 62
    7
 10
-3.8175868567205384
 20
539.34912037466029
 11
-3.8175868567205384
 21
477.86911629585882
  0
CIRCLE
  8
_0-1_1_5
  6
CONTINUOUS
 62
    7
 10
20.682413143279348
 20
462.86911629585882
 40
8
  0
ARC
  8
_0-1_1_5
  6
CONTINUOUS
 62
    7
 10
20.682413143279348
 20
462.86911629585882
 40
24.5
 50
11.775743985866535
 51
348.22425601413346
  0
LINE
  8
_0-1_1_5
  6
CENTER2
 62
    7
 10
25.682413143279348
 20
472.7632261036311
 11
15.682413143279348
 21
472.7632261036311
  0
LINE
  8
_0-1_1_5
  6
CENTER2
 62
    7
 10
20.682413143279348
 20
476.76322610363115
 11
20.682413143279348
 21
468.76322610363115
  0
LINE
  8
_0-1_1_5
  6
CENTER2
 62
    7
 10
24.682413143279348
 20
472.7632261036311
 11
24.682413143279348
 21
472.7632261036311
  0
LINE
  8
_0-1_1_5
  6
CENTER2
 62
    7
 10
24.682413143279348
 20
472.7632261036311
 11
24.62164415532818
 21
473.31890027216525
  0
LINE
  8
_0-1_1_5
  6
CENTER2
 62
    7
 10
24.62164415532818
 20
473.31890027216525
 11
24.441183626422983
 21
473.85769056227326
  0
LINE
  8
_0-1_1_5
  6
CENTER2
 62
    7
 10
24.441183626422983
 20
473.85769056227326
 11
24.146514758417101
 21
474.36322610363112
  0
LINE
  8
_0-1_1_5
  6
CENTER2
 62
    7
 10
24.146514758417101
 20
474.36322610363112
 11
23.746590915755259
 21
474.820146454628
  0
LINE
  8
_0-1_1_5
  6
CENTER2
 62
    7
 10
23.746590915755259
 20
474.820146454628
 11
23.253563582025507
 21
475.21456832161181
  0
LINE
  8
_0-1_1_5
  6
CENTER2
 62
    7
 10
23.253563582025507
 20
475.21456832161181
 11
22.682413143279348
 21
475.53450739574129
  0
LINE
  8
_0-1_1_5
  6
CENTER2
 62
    7
 10
22.682413143279348
 20
475.53450739574129
 11
22.050493716582022
 21
475.77024249014602
  0
LINE
  8
_0-1_1_5
  6
CENTER2
 62
    7
 10
22.050493716582022
 20
475.77024249014602
 11
21.377005853947068
 21
475.91461091327017
  0
LINE
  8
_0-1_1_5
  6
CENTER2
 62
    7
 10
21.377005853947068
 20
475.91461091327017
 11
20.682413143279348
 21
475.96322610363109
  0
LINE
  8
_0-1_1_5
  6
CENTER2
 62
    7
 10
20.682413143279348
 20
475.96322610363109
 11
19.987820432611628
 21
475.91461091327017
  0
LINE
  8
_0-1_1_5
  6
CENTER2
 62
    7
 10
19.987820432611628
 20
475.91461091327017
 11
19.314332569976674
 21
475.77024249014602
  0
LINE
  8
_0-1_1_5
  6
CENTER2
 62
    7
 10
19.314332569976674
 20
475.77024249014602
 11
18.682413143279348
 21
475.53450739574129
  0
LINE
  8
_0-1_1_5
  6
CENTER2
 62
    7
 10
18.682413143279348
 20
475.53450739574129
 11
18.111262704533193
 21
475.21456832161181
  0
LINE
  8
_0-1_1_5
  6
CENTER2
 62
    7
 10
18.111262704533193
 20
475.21456832161181
 11
17.618235370803436
 21
474.820146454628
  0
LINE
  8
_0-1_1_5
  6
CENTER2
 62
    7
 10
17.618235370803436
 20
474.820146454628
 11
17.218311528141594
 21
474.36322610363112
  0
LINE
  8
_0-1_1_5
  6
CENTER2
 62
    7
 10
17.218311528141594
 20
474.36322610363112
 11
16.923642660135716
 21
473.85769056227326
  0
LINE
  8
_0-1_1_5
  6
CENTER2
 62
    7
 10
16.923642660135716
 20
473.85769056227326
 11
16.743182131230515
 21
473.31890027216525
  0
LINE
  8
_0-1_1_5
  6
CENTER2
 62
    7
 10
16.743182131230515
 20
473.31890027216525
 11
16.682413143279348
 21
472.7632261036311
  0
LINE
  8
_0-1_1_5
  6
CENTER2
 62
    7
 10
16.682413143279348
 20
472.7632261036311
 11
16.743182131230515
 21
472.20755193509694
  0
LINE
  8
_0-1_1_5
  6
CENTER2
 62
    7
 10
16.743182131230515
 20
472.20755193509694
 11
16.923642660135712
 21
471.66876164498899
  0
LINE
  8
_0-1_1_5
  6
CENTER2
 62
    7
 10
16.923642660135712
 20
471.66876164498899
 11
17.218311528141591
 21
471.16322610363113
  0
LINE
  8
_0-1_1_5
  6
CENTER2
 62
    7
 10
17.218311528141591
 20
471.16322610363113
 11
17.618235370803429
 21
470.70630575263419
  0
LINE
  8
_0-1_1_5
  6
CENTER2
 62
    7
 10
17.618235370803429
 20
470.70630575263419
 11
18.111262704533186
 21
470.31188388565039
  0
LINE
  8
_0-1_1_5
  6
CENTER2
 62
    7
 10
18.111262704533186
 20
470.31188388565039
 11
18.682413143279341
 21
469.99194481152091
  0
LINE
  8
_0-1_1_5
  6
CENTER2
 62
    7
 10
18.682413143279341
 20
469.99194481152091
 11
19.314332569976663
 21
469.75620971711618
  0
LINE
  8
_0-1_1_5
  6
CENTER2
 62
    7
 10
19.314332569976663
 20
469.75620971711618
 11
19.987820432611617
 21
469.61184129399203
  0
LINE
  8
_0-1_1_5
  6
CENTER2
 62
    7
 10
19.987820432611617
 20
469.61184129399203
 11
20.682413143279337
 21
469.56322610363111
  0
LINE
  8
_0-1_1_5
  6
CENTER2
 62
    7
 10
20.682413143279337
 20
469.56322610363111
 11
21.377005853947058
 21
469.61184129399203
  0
LINE
  8
_0-1_1_5
  6
CENTER2
 62
    7
 10
21.377005853947058
 20
469.61184129399203
 11
22.050493716582011
 21
469.75620971711618
  0
LINE
  8
_0-1_1_5
  6
CENTER2
 62
    7
 10
22.050493716582011
 20
469.75620971711618
 11
22.682413143279337
 21
469.99194481152091
  0
LINE
  8
_0-1_1_5
  6
CENTER2
 62
    7
 10
22.682413143279337
 20
469.99194481152091
 11
23.253563582025492
 21
470.31188388565039
  0
LINE
  8
_0-1_1_5
  6
CENTER2
 62
    7
 10
23.253563582025492
 20
470.31188388565039
 11
23.746590915755249
 21
470.70630575263414
  0
LINE
  8
_0-1_1_5
  6
CENTER2
 62
    7
 10
23.746590915755249
 20
470.70630575263414
 11
24.146514758417094
 21
471.16322610363108
  0
LINE
  8
_0-1_1_5
  6
CENTER2
 62
    7
 10
24.146514758417094
 20
471.16322610363108
 11
24.441183626422976
 21
471.66876164498893
  0
LINE
  8
_0-1_1_5
  6
CENTER2
 62
    7
 10
24.441183626422976
 20
471.66876164498893
 11
24.621644155328177
 21
472.20755193509689
  0
LINE
  8
_0-1_1_5
  6
CENTER2
 62
    7
 10
24.621644155328177
 20
472.20755193509689
 11
24.682413143279348
 21
472.7632261036311
  0
LINE
  8
_0-1_1_5
  6
CENTER2
 62
    7
 10
24.682413143279348
 20
472.7632261036311
 11
24.682413143279348
 21
472.7632261036311
  0
LINE
  8
_0-1_1_5
  6
CENTER2
 62
    7
 10
24.682413143279348
 20
452.97500648808648
 11
24.682413143279348
 21
452.97500648808648
  0
LINE
  8
_0-1_1_5
  6
CENTER2
 62
    7
 10
24.682413143279348
 20
452.97500648808648
 11
24.62164415532818
 21
453.53068065662063
  0
LINE
  8
_0-1_1_5
  6
CENTER2
 62
    7
 10
24.62164415532818
 20
453.53068065662063
 11
24.441183626422983
 21
454.06947094672864
  0
LINE
  8
_0-1_1_5
  6
CENTER2
 62
    7
 10
24.441183626422983
 20
454.06947094672864
 11
24.146514758417101
 21
454.5750064880865
  0
LINE
  8
_0-1_1_5
  6
CENTER2
 62
    7
 10
24.146514758417101
 20
454.5750064880865
 11
23.746590915755259
 21
455.03192683908338
  0
LINE
  8
_0-1_1_5
  6
CENTER2
 62
    7
 10
23.746590915755259
 20
455.03192683908338
 11
23.253563582025507
 21
455.42634870606719
  0
LINE
  8
_0-1_1_5
  6
CENTER2
 62
    7
 10
23.253563582025507
 20
455.42634870606719
 11
22.682413143279348
 21
455.74628778019667
  0
LINE
  8
_0-1_1_5
  6
CENTER2
 62
    7
 10
22.682413143279348
 20
455.74628778019667
 11
22.050493716582022
 21
455.9820228746014
  0
LINE
  8
_0-1_1_5
  6
CENTER2
 62
    7
 10
22.050493716582022
 20
455.9820228746014
 11
21.377005853947068
 21
456.12639129772555
  0
LINE
  8
_0-1_1_5
  6
CENTER2
 62
    7
 10
21.377005853947068
 20
456.12639129772555
 11
20.682413143279348
 21
456.17500648808647
  0
LINE
  8
_0-1_1_5
  6
CENTER2
 62
    7
 10
20.682413143279348
 20
456.17500648808647
 11
19.987820432611628
 21
456.12639129772555
  0
LINE
  8
_0-1_1_5
  6
CENTER2
 62
    7
 10
19.987820432611628
 20
456.12639129772555
 11
19.314332569976674
 21
455.9820228746014
  0
LINE
  8
_0-1_1_5
  6
CENTER2
 62
    7
 10
19.314332569976674
 20
455.9820228746014
 11
18.682413143279348
 21
455.74628778019667
  0
LINE
  8
_0-1_1_5
  6
CENTER2
 62
    7
 10
18.682413143279348
 20
455.74628778019667
 11
18.111262704533193
 21
455.42634870606719
  0
LINE
  8
_0-1_1_5
  6
CENTER2
 62
    7
 10
18.111262704533193
 20
455.42634870606719
 11
17.618235370803436
 21
455.03192683908338
  0
LINE
  8
_0-1_1_5
  6
CENTER2
 62
    7
 10
17.618235370803436
 20
455.03192683908338
 11
17.218311528141594
 21
454.5750064880865
  0
LINE
  8
_0-1_1_5
  6
CENTER2
 62
    7
 10
17.218311528141594
 20
454.5750064880865
 11
16.923642660135716
 21
454.06947094672864
  0
LINE
  8
_0-1_1_5
  6
CENTER2
 62
    7
 10
16.923642660135716
 20
454.06947094672864
 11
16.743182131230515
 21
453.53068065662063
  0
LINE
  8
_0-1_1_5
  6
CENTER2
 62
    7
 10
16.743182131230515
 20
453.53068065662063
 11
16.682413143279348
 21
452.97500648808648
  0
LINE
  8
_0-1_1_5
  6
CENTER2
 62
    7
 10
16.682413143279348
 20
452.97500648808648
 11
16.743182131230515
 21
452.41933231955232
  0
LINE
  8
_0-1_1_5
  6
CENTER2
 62
    7
 10
16.743182131230515
 20
452.41933231955232
 11
16.923642660135712
 21
451.88054202944437
  0
LINE
  8
_0-1_1_5
  6
CENTER2
 62
    7
 10
16.923642660135712
 20
451.88054202944437
 11
17.218311528141591
 21
451.37500648808646
  0
LINE
  8
_0-1_1_5
  6
CENTER2
 62
    7
 10
17.218311528141591
 20
451.37500648808646
 11
17.618235370803429
 21
450.91808613708957
  0
LINE
  8
_0-1_1_5
  6
CENTER2
 62
    7
 10
17.618235370803429
 20
450.91808613708957
 11
18.111262704533186
 21
450.52366427010577
  0
LINE
  8
_0-1_1_5
  6
CENTER2
 62
    7
 10
18.111262704533186
 20
450.52366427010577
 11
18.682413143279341
 21
450.20372519597629
  0
LINE
  8
_0-1_1_5
  6
CENTER2
 62
    7
 10
18.682413143279341
 20
450.20372519597629
 11
19.314332569976663
 21
449.96799010157156
  0
LINE
  8
_0-1_1_5
  6
CENTER2
 62
    7
 10
19.314332569976663
 20
449.96799010157156
 11
19.987820432611617
 21
449.82362167844741
  0
LINE
  8
_0-1_1_5
  6
CENTER2
 62
    7
 10
19.987820432611617
 20
449.82362167844741
 11
20.682413143279337
 21
449.77500648808649
  0
LINE
  8
_0-1_1_5
  6
CENTER2
 62
    7
 10
20.682413143279337
 20
449.77500648808649
 11
21.377005853947058
 21
449.82362167844741
  0
LINE
  8
_0-1_1_5
  6
CENTER2
 62
    7
 10
21.377005853947058
 20
449.82362167844741
 11
22.050493716582011
 21
449.96799010157156
  0
LINE
  8
_0-1_1_5
  6
CENTER2
 62
    7
 10
22.050493716582011
 20
449.96799010157156
 11
22.682413143279337
 21
450.20372519597629
  0
LINE
  8
_0-1_1_5
  6
CENTER2
 62
    7
 10
22.682413143279337
 20
450.20372519597629
 11
23.253563582025492
 21
450.52366427010577
  0
LINE
  8
_0-1_1_5
  6
CENTER2
 62
    7
 10
23.253563582025492
 20
450.52366427010577
 11
23.746590915755249
 21
450.91808613708952
  0
LINE
  8
_0-1_1_5
  6
CENTER2
 62
    7
 10
23.746590915755249
 20
450.91808613708952
 11
24.146514758417094
 21
451.37500648808646
  0
LINE
  8
_0-1_1_5
  6
CENTER2
 62
    7
 10
24.146514758417094
 20
451.37500648808646
 11
24.441183626422976
 21
451.88054202944431
  0
LINE
  8
_0-1_1_5
  6
CENTER2
 62
    7
 10
24.441183626422976
 20
451.88054202944431
 11
24.621644155328177
 21
452.41933231955227
  0
LINE
  8
_0-1_1_5
  6
CENTER2
 62
    7
 10
24.621644155328177
 20
452.41933231955227
 11
24.682413143279348
 21
452.97500648808648
  0
LINE
  8
_0-1_1_5
  6
CENTER2
 62
    7
 10
24.682413143279348
 20
452.97500648808648
 11
24.682413143279348
 21
452.97500648808648
  0
LINE
  8
_0-1_1_5
  6
CENTER2
 62
    7
 10
25.682413143279348
 20
452.97500648808648
 11
15.682413143279348
 21
452.97500648808648
  0
LINE
  8
_0-1_1_5
  6
CENTER2
 62
    7
 10
20.682413143279348
 20
448.97500648808654
 11
20.682413143279348
 21
456.97500648808659
  0
LINE
  8
_0-1_1_5
  6
CENTER2
 62
    7
 10
9.6824131432794047
 20
482.86911629585882
 11
31.682413143279291
 21
482.86911629585882
  0
LINE
  8
_0-1_1_5
  6
CENTER2
 62
    7
 10
31.682413143279291
 20
482.86911629585882
 11
34.682413143279405
 21
479.86911629585882
  0
LINE
  8
_0-1_1_5
  6
CENTER2
 62
    7
 10
34.682413143279405
 20
445.86911629585876
 11
34.682413143279405
 21
479.86911629585882
  0
LINE
  8
_0-1_1_5
  6
CENTER2
 62
    7
 10
34.682413143279405
 20
445.86911629585876
 11
31.682413143279291
 21
442.86911629585882
  0
LINE
  8
_0-1_1_5
  6
CENTER2
 62
    7
 10
9.6824131432794047
 20
442.86911629585882
 11
31.682413143279291
 21
442.86911629585882
  0
LINE
  8
_0-1_1_5
  6
CENTER2
 62
    7
 10
9.6824131432794047
 20
442.86911629585882
 11
6.682413143279291
 21
445.86911629585876
  0
LINE
  8
_0-1_1_5
  6
CENTER2
 62
    7
 10
6.682413143279291
 20
479.86911629585882
 11
6.682413143279291
 21
445.86911629585876
  0
LINE
  8
_0-1_1_5
  6
CENTER2
 62
    7
 10
6.682413143279291
 20
479.86911629585882
 11
9.6824131432794047
 21
482.86911629585882
  0
LINE
  8
_0-1_1_5
  6
CONTINUOUS
 62
    7
 10
-3.8175868567205384
 20
282.77499245404732
 11
-3.8175868567205384
 21
292.77499245404732
  0
LINE
  8
_0-1_1_5
  6
CONTINUOUS
 62
    7
 10
45.182413143279234
 20
282.77499245404732
 11
45.182413143279234
 21
292.77499245404732
  0
LINE
  8
_0-1_1_5
  6
CONTINUOUS
 62
    7
 10
-3.8175868567205384
 20
282.77499245404732
 11
45.182413143279234
 21
282.77499245404732
  0
LINE
  8
_0-1_1_5
  6
CONTINUOUS
 62
    7
 10
-3.8175868567205384
 20
292.77499245404732
 11
45.182413143279234
 21
292.77499245404732
  0
LINE
  8
_0-1_1_5
  6
CONTINUOUS
 62
    7
 10
12.682413143279234
 20
223.77499245404735
 11
28.682413143279462
 21
223.77499245404735
  0
LINE
  8
_0-1_1_5
  6
CONTINUOUS
 62
    7
 10
28.682413143279462
 20
238.77499245404735
 11
28.682413143279462
 21
238.77499245404735
  0
LINE
  8
_0-1_1_5
  6
CONTINUOUS
 62
    7
 10
28.682413143279462
 20
238.77499245404735
 11
28.378528832362335
 21
238.69903121910841
  0
LINE
  8
_0-1_1_5
  6
CONTINUOUS
 62
    7
 10
28.378528832362335
 20
238.69903121910841
 11
28.08387789245954
 21
238.47345555797691
  0
LINE
  8
_0-1_1_5
  6
CONTINUOUS
 62
    7
 10
28.08387789245954
 20
238.47345555797691
 11
27.807413143279462
 21
238.10511947296953
  0
LINE
  8
_0-1_1_5
  6
CONTINUOUS
 62
    7
 10
27.807413143279462
 20
238.10511947296953
 11
27.557534826328016
 21
237.60521466964224
  0
LINE
  8
_0-1_1_5
  6
CONTINUOUS
 62
    7
 10
27.557534826328016
 20
237.60521466964224
 11
27.34183536782125
 21
236.98893050248006
  0
LINE
  8
_0-1_1_5
  6
CONTINUOUS
 62
    7
 10
27.34183536782125
 20
236.98893050248006
 11
27.166868686656695
 21
236.27499245404735
  0
LINE
  8
_0-1_1_5
  6
CONTINUOUS
 62
    7
 10
27.166868686656695
 20
236.27499245404735
 11
27.03795105690412
 21
235.4850931706757
  0
LINE
  8
_0-1_1_5
  6
CONTINUOUS
 62
    7
 10
27.03795105690412
 20
235.4850931706757
 11
26.958999575508098
 21
234.64323334238202
  0
LINE
  8
_0-1_1_5
  6
CONTINUOUS
 62
    7
 10
26.958999575508098
 20
234.64323334238202
 11
26.932413143279462
 21
233.77499245404735
  0
LINE
  8
_0-1_1_5
  6
CONTINUOUS
 62
    7
 10
26.932413143279462
 20
233.77499245404735
 11
26.958999575508098
 21
232.90675156571271
  0
LINE
  8
_0-1_1_5
  6
CONTINUOUS
 62
    7
 10
26.958999575508098
 20
232.90675156571271
 11
27.03795105690412
 21
232.064891737419
  0
LINE
  8
_0-1_1_5
  6
CONTINUOUS
 62
    7
 10
27.03795105690412
 20
232.064891737419
 11
27.166868686656692
 21
231.27499245404735
  0
LINE
  8
_0-1_1_5
  6
CONTINUOUS
 62
    7
 10
27.166868686656692
 20
231.27499245404735
 11
27.34183536782125
 21
230.56105440561467
  0
LINE
  8
_0-1_1_5
  6
CONTINUOUS
 62
    7
 10
27.34183536782125
 20
230.56105440561467
 11
27.557534826328016
 21
229.94477023845246
  0
LINE
  8
_0-1_1_5
  6
CONTINUOUS
 62
    7
 10
27.557534826328016
 20
229.94477023845246
 11
27.807413143279458
 21
229.44486543512517
  0
LINE
  8
_0-1_1_5
  6
CONTINUOUS
 62
    7
 10
27.807413143279458
 20
229.44486543512517
 11
28.08387789245954
 21
229.07652935011782
  0
LINE
  8
_0-1_1_5
  6
CONTINUOUS
 62
    7
 10
28.08387789245954
 20
229.07652935011782
 11
28.378528832362331
 21
228.85095368898632
  0
LINE
  8
_0-1_1_5
  6
CONTINUOUS
 62
    7
 10
28.378528832362331
 20
228.85095368898632
 11
28.682413143279458
 21
228.77499245404735
  0
LINE
  8
_0-1_1_5
  6
CONTINUOUS
 62
    7
 10
28.682413143279458
 20
228.77499245404735
 11
28.682413143279462
 21
228.77499245404735
  0
LINE
  8
_0-1_1_5
  6
CONTINUOUS
 62
    7
 10
28.682413143279462
 20
223.77499245404735
 11
28.682413143279462
 21
228.77499245404735
  0
LINE
  8
_0-1_1_5
  6
CONTINUOUS
 62
    7
 10
12.682413143279234
 20
223.77499245404735
 11
12.682413143279234
 21
282.77499245404732
  0
LINE
  8
_0-1_1_5
  6
CONTINUOUS
 62
    7
 10
28.682413143279462
 20
238.77499245404735
 11
28.682413143279462
 21
282.77499245404732
  0
LINE
  8
_0-1_1_5
  6
CONTINUOUS
 62
    7
 10
20.682413143279348
 20
332.22403960028032
 11
18.932511148983338
 21
326.59910884136116
  0
LINE
  8
_0-1_1_5
  6
CONTINUOUS
 62
    7
 10
20.682413143279348
 20
332.22403960028032
 11
22.432315137575216
 21
326.59910884136116
  0
LINE
  8
_0-1_1_5
  6
CONTINUOUS
 62
    7
 10
22.432315137575216
 20
288.0250904597512
 11
22.432315137575216
 21
326.59910884136116
  0
LINE
  8
_0-1_1_5
  6
CONTINUOUS
 62
    7
 10
18.932511148983338
 20
288.06191273667815
 11
18.932511148983338
 21
326.59855491271338
  0
LINE
  8
_0-1_1_5
  6
CONTINUOUS
 62
    7
 10
22.315504884531379
 20
298.47445504676648
 11
18.8157008959395
 21
299.88068773649593
  0
LINE
  8
_0-1_1_5
  6
CONTINUOUS
 62
    7
 10
22.315504884531379
 20
299.88068773649593
 11
18.8157008959395
 21
301.28692042622612
  0
LINE
  8
_0-1_1_5
  6
CONTINUOUS
 62
    7
 10
22.315504884531379
 20
301.28692042622612
 11
18.8157008959395
 21
302.69315311595557
  0
LINE
  8
_0-1_1_5
  6
CONTINUOUS
 62
    7
 10
22.315504884531379
 20
302.69315311595557
 11
18.8157008959395
 21
304.09938580568542
  0
LINE
  8
_0-1_1_5
  6
CONTINUOUS
 62
    7
 10
22.315504884531379
 20
304.09938580568542
 11
18.8157008959395
 21
305.50561849541486
  0
LINE
  8
_0-1_1_5
  6
CONTINUOUS
 62
    7
 10
22.315504884531379
 20
305.50561849541486
 11
18.8157008959395
 21
306.91185118514505
  0
LINE
  8
_0-1_1_5
  6
CONTINUOUS
 62
    7
 10
22.315504884531379
 20
311.13054925433426
 11
18.8157008959395
 21
312.53678194406399
  0
LINE
  8
_0-1_1_5
  6
CONTINUOUS
 62
    7
 10
22.315504884531379
 20
309.72431656460435
 11
18.8157008959395
 21
311.13054925433426
  0
LINE
  8
_0-1_1_5
  6
CONTINUOUS
 62
    7
 10
22.315504884531379
 20
312.53678194406399
 11
18.8157008959395
 21
313.94301463379355
  0
LINE
  8
_0-1_1_5
  6
CONTINUOUS
 62
    7
 10
22.315504884531379
 20
313.94301463379355
 11
18.8157008959395
 21
315.34924732352329
  0
LINE
  8
_0-1_1_5
  6
CONTINUOUS
 62
    7
 10
22.315504884531379
 20
315.34924732352329
 11
18.8157008959395
 21
316.75548001325296
  0
LINE
  8
_0-1_1_5
  6
CONTINUOUS
 62
    7
 10
22.315504884531379
 20
316.75548001325296
 11
18.8157008959395
 21
318.16171270298292
  0
LINE
  8
_0-1_1_5
  6
CONTINUOUS
 62
    7
 10
22.315504884531379
 20
318.16171270298292
 11
18.8157008959395
 21
319.56794539271255
  0
LINE
  8
_0-1_1_5
  6
CONTINUOUS
 62
    7
 10
22.315504884531379
 20
319.56794539271255
 11
18.8157008959395
 21
320.97417808244222
  0
LINE
  8
_0-1_1_5
  6
CONTINUOUS
 62
    7
 10
22.315504884531379
 20
306.91185118514505
 11
18.8157008959395
 21
308.3180838748745
  0
LINE
  8
_0-1_1_5
  6
CONTINUOUS
 62
    7
 10
22.315504884531379
 20
320.97417808244222
 11
18.8157008959395
 21
322.38041077217218
  0
LINE
  8
_0-1_1_5
  6
CONTINUOUS
 62
    7
 10
22.315504884531379
 20
323.78664346190186
 11
18.8157008959395
 21
325.19287615163171
  0
LINE
  8
_0-1_1_5
  6
CONTINUOUS
 62
    7
 10
22.315504884531379
 20
325.19287615163171
 11
18.8157008959395
 21
326.59910884136116
  0
LINE
  8
_0-1_1_5
  6
CONTINUOUS
 62
    7
 10
22.315504884531379
 20
322.38041077217218
 11
18.8157008959395
 21
323.78664346190186
  0
LINE
  8
_0-1_1_5
  6
CONTINUOUS
 62
    7
 10
22.315504884531379
 20
308.3180838748745
 11
18.8157008959395
 21
309.72431656460435
  0
LINE
  8
_0-1_1_5
  6
CONTINUOUS
 62
    7
 10
22.315504884531379
 20
297.07445504676633
 11
18.8157008959395
 21
298.48068773649607
  0
LINE
  8
_0-1_1_5
  6
CONTINUOUS
 62
    7
 10
22.315504884531379
 20
295.67445504676647
 11
18.8157008959395
 21
297.0806877364962
  0
LINE
  8
_0-1_1_5
  6
CONTINUOUS
 62
    7
 10
22.315504884531379
 20
294.27445504676649
 11
18.8157008959395
 21
295.68068773649605
  0
LINE
  8
_0-1_1_5
  6
CONTINUOUS
 62
    7
 10
22.315504884531379
 20
292.87445504676663
 11
18.8157008959395
 21
294.28068773649619
  0
LINE
  8
_0-1_1_5
  6
CENTER2
 62
    7
 10
22.315504884531379
 20
290.07445504676662
 11
18.8157008959395
 21
291.48068773649635
  0
LINE
  8
_0-1_1_5
  6
CENTER2
 62
    7
 10
22.315504884531379
 20
288.67445504676658
 11
18.8157008959395
 21
290.08068773649649
  0
LINE
  8
_0-1_1_5
  6
CENTER2
 62
    7
 10
20.447338377288702
 20
288.02509045975148
 11
18.8157008959395
 21
288.68068773649617
  0
LINE
  8
_0-1_1_5
  6
CENTER2
 62
    7
 10
17.182413143279263
 20
286.27499245404744
 11
18.932511148983338
 21
288.02509045975148
  0
LINE
  8
_0-1_1_5
  6
CENTER2
 62
    7
 10
24.182413143279291
 20
286.27499245404744
 11
22.432315137575216
 21
288.0250904597512
  0
LINE
  8
_0-1_1_5
  6
CENTER2
 62
    7
 10
18.932511148983338
 20
288.02509045975148
 11
22.432315137575216
 21
288.02509045975148
  0
LINE
  8
_0-1_1_5
  6
CENTER2
 62
    7
 10
34.682413143279405
 20
286.27499245404744
 11
6.682413143279291
 21
286.27499245404744
  0
LINE
  8
_0-1_1_5
  6
CENTER2
 62
    7
 10
6.682413143279291
 20
286.27499245404744
 11
6.682413143279291
 21
292.77499245404732
  0
LINE
  8
_0-1_1_5
  6
CENTER2
 62
    7
 10
34.682413143279405
 20
286.27499245404744
 11
34.682413143279405
 21
292.77499245404732
  0
LINE
  8
_0-1_1_5
  6
CONTINUOUS
 62
    7
 10
26.927411141677737
 20
467.86911629585882
 11
764.43741514488102
 21
467.86911629585882
  0
LINE
  8
_0-1_1_5
  6
CONTINUOUS
 62
    7
 10
26.927411141677737
 20
457.86911629585882
 11
764.43741514488102
 21
457.86911629585882
  0
LINE
  8
_0-2_ADD_LINE
  6
CONTINUOUS
 62
    7
 10
20.682413143279348
 20
519.47300119316969
 11
770.68241314327929
 21
519.47300119316969
  0
TEXT
  8
_0-2_ADD_LINE
 62
    4
 10
386.30741314327935
 20
521.97300119316969
 40
12.5
 41
1
 50
0
  1
750
  0
LINE
  8
_0-2_ADD_LINE
  6
CONTINUOUS
 62
    7
 10
-3.8175868567205384
 20
539.34912037466029
 11
795.18241314327952
 21
539.34912037466029
  0
TEXT
  8
_0-2_ADD_LINE
 62
    4
 10
386.30741314327952
 20
541.84912037466029
 40
12.5
 41
1
 50
0
  1
799
  0
LINE
  8
_0-1_1_5
  6
CONTINUOUS
 62
    7
 10
28.682413143279462
 20
238.77499245404735
 11
762.68241314327929
 21
238.77499245404726
  0
LINE
  8
_0-1_1_5
  6
CONTINUOUS
 62
    7
 10
28.682413143279462
 20
228.77499245404738
 11
762.68241314327929
 21
228.77499245404726
  0
TEXT
  8
_0-2_ADD_LINE
 62
    7
 10
916.14545169074688
 20
443.84167442176749
 40
15.270399999999999
 41
1
 50
90
  1
φ
  0
TEXT
  8
_0-2_ADD_LINE
 62
    4
 10
585.86216839677047
 20
241.62283737024217
 40
12.5
 41
1
 50
90
  1
φ
  0
TEXT
  8
_0-2_ADD_LINE
 62
    4
 10
1033.3088235294117
 20
365.69763468907524
 40
12.5
 41
1
 50
0
  1
タッピングビス
  0
TEXT
  8
_0-2_ADD_LINE
 62
    4
 10
1033.3088235294117
 20
346.65530648739536
 40
12.5
 41
1
 50
0
  1
3.5x35
  0
TEXT
  8
_0-3_
 62
    7
 10
804.83041738030101
 20
-104.51409794816072
 40
15.270385742187502
 41
1
 50
0
  1
TFP40-B175-003
  0
TEXT
  8
_0-3_
 62
    7
 10
337.91727686287811
 20
-135.47238338108698
 40
15.270385742187502
 41
1
 50
0
  1
ポリッシュ
  0
ENDSEC
  0
EOF
