  0
SECTION
  2
HEADER
  9
$ACADVER
  1
AC1009
  9
$INSBASE
 10
0
 20
0
 30
0
  9
$EXTMIN
 10
0
 20
0
  9
$EXTMAX
 10
1485
 20
1050
  9
$LIMMIN
 10
0
 20
0
  9
$LIMMAX
 10
1485
 20
1050
  9
$LTSCALE
 40
5
  0
ENDSEC
  0
SECTION
  2
TABLES
  0
TABLE
  2
LTYPE
 70
     9
  0
LTYPE
  2
CONTINUOUS
 70
    64
  3
実線
 72
    65
 73
     0
 40
0.0
  0
LTYPE
  2
DASHED1
 70
    64
  3
--  --  --  --  --  --  --  --  
 72
    65
 73
     2
 40
2.5
 49
1.25
 49
-1.25
  0
LTYPE
  2
DASHED2
 70
    64
  3
----    ----    ----    ----    
 72
    65
 73
     2
 40
5.0
 49
2.5
 49
-2.5
  0
LTYPE
  2
DASHED3
 70
    64
  3
------  ------  ------  ------  
 72
    65
 73
     2
 40
5.0
 49
3.75
 49
-1.25
  0
LTYPE
  2
CENTER1
 70
    64
  3
----- - ----- - ----- - ----- - 
 72
    65
 73
     4
 40
10.0
 49
6.25
 49
-1.25
 49
1.25
 49
-1.25
  0
LTYPE
  2
CENTER2
 70
    64
  3
----------  --  ----------  --  
 72
    65
 73
     4
 40
20.0
 49
12.5
 49
-2.5
 49
2.5
 49
-2.5
  0
LTYPE
  2
PHANTOM1
 70
    64
  3
--- - - --- - - --- - - --- - - 
 72
    65
 73
     6
 40
10.0
 49
3.25
 49
-1.25
 49
1.25
 49
-1.25
 49
1.25
 49
-1.25
  0
LTYPE
  2
PHANTOM2
 70
    64
  3
--------  -  -  --------  -  -  
 72
    65
 73
     6
 40
20.0
 49
10.0
 49
-2.5
 49
1.25
 49
-2.5
 49
1.25
 49
-2.5
  0
LTYPE
  2
DOT
 70
    64
  3
-   -   -   -   -   -   -   -   
 72
    65
 73
     2
 40
2.5
 49
0.625
 49
-1.875
  0
LTYPE
  2
DUMMY
 70
    64
  3
ダミー
 72
    65
 73
     0
 40
0.0
  0
LTYPE
  2
RAND1
 70
    64
  3
ランダム線1
 72
    65
 73
     4
 40
10.0
 49
1.0
 49
-2.0
 49
3.0
 49
-4.0
  0
LTYPE
  2
RAND2
 70
    64
  3
ランダム線2
 72
    65
 73
     4
 40
14.0
 49
2.0
 49
-3.0
 49
4.0
 49
-5.0
  0
LTYPE
  2
RAND3
 70
    64
  3
ランダム線3
 72
    65
 73
     4
 40
18.0
 49
3.0
 49
-4.0
 49
5.0
 49
-6.0
  0
LTYPE
  2
RAND4
 70
    64
  3
ランダム線4
 72
    65
 73
     4
 40
22.0
 49
4.0
 49
-5.0
 49
6.0
 49
-7.0
  0
LTYPE
  2
RAND5
 70
    64
  3
ランダム線5
 72
    65
 73
     4
 40
26.0
 49
5.0
 49
-6.0
 49
7.0
 49
-8.0
  0
LTYPE
  2
LONG1
 70
    64
  3
----------  --  ----------  --  
 72
    65
 73
     4
 40
40.0
 49
32.5
 49
-2.5
 49
2.5
 49
-2.5
  0
LTYPE
  2
LONG2
 70
    64
  3
--------  -  -  --------  -  -  
 72
    65
 73
     6
 40
40.0
 49
30.0
 49
-2.5
 49
1.25
 49
-2.5
 49
1.25
 49
-2.5
  0
LTYPE
  2
LONG3
 70
    64
  3
+++++++++++++++..+++++++++++++++
 72
    65
 73
     2
 40
40.0
 49
37.5
 49
-2.5
  0
LTYPE
  2
LONG4
 70
    64
  3
+++++++++++++++..+++++++++++++++
 72
    65
 73
     2
 40
80.0
 49
75.0
 49
-5.0
  0
LTYPE
  2
LONG5
 70
    64
  3
----------  --  ----------  --  
 72
    65
 73
     4
 40
60.0
 49
37.5
 49
-7.5
 49
7.5
 49
-7.5
  0
LTYPE
  2
dashed
 70
   64
  3
-------   -------------   ------
 72
   65
 73
    2
 40
7.5
 49
6
 49
-1.5
  0
LTYPE
  2
dashed_spaced
 70
   64
  3
----        --------        ----
 72
   65
 73
    2
 40
12
 49
6
 49
-6
  0
LTYPE
  2
long_dashed_dotted
 70
   64
  3
------------- --- --------------
 72
   65
 73
    4
 40
15.25
 49
12
 49
-1.5
 49
0.25
 49
-1.5
  0
LTYPE
  2
long_dashed_double-dotted
 70
   64
  3
----------- --- --- ------------
 72
   65
 73
    6
 40
17
 49
12
 49
-1.5
 49
0.25
 49
-1.5
 49
0.25
 49
-1.5
  0
LTYPE
  2
long_dashed_triplicate-dotted
 70
   64
  3
--------- --- --- --- ----------
 72
   65
 73
    8
 40
18.75
 49
12
 49
-1.5
 49
0.25
 49
-1.5
 49
0.25
 49
-1.5
 49
0.25
 49
-1.5
  0
LTYPE
  2
dotted
 70
   64
  3
   -       -       -       -    
 72
   65
 73
    2
 40
1.75
 49
0.25
 49
-1.5
  0
LTYPE
  2
chain
 70
   64
  3
-------------- -- --------------
 72
   65
 73
    4
 40
18.5
 49
12
 49
-1.5
 49
3.5
 49
-1.5
  0
LTYPE
  2
chain_double_dash
 70
   64
  3
------------ -- -- -------------
 72
   65
 73
    6
 40
23.5
 49
12
 49
-1.5
 49
3.5
 49
-1.5
 49
3.5
 49
-1.5
  0
LTYPE
  2
dashed_dotted
 70
   64
  3
-----------     -     ----------
 72
   65
 73
    4
 40
9.25
 49
6
 49
-1.5
 49
0.25
 49
-1.5
  0
LTYPE
  2
double-dashed_dotted
 70
   64
  3
------   -----------   -   -----
 72
   65
 73
    6
 40
16.75
 49
6
 49
-1.5
 49
6
 49
-1.5
 49
0.25
 49
-1.5
  0
LTYPE
  2
dashed_double-dotted
 70
   64
  3
---------    -    -    ---------
 72
   65
 73
    6
 40
11
 49
6
 49
-1.5
 49
0.25
 49
-1.5
 49
0.25
 49
-1.5
  0
LTYPE
  2
double-dashed_double-dotted
 70
   64
  3
-----   ---------   -   -   ----
 72
   65
 73
    8
 40
18.5
 49
6
 49
-1.5
 49
6
 49
-1.5
 49
0.25
 49
-1.5
 49
0.25
 49
-1.5
  0
LTYPE
  2
dashed_triplicate-dotted
 70
   64
  3
-------    -    -    -    ------
 72
   65
 73
    8
 40
12.75
 49
6
 49
-1.5
 49
0.25
 49
-1.5
 49
0.25
 49
-1.5
 49
0.25
 49
-1.5
  0
LTYPE
  2
double-dashed_triplicate-dotted
 70
   64
  3
-----  ---------  -  -  -  -----
 72
   65
 73
   10
 40
20.25
 49
6
 49
-1.5
 49
6
 49
-1.5
 49
0.25
 49
-1.5
 49
0.25
 49
-1.5
 49
0.25
 49
-1.5
  0
LTYPE
  2
undefined
 70
   64
  3
--------------------------------
 72
   65
 73
    0
 40
0
  0
LTYPE
  2
STYLE_01
 70
   64
  3
----        --------        ----
 72
   65
 73
    2
 40
0.4166399999999997
 49
0.2082799999999999
 49
-0.2083599999999999
  0
LTYPE
  2
STYLE_02
 70
   64
  3
------     -----------     -----
 72
   65
 73
    2
 40
0.694425
 49
0.48607
 49
-0.2083550000000001
  0
LTYPE
  2
STYLE_03
 70
   64
  3
-------   -------------   ------
 72
   65
 73
    2
 40
1.25
 49
1.0416400000000001
 49
-0.2083599999999999
  0
LTYPE
  2
STYLE_04
 70
   64
  3
-------  --------------  -------
 72
   65
 73
    2
 40
1.5277099999999999
 49
1.3194249999999998
 49
-0.208285
  0
LTYPE
  2
STYLE_05
 70
   64
  3
---           -----           --
 72
   65
 73
    2
 40
0.20828
 49
0.069425
 49
-0.138855
  0
LTYPE
  2
STYLE_06
 70
   64
  3
----------      --    ----------
 72
   65
 73
    4
 40
1.0416399999999999
 49
0.625
 49
-0.2082799999999999
 49
0.06943
 49
-0.13893
  0
LTYPE
  2
STYLE_07
 70
   64
  3
-----    -----------    -  -----
 72
   65
 73
    6
 40
1.8749999999999998
 49
0.625
 49
-0.2082799999999999
 49
0.6250000000000001
 49
-0.2083599999999999
 49
0.06943
 49
-0.1389299999999998
  0
LTYPE
  2
STYLE_08
 70
   64
  3
--------     --    --    -------
 72
   65
 73
    6
 40
1.2499999999999996
 49
0.625
 49
-0.2082799999999999
 49
0.06943
 49
-0.13893
 49
0.0694299999999997
 49
-0.13893
  0
LTYPE
  2
STYLE_09
 70
   64
  3
------------  ----  ------------
 72
   65
 73
    4
 40
5
 49
3.75
 49
-0.2777849999999997
 49
0.6944300000000003
 49
-0.2777849999999997
  0
LTYPE
  2
STYLE_10
 70
   64
  3
----------- ---- ---  ----------
 72
   65
 73
    6
 40
5.9375
 49
3.75
 49
-0.2777849999999997
 49
0.6944300000000003
 49
-0.2777849999999997
 49
0.625
 49
-0.3125
  0
ENDTAB
  0
TABLE
  2
STYLE
  5
3
100
AcDbSymbolTable
 70
     1
  0
STYLE
  5
10
100
AcDbSymbolTableRecord
100
AcDbTextStyleTableRecord
  2
STANDARD
 70
     0
 40
0.0
 41
1.0
 50
0.0
 71
     0
 42
0.2
  3
txt
  4
bigfont.shx
  0
STYLE
  5
26
100
AcDbSymbolTableRecord
100
AcDbTextStyleTableRecord
  2
TATEGAKI
 70
    68
 40
0.0
 41
1.0
 50
0.0
 71
     0
 42
1.0
  3
txt
  4
bigfont.shx
  0
ENDTAB
  0
TABLE
  2
LAYER
 70
    5
  0
LAYER
  2
_0-0_0
 70
   64
 62
    7
  6
CONTINUOUS
  0
LAYER
  2
_0-1_1_5
 70
   64
 62
    7
  6
CONTINUOUS
  0
LAYER
  2
_0-2_ADD_LINE
 70
   64
 62
    7
  6
CONTINUOUS
  0
LAYER
  2
_0-3_
 70
   64
 62
    7
  6
CONTINUOUS
  0
LAYER
  2
ADD_LINE
 70
   64
 62
    7
  6
CONTINUOUS
  0
ENDTAB
  0
ENDSEC
  0
SECTION
  2
BLOCKS
  0
ENDSEC
  0
SECTION
  2
ENTITIES
  0
LINE
  8
_0-2_ADD_LINE
  6
CONTINUOUS
 62
    7
 10
648.19974984049691
 20
301.34574202298904
 11
648.19974984049691
 21
251.35469487274847
  0
LINE
  8
_0-2_ADD_LINE
  6
CONTINUOUS
 62
    7
 10
648.19974984049725
 20
539.34912037466029
 11
648.19974984049725
 21
477.86911629585882
  0
TEXT
  8
_0-3_
 62
    7
 10
337.91727686287811
 20
-165.72561040232628
 40
15.270385742187502
 41
1
 50
0
  1
ステンレススチール
  0
LINE
  8
_0-0_0
  6
CONTINUOUS
 62
    7
 10
-217.54976684701688
 20
839.39842520894683
 11
-217.54976684701688
 21
-210.60157479105314
  0
LINE
  8
_0-0_0
  6
CONTINUOUS
 62
    7
 10
-217.54976684701688
 20
-210.60157479105314
 11
1267.4502331529832
 21
-210.60157479105328
  0
LINE
  8
_0-0_0
  6
CONTINUOUS
 62
    7
 10
1267.4502331529832
 20
-210.60157479105328
 11
1267.4502331529832
 21
839.39842520894672
  0
LINE
  8
_0-0_0
  6
CONTINUOUS
 62
    7
 10
1267.4502331529832
 20
839.39842520894672
 11
-217.54976684701688
 21
839.39842520894683
  0
TEXT
  8
_0-3_
 62
    7
 10
303.1435361858484
 20
-157.2512975909325
 40
10
 41
1
 50
0
  1
材質
  0
TEXT
  8
_0-3_
 62
    7
 10
303.1435361858484
 20
-126.04446365427265
 40
10
 41
1
 50
0
  1
仕上げ
  0
TEXT
  8
_0-3_
 62
    7
 10
303.1435361858484
 20
-96.397971414445891
 40
10
 41
1
 50
0
  1
品名
  0
LINE
  8
_0-3_
  6
CONTINUOUS
 62
    7
 10
763.33333330012067
 20
-172.00135367935019
 11
763.33333330012067
 21
-82.001353679350046
  0
LINE
  8
_0-3_
  6
CONTINUOUS
 62
    7
 10
1230.0000000001207
 20
-82.001353679350046
 11
295.76393721191187
 21
-82.001353679350046
  0
LINE
  8
_0-3_
  6
CONTINUOUS
 62
    7
 10
1230.0000000001207
 20
-112.00135367935005
 11
295.76393721191187
 21
-112.00135367935005
  0
LINE
  8
_0-3_
  6
CONTINUOUS
 62
    7
 10
1230.0000000001207
 20
-142.00135367935005
 11
295.76393721191187
 21
-142.00135367935005
  0
LINE
  8
_0-3_
  6
CONTINUOUS
 62
    7
 10
295.76393721191187
 20
-172.00135367935005
 11
295.76393721191187
 21
-82.001353679350046
  0
TEXT
  8
_0-3_
 62
    7
 10
769.76611673267166
 20
-97.65079861352163
 40
10
 41
1
 50
0
  1
品番
  0
TEXT
  8
_0-3_
 62
    7
 10
769.76611673267166
 20
-126.84760541025184
 40
10
 41
1
 50
0
  1
縮尺
  0
TEXT
  8
_0-3_
 62
    7
 10
805.64122881175172
 20
-135.00091580972281
 40
15.270385742187502
 41
1
 50
0
  1
1/5
  0
TEXT
  8
_0-3_
 62
    7
 10
-167.22023496641157
 20
-191.8129578821069
 40
12.5
 41
1
 50
0
  1
120718SH
  0
LINE
  8
_0-3_
  6
CONTINUOUS
 62
    7
 10
-169.99999999987921
 20
802.99864632065021
 11
-169.99999999987921
 21
-172.00135367935005
  0
LINE
  8
_0-3_
  6
CONTINUOUS
 62
    7
 10
-169.99999999987921
 20
-172.00135367935005
 11
1230.0000000001207
 21
-172.00135367935019
  0
LINE
  8
_0-3_
  6
CONTINUOUS
 62
    7
 10
1230.0000000001207
 20
-172.00135367935019
 11
1230.0000000001207
 21
802.9986463206501
  0
LINE
  8
_0-3_
  6
CONTINUOUS
 62
    7
 10
1230.0000000001207
 20
802.9986463206501
 11
-169.99999999987921
 21
802.99864632065021
  0
TEXT
  8
_0-3_
 62
    7
 10
804.6090696281932
 20
-167.49214973604637
 40
15.5
 41
1
 50
0
  1
大洋金物株式会社  ティーエフプラス事業部
  0
TEXT
  8
_0-3_
 62
    7
 10
337.91727686287811
 20
-135.47238338108698
 40
15.270385742187502
 41
1
 50
0
  1
サテン
  0
POINT
  8
_0-2_ADD_LINE
 62
    7
 10
623.19974984049713
 20
519.47300119316969
  0
LINE
  8
_0-2_ADD_LINE
  6
CONTINUOUS
 62
    7
 10
623.19974984049713
 20
519.47300119316969
 11
623.19974984049713
 21
497.36911629585882
  0
CIRCLE
  8
_0-1_1_5
  6
CONTINUOUS
 62
    7
 10
623.19974984049713
 20
462.86911629585882
 40
8
  0
LINE
  8
_0-1_1_5
  6
CENTER2
 62
    7
 10
618.19974984049713
 20
472.7632261036311
 11
628.19974984049713
 21
472.7632261036311
  0
LINE
  8
_0-1_1_5
  6
CENTER2
 62
    7
 10
623.19974984049713
 20
476.7632261036311
 11
623.19974984049713
 21
468.7632261036311
  0
LINE
  8
_0-1_1_5
  6
CENTER2
 62
    7
 10
619.19974984049713
 20
472.7632261036311
 11
619.19974984049713
 21
472.7632261036311
  0
LINE
  8
_0-1_1_5
  6
CENTER2
 62
    7
 10
619.19974984049713
 20
472.7632261036311
 11
619.26051882844831
 21
472.20755193509694
  0
LINE
  8
_0-1_1_5
  6
CENTER2
 62
    7
 10
619.26051882844831
 20
472.20755193509694
 11
619.44097935735351
 21
471.66876164498893
  0
LINE
  8
_0-1_1_5
  6
CENTER2
 62
    7
 10
619.44097935735351
 20
471.66876164498893
 11
619.73564822535934
 21
471.16322610363108
  0
LINE
  8
_0-1_1_5
  6
CENTER2
 62
    7
 10
619.73564822535934
 20
471.16322610363108
 11
620.13557206802125
 21
470.70630575263419
  0
LINE
  8
_0-1_1_5
  6
CENTER2
 62
    7
 10
620.13557206802125
 20
470.70630575263419
 11
620.62859940175099
 21
470.31188388565039
  0
LINE
  8
_0-1_1_5
  6
CENTER2
 62
    7
 10
620.62859940175099
 20
470.31188388565039
 11
621.19974984049713
 21
469.99194481152091
  0
LINE
  8
_0-1_1_5
  6
CENTER2
 62
    7
 10
621.19974984049713
 20
469.99194481152091
 11
621.83166926719446
 21
469.75620971711618
  0
LINE
  8
_0-1_1_5
  6
CENTER2
 62
    7
 10
621.83166926719446
 20
469.75620971711618
 11
622.5051571298294
 21
469.61184129399203
  0
LINE
  8
_0-1_1_5
  6
CENTER2
 62
    7
 10
622.5051571298294
 20
469.61184129399203
 11
623.19974984049713
 21
469.56322610363111
  0
LINE
  8
_0-1_1_5
  6
CENTER2
 62
    7
 10
623.19974984049713
 20
469.56322610363111
 11
623.89434255116487
 21
469.61184129399203
  0
LINE
  8
_0-1_1_5
  6
CENTER2
 62
    7
 10
623.89434255116487
 20
469.61184129399203
 11
624.56783041379981
 21
469.75620971711618
  0
LINE
  8
_0-1_1_5
  6
CENTER2
 62
    7
 10
624.56783041379981
 20
469.75620971711618
 11
625.19974984049713
 21
469.99194481152091
  0
LINE
  8
_0-1_1_5
  6
CENTER2
 62
    7
 10
625.19974984049713
 20
469.99194481152091
 11
625.77090027924328
 21
470.31188388565039
  0
LINE
  8
_0-1_1_5
  6
CENTER2
 62
    7
 10
625.77090027924328
 20
470.31188388565039
 11
626.26392761297302
 21
470.70630575263419
  0
LINE
  8
_0-1_1_5
  6
CENTER2
 62
    7
 10
626.26392761297302
 20
470.70630575263419
 11
626.66385145563493
 21
471.16322610363108
  0
LINE
  8
_0-1_1_5
  6
CENTER2
 62
    7
 10
626.66385145563493
 20
471.16322610363108
 11
626.95852032364076
 21
471.66876164498893
  0
LINE
  8
_0-1_1_5
  6
CENTER2
 62
    7
 10
626.95852032364076
 20
471.66876164498893
 11
627.13898085254596
 21
472.20755193509694
  0
LINE
  8
_0-1_1_5
  6
CENTER2
 62
    7
 10
627.13898085254596
 20
472.20755193509694
 11
627.19974984049713
 21
472.7632261036311
  0
LINE
  8
_0-1_1_5
  6
CENTER2
 62
    7
 10
627.19974984049713
 20
472.7632261036311
 11
627.13898085254596
 21
473.31890027216525
  0
LINE
  8
_0-1_1_5
  6
CENTER2
 62
    7
 10
627.13898085254596
 20
473.31890027216525
 11
626.95852032364076
 21
473.85769056227321
  0
LINE
  8
_0-1_1_5
  6
CENTER2
 62
    7
 10
626.95852032364076
 20
473.85769056227321
 11
626.66385145563493
 21
474.36322610363106
  0
LINE
  8
_0-1_1_5
  6
CENTER2
 62
    7
 10
626.66385145563493
 20
474.36322610363106
 11
626.26392761297302
 21
474.820146454628
  0
LINE
  8
_0-1_1_5
  6
CENTER2
 62
    7
 10
626.26392761297302
 20
474.820146454628
 11
625.77090027924328
 21
475.21456832161181
  0
LINE
  8
_0-1_1_5
  6
CENTER2
 62
    7
 10
625.77090027924328
 20
475.21456832161181
 11
625.19974984049713
 21
475.53450739574129
  0
LINE
  8
_0-1_1_5
  6
CENTER2
 62
    7
 10
625.19974984049713
 20
475.53450739574129
 11
624.56783041379981
 21
475.77024249014602
  0
LINE
  8
_0-1_1_5
  6
CENTER2
 62
    7
 10
624.56783041379981
 20
475.77024249014602
 11
623.89434255116487
 21
475.91461091327017
  0
LINE
  8
_0-1_1_5
  6
CENTER2
 62
    7
 10
623.89434255116487
 20
475.91461091327017
 11
623.19974984049713
 21
475.96322610363109
  0
LINE
  8
_0-1_1_5
  6
CENTER2
 62
    7
 10
623.19974984049713
 20
475.96322610363109
 11
622.5051571298294
 21
475.91461091327017
  0
LINE
  8
_0-1_1_5
  6
CENTER2
 62
    7
 10
622.5051571298294
 20
475.91461091327017
 11
621.83166926719446
 21
475.77024249014602
  0
LINE
  8
_0-1_1_5
  6
CENTER2
 62
    7
 10
621.83166926719446
 20
475.77024249014602
 11
621.19974984049713
 21
475.53450739574129
  0
LINE
  8
_0-1_1_5
  6
CENTER2
 62
    7
 10
621.19974984049713
 20
475.53450739574129
 11
620.62859940175099
 21
475.21456832161186
  0
LINE
  8
_0-1_1_5
  6
CENTER2
 62
    7
 10
620.62859940175099
 20
475.21456832161186
 11
620.13557206802125
 21
474.82014645462806
  0
LINE
  8
_0-1_1_5
  6
CENTER2
 62
    7
 10
620.13557206802125
 20
474.82014645462806
 11
619.73564822535934
 21
474.36322610363112
  0
LINE
  8
_0-1_1_5
  6
CENTER2
 62
    7
 10
619.73564822535934
 20
474.36322610363112
 11
619.44097935735351
 21
473.85769056227326
  0
LINE
  8
_0-1_1_5
  6
CENTER2
 62
    7
 10
619.44097935735351
 20
473.85769056227326
 11
619.26051882844831
 21
473.31890027216531
  0
LINE
  8
_0-1_1_5
  6
CENTER2
 62
    7
 10
619.26051882844831
 20
473.31890027216531
 11
619.19974984049713
 21
472.7632261036311
  0
LINE
  8
_0-1_1_5
  6
CENTER2
 62
    7
 10
619.19974984049713
 20
472.7632261036311
 11
619.19974984049713
 21
472.7632261036311
  0
LINE
  8
_0-1_1_5
  6
CENTER2
 62
    7
 10
619.19974984049713
 20
452.97500648808648
 11
619.19974984049713
 21
452.97500648808648
  0
LINE
  8
_0-1_1_5
  6
CENTER2
 62
    7
 10
619.19974984049713
 20
452.97500648808648
 11
619.26051882844831
 21
452.41933231955232
  0
LINE
  8
_0-1_1_5
  6
CENTER2
 62
    7
 10
619.26051882844831
 20
452.41933231955232
 11
619.44097935735351
 21
451.88054202944431
  0
LINE
  8
_0-1_1_5
  6
CENTER2
 62
    7
 10
619.44097935735351
 20
451.88054202944431
 11
619.73564822535934
 21
451.37500648808646
  0
LINE
  8
_0-1_1_5
  6
CENTER2
 62
    7
 10
619.73564822535934
 20
451.37500648808646
 11
620.13557206802125
 21
450.91808613708957
  0
LINE
  8
_0-1_1_5
  6
CENTER2
 62
    7
 10
620.13557206802125
 20
450.91808613708957
 11
620.62859940175099
 21
450.52366427010577
  0
LINE
  8
_0-1_1_5
  6
CENTER2
 62
    7
 10
620.62859940175099
 20
450.52366427010577
 11
621.19974984049713
 21
450.20372519597629
  0
LINE
  8
_0-1_1_5
  6
CENTER2
 62
    7
 10
621.19974984049713
 20
450.20372519597629
 11
621.83166926719446
 21
449.96799010157156
  0
LINE
  8
_0-1_1_5
  6
CENTER2
 62
    7
 10
621.83166926719446
 20
449.96799010157156
 11
622.5051571298294
 21
449.82362167844741
  0
LINE
  8
_0-1_1_5
  6
CENTER2
 62
    7
 10
622.5051571298294
 20
449.82362167844741
 11
623.19974984049713
 21
449.77500648808649
  0
LINE
  8
_0-1_1_5
  6
CENTER2
 62
    7
 10
623.19974984049713
 20
449.77500648808649
 11
623.89434255116487
 21
449.82362167844741
  0
LINE
  8
_0-1_1_5
  6
CENTER2
 62
    7
 10
623.89434255116487
 20
449.82362167844741
 11
624.56783041379981
 21
449.96799010157156
  0
LINE
  8
_0-1_1_5
  6
CENTER2
 62
    7
 10
624.56783041379981
 20
449.96799010157156
 11
625.19974984049713
 21
450.20372519597629
  0
LINE
  8
_0-1_1_5
  6
CENTER2
 62
    7
 10
625.19974984049713
 20
450.20372519597629
 11
625.77090027924328
 21
450.52366427010577
  0
LINE
  8
_0-1_1_5
  6
CENTER2
 62
    7
 10
625.77090027924328
 20
450.52366427010577
 11
626.26392761297302
 21
450.91808613708957
  0
LINE
  8
_0-1_1_5
  6
CENTER2
 62
    7
 10
626.26392761297302
 20
450.91808613708957
 11
626.66385145563493
 21
451.37500648808646
  0
LINE
  8
_0-1_1_5
  6
CENTER2
 62
    7
 10
626.66385145563493
 20
451.37500648808646
 11
626.95852032364076
 21
451.88054202944431
  0
LINE
  8
_0-1_1_5
  6
CENTER2
 62
    7
 10
626.95852032364076
 20
451.88054202944431
 11
627.13898085254596
 21
452.41933231955232
  0
LINE
  8
_0-1_1_5
  6
CENTER2
 62
    7
 10
627.13898085254596
 20
452.41933231955232
 11
627.19974984049713
 21
452.97500648808648
  0
LINE
  8
_0-1_1_5
  6
CENTER2
 62
    7
 10
627.19974984049713
 20
452.97500648808648
 11
627.13898085254596
 21
453.53068065662063
  0
LINE
  8
_0-1_1_5
  6
CENTER2
 62
    7
 10
627.13898085254596
 20
453.53068065662063
 11
626.95852032364076
 21
454.06947094672859
  0
LINE
  8
_0-1_1_5
  6
CENTER2
 62
    7
 10
626.95852032364076
 20
454.06947094672859
 11
626.66385145563493
 21
454.57500648808644
  0
LINE
  8
_0-1_1_5
  6
CENTER2
 62
    7
 10
626.66385145563493
 20
454.57500648808644
 11
626.26392761297302
 21
455.03192683908338
  0
LINE
  8
_0-1_1_5
  6
CENTER2
 62
    7
 10
626.26392761297302
 20
455.03192683908338
 11
625.77090027924328
 21
455.42634870606719
  0
LINE
  8
_0-1_1_5
  6
CENTER2
 62
    7
 10
625.77090027924328
 20
455.42634870606719
 11
625.19974984049713
 21
455.74628778019667
  0
LINE
  8
_0-1_1_5
  6
CENTER2
 62
    7
 10
625.19974984049713
 20
455.74628778019667
 11
624.56783041379981
 21
455.9820228746014
  0
LINE
  8
_0-1_1_5
  6
CENTER2
 62
    7
 10
624.56783041379981
 20
455.9820228746014
 11
623.89434255116487
 21
456.12639129772555
  0
LINE
  8
_0-1_1_5
  6
CENTER2
 62
    7
 10
623.89434255116487
 20
456.12639129772555
 11
623.19974984049713
 21
456.17500648808647
  0
LINE
  8
_0-1_1_5
  6
CENTER2
 62
    7
 10
623.19974984049713
 20
456.17500648808647
 11
622.5051571298294
 21
456.12639129772555
  0
LINE
  8
_0-1_1_5
  6
CENTER2
 62
    7
 10
622.5051571298294
 20
456.12639129772555
 11
621.83166926719446
 21
455.9820228746014
  0
LINE
  8
_0-1_1_5
  6
CENTER2
 62
    7
 10
621.83166926719446
 20
455.9820228746014
 11
621.19974984049713
 21
455.74628778019667
  0
LINE
  8
_0-1_1_5
  6
CENTER2
 62
    7
 10
621.19974984049713
 20
455.74628778019667
 11
620.62859940175099
 21
455.42634870606719
  0
LINE
  8
_0-1_1_5
  6
CENTER2
 62
    7
 10
620.62859940175099
 20
455.42634870606719
 11
620.13557206802125
 21
455.03192683908344
  0
LINE
  8
_0-1_1_5
  6
CENTER2
 62
    7
 10
620.13557206802125
 20
455.03192683908344
 11
619.73564822535934
 21
454.5750064880865
  0
LINE
  8
_0-1_1_5
  6
CENTER2
 62
    7
 10
619.73564822535934
 20
454.5750064880865
 11
619.44097935735351
 21
454.06947094672864
  0
LINE
  8
_0-1_1_5
  6
CENTER2
 62
    7
 10
619.44097935735351
 20
454.06947094672864
 11
619.26051882844831
 21
453.53068065662069
  0
LINE
  8
_0-1_1_5
  6
CENTER2
 62
    7
 10
619.26051882844831
 20
453.53068065662069
 11
619.19974984049713
 21
452.97500648808648
  0
LINE
  8
_0-1_1_5
  6
CENTER2
 62
    7
 10
619.19974984049713
 20
452.97500648808648
 11
619.19974984049713
 21
452.97500648808648
  0
LINE
  8
_0-1_1_5
  6
CENTER2
 62
    7
 10
618.19974984049713
 20
452.97500648808648
 11
628.19974984049713
 21
452.97500648808648
  0
LINE
  8
_0-1_1_5
  6
CENTER2
 62
    7
 10
623.19974984049713
 20
448.97500648808654
 11
623.19974984049713
 21
456.97500648808648
  0
LINE
  8
_0-1_1_5
  6
CENTER2
 62
    7
 10
612.19974984049713
 20
482.86911629585882
 11
634.19974984049702
 21
482.86911629585882
  0
LINE
  8
_0-1_1_5
  6
CENTER2
 62
    7
 10
634.19974984049702
 20
482.86911629585882
 11
637.19974984049713
 21
479.86911629585882
  0
LINE
  8
_0-1_1_5
  6
CENTER2
 62
    7
 10
637.19974984049713
 20
445.86911629585876
 11
637.19974984049713
 21
479.86911629585882
  0
LINE
  8
_0-1_1_5
  6
CENTER2
 62
    7
 10
637.19974984049713
 20
445.86911629585876
 11
634.19974984049702
 21
442.86911629585882
  0
LINE
  8
_0-1_1_5
  6
CENTER2
 62
    7
 10
612.19974984049713
 20
442.86911629585882
 11
634.19974984049702
 21
442.86911629585882
  0
LINE
  8
_0-1_1_5
  6
CENTER2
 62
    7
 10
612.19974984049713
 20
442.86911629585882
 11
609.19974984049702
 21
445.86911629585876
  0
LINE
  8
_0-1_1_5
  6
CENTER2
 62
    7
 10
609.19974984049702
 20
479.86911629585882
 11
609.19974984049702
 21
445.86911629585876
  0
LINE
  8
_0-1_1_5
  6
CENTER2
 62
    7
 10
609.19974984049702
 20
479.86911629585882
 11
612.19974984049713
 21
482.86911629585882
  0
POINT
  8
_0-2_ADD_LINE
 62
    7
 10
679.44211621578006
 20
241.35469487274847
  0
LINE
  8
_0-1_1_5
  6
CENTER2
 62
    7
 10
609.19974984049702
 20
234.8546948727485
 11
609.19974984049702
 21
241.35469487274838
  0
LINE
  8
_0-1_1_5
  6
STYLE_01
 62
    7
 10
624.83284158174911
 20
238.65415746546768
 11
621.3330375931572
 21
240.06039015519733
  0
LINE
  8
_0-1_1_5
  6
STYLE_01
 62
    7
 10
624.83284158174911
 20
237.25415746546759
 11
621.3330375931572
 21
238.66039015519746
  0
LINE
  8
_0-1_1_5
  6
STYLE_01
 62
    7
 10
622.96467507450643
 20
236.60479287845249
 11
621.3330375931572
 21
237.26039015519717
  0
LINE
  8
_0-1_1_5
  6
STYLE_01
 62
    7
 10
619.69974984049702
 20
234.85469487274841
 11
621.44984784620101
 21
236.60479287845249
  0
LINE
  8
_0-1_1_5
  6
STYLE_01
 62
    7
 10
626.69974984049702
 20
234.85469487274841
 11
624.94965183479292
 21
236.60479287845226
  0
LINE
  8
_0-1_1_5
  6
CONTINUOUS
 62
    7
 10
623.19974984049713
 20
280.80374201898132
 11
621.44984784620101
 21
275.17881126006216
  0
LINE
  8
_0-1_1_5
  6
CONTINUOUS
 62
    7
 10
623.19974984049713
 20
280.80374201898132
 11
624.94965183479292
 21
275.17881126006216
  0
LINE
  8
_0-1_1_5
  6
CONTINUOUS
 62
    7
 10
624.94965183479292
 20
236.60479287845226
 11
624.94965183479292
 21
275.17881126006216
  0
LINE
  8
_0-1_1_5
  6
CONTINUOUS
 62
    7
 10
621.44984784620101
 20
236.64161515537913
 11
621.44984784620101
 21
275.17825733141433
  0
LINE
  8
_0-1_1_5
  6
STYLE_01
 62
    7
 10
621.44984784620101
 20
236.60479287845249
 11
624.94965183479292
 21
236.60479287845249
  0
LINE
  8
_0-1_1_5
  6
CONTINUOUS
 62
    7
 10
624.83284158174911
 20
247.05415746546748
 11
621.3330375931572
 21
248.46039015519693
  0
LINE
  8
_0-1_1_5
  6
CONTINUOUS
 62
    7
 10
624.83284158174911
 20
248.46039015519693
 11
621.3330375931572
 21
249.86662284492709
  0
LINE
  8
_0-1_1_5
  6
CONTINUOUS
 62
    7
 10
624.83284158174911
 20
249.86662284492709
 11
621.3330375931572
 21
251.27285553465654
  0
LINE
  8
_0-1_1_5
  6
CONTINUOUS
 62
    7
 10
624.83284158174911
 20
251.27285553465654
 11
621.3330375931572
 21
252.67908822438642
  0
LINE
  8
_0-1_1_5
  6
CONTINUOUS
 62
    7
 10
624.83284158174911
 20
252.67908822438642
 11
621.3330375931572
 21
254.08532091411587
  0
LINE
  8
_0-1_1_5
  6
CONTINUOUS
 62
    7
 10
624.83284158174911
 20
254.08532091411587
 11
621.3330375931572
 21
255.49155360384603
  0
LINE
  8
_0-1_1_5
  6
CONTINUOUS
 62
    7
 10
624.83284158174911
 20
259.71025167303532
 11
621.3330375931572
 21
261.11648436276494
  0
LINE
  8
_0-1_1_5
  6
CONTINUOUS
 62
    7
 10
624.83284158174911
 20
258.30401898330535
 11
621.3330375931572
 21
259.71025167303532
  0
LINE
  8
_0-1_1_5
  6
CONTINUOUS
 62
    7
 10
624.83284158174911
 20
261.11648436276494
 11
621.3330375931572
 21
262.52271705249461
  0
LINE
  8
_0-1_1_5
  6
CONTINUOUS
 62
    7
 10
624.83284158174911
 20
262.52271705249461
 11
621.3330375931572
 21
263.92894974222429
  0
LINE
  8
_0-1_1_5
  6
CONTINUOUS
 62
    7
 10
624.83284158174911
 20
263.92894974222429
 11
621.3330375931572
 21
265.33518243195397
  0
LINE
  8
_0-1_1_5
  6
CONTINUOUS
 62
    7
 10
624.83284158174911
 20
265.33518243195397
 11
621.3330375931572
 21
266.74141512168387
  0
LINE
  8
_0-1_1_5
  6
CONTINUOUS
 62
    7
 10
624.83284158174911
 20
266.74141512168387
 11
621.3330375931572
 21
268.14764781141355
  0
LINE
  8
_0-1_1_5
  6
CONTINUOUS
 62
    7
 10
624.83284158174911
 20
268.14764781141355
 11
621.3330375931572
 21
269.55388050114323
  0
LINE
  8
_0-1_1_5
  6
CONTINUOUS
 62
    7
 10
624.83284158174911
 20
255.49155360384603
 11
621.3330375931572
 21
256.89778629357545
  0
LINE
  8
_0-1_1_5
  6
CONTINUOUS
 62
    7
 10
624.83284158174911
 20
269.55388050114323
 11
621.3330375931572
 21
270.96011319087319
  0
LINE
  8
_0-1_1_5
  6
CONTINUOUS
 62
    7
 10
624.83284158174911
 20
272.36634588060281
 11
621.3330375931572
 21
273.77257857033271
  0
LINE
  8
_0-1_1_5
  6
CONTINUOUS
 62
    7
 10
624.83284158174911
 20
273.77257857033271
 11
621.3330375931572
 21
275.17881126006216
  0
LINE
  8
_0-1_1_5
  6
CONTINUOUS
 62
    7
 10
624.83284158174911
 20
270.96011319087319
 11
621.3330375931572
 21
272.36634588060281
  0
LINE
  8
_0-1_1_5
  6
CONTINUOUS
 62
    7
 10
624.83284158174911
 20
256.89778629357545
 11
621.3330375931572
 21
258.30401898330535
  0
LINE
  8
_0-1_1_5
  6
CONTINUOUS
 62
    7
 10
624.83284158174911
 20
245.65415746546739
 11
621.3330375931572
 21
247.06039015519707
  0
LINE
  8
_0-1_1_5
  6
CONTINUOUS
 62
    7
 10
624.83284158174911
 20
244.25415746546753
 11
621.3330375931572
 21
245.66039015519721
  0
LINE
  8
_0-1_1_5
  6
CONTINUOUS
 62
    7
 10
624.83284158174911
 20
242.85415746546747
 11
621.3330375931572
 21
244.26039015519711
  0
LINE
  8
_0-1_1_5
  6
CONTINUOUS
 62
    7
 10
624.83284158174911
 20
241.4541574654676
 11
621.3330375931572
 21
242.86039015519725
  0
LINE
  8
_0-1_1_5
  6
CENTER2
 62
    7
 10
637.19974984049713
 20
234.8546948727485
 11
609.19974984049702
 21
234.8546948727485
  0
LINE
  8
_0-1_1_5
  6
CENTER2
 62
    7
 10
637.19974984049713
 20
234.8546948727485
 11
637.19974984049713
 21
241.35469487274838
  0
CIRCLE
  8
_0-1_1_5
  6
CONTINUOUS
 62
    7
 10
173.19974984049708
 20
462.86911629585882
 40
8
  0
POINT
  8
_0-2_ADD_LINE
 62
    7
 10
173.19974984049708
 20
519.47300119316969
  0
LINE
  8
_0-2_ADD_LINE
  6
CONTINUOUS
 62
    7
 10
173.19974984049708
 20
519.47300119316969
 11
173.19974984049708
 21
497.47300119316969
  0
LINE
  8
_0-1_1_5
  6
CENTER2
 62
    7
 10
178.19974984049708
 20
472.7632261036311
 11
168.19974984049708
 21
472.7632261036311
  0
LINE
  8
_0-1_1_5
  6
CENTER2
 62
    7
 10
173.19974984049708
 20
476.7632261036311
 11
173.19974984049708
 21
468.7632261036311
  0
LINE
  8
_0-1_1_5
  6
CENTER2
 62
    7
 10
177.19974984049708
 20
472.7632261036311
 11
177.19974984049708
 21
472.7632261036311
  0
LINE
  8
_0-1_1_5
  6
CENTER2
 62
    7
 10
177.19974984049708
 20
472.7632261036311
 11
177.1389808525459
 21
473.31890027216525
  0
LINE
  8
_0-1_1_5
  6
CENTER2
 62
    7
 10
177.1389808525459
 20
473.31890027216525
 11
176.9585203236407
 21
473.85769056227326
  0
LINE
  8
_0-1_1_5
  6
CENTER2
 62
    7
 10
176.9585203236407
 20
473.85769056227326
 11
176.66385145563484
 21
474.36322610363112
  0
LINE
  8
_0-1_1_5
  6
CENTER2
 62
    7
 10
176.66385145563484
 20
474.36322610363112
 11
176.26392761297299
 21
474.820146454628
  0
LINE
  8
_0-1_1_5
  6
CENTER2
 62
    7
 10
176.26392761297299
 20
474.820146454628
 11
175.77090027924322
 21
475.21456832161181
  0
LINE
  8
_0-1_1_5
  6
CENTER2
 62
    7
 10
175.77090027924322
 20
475.21456832161181
 11
175.19974984049708
 21
475.53450739574129
  0
LINE
  8
_0-1_1_5
  6
CENTER2
 62
    7
 10
175.19974984049708
 20
475.53450739574129
 11
174.56783041379975
 21
475.77024249014602
  0
LINE
  8
_0-1_1_5
  6
CENTER2
 62
    7
 10
174.56783041379975
 20
475.77024249014602
 11
173.89434255116481
 21
475.91461091327017
  0
LINE
  8
_0-1_1_5
  6
CENTER2
 62
    7
 10
173.89434255116481
 20
475.91461091327017
 11
173.19974984049708
 21
475.96322610363109
  0
LINE
  8
_0-1_1_5
  6
CENTER2
 62
    7
 10
173.19974984049708
 20
475.96322610363109
 11
172.50515712982934
 21
475.91461091327017
  0
LINE
  8
_0-1_1_5
  6
CENTER2
 62
    7
 10
172.50515712982934
 20
475.91461091327017
 11
171.8316692671944
 21
475.77024249014602
  0
LINE
  8
_0-1_1_5
  6
CENTER2
 62
    7
 10
171.8316692671944
 20
475.77024249014602
 11
171.19974984049708
 21
475.53450739574129
  0
LINE
  8
_0-1_1_5
  6
CENTER2
 62
    7
 10
171.19974984049708
 20
475.53450739574129
 11
170.62859940175093
 21
475.21456832161181
  0
LINE
  8
_0-1_1_5
  6
CENTER2
 62
    7
 10
170.62859940175093
 20
475.21456832161181
 11
170.13557206802116
 21
474.820146454628
  0
LINE
  8
_0-1_1_5
  6
CENTER2
 62
    7
 10
170.13557206802116
 20
474.820146454628
 11
169.73564822535931
 21
474.36322610363112
  0
LINE
  8
_0-1_1_5
  6
CENTER2
 62
    7
 10
169.73564822535931
 20
474.36322610363112
 11
169.44097935735346
 21
473.85769056227326
  0
LINE
  8
_0-1_1_5
  6
CENTER2
 62
    7
 10
169.44097935735346
 20
473.85769056227326
 11
169.26051882844826
 21
473.31890027216525
  0
LINE
  8
_0-1_1_5
  6
CENTER2
 62
    7
 10
169.26051882844826
 20
473.31890027216525
 11
169.19974984049708
 21
472.7632261036311
  0
LINE
  8
_0-1_1_5
  6
CENTER2
 62
    7
 10
169.19974984049708
 20
472.7632261036311
 11
169.26051882844826
 21
472.20755193509694
  0
LINE
  8
_0-1_1_5
  6
CENTER2
 62
    7
 10
169.26051882844826
 20
472.20755193509694
 11
169.44097935735343
 21
471.66876164498899
  0
LINE
  8
_0-1_1_5
  6
CENTER2
 62
    7
 10
169.44097935735343
 20
471.66876164498899
 11
169.73564822535931
 21
471.16322610363113
  0
LINE
  8
_0-1_1_5
  6
CENTER2
 62
    7
 10
169.73564822535931
 20
471.16322610363113
 11
170.13557206802116
 21
470.70630575263419
  0
LINE
  8
_0-1_1_5
  6
CENTER2
 62
    7
 10
170.13557206802116
 20
470.70630575263419
 11
170.6285994017509
 21
470.31188388565039
  0
LINE
  8
_0-1_1_5
  6
CENTER2
 62
    7
 10
170.6285994017509
 20
470.31188388565039
 11
171.19974984049708
 21
469.99194481152091
  0
LINE
  8
_0-1_1_5
  6
CENTER2
 62
    7
 10
171.19974984049708
 20
469.99194481152091
 11
171.8316692671944
 21
469.75620971711618
  0
LINE
  8
_0-1_1_5
  6
CENTER2
 62
    7
 10
171.8316692671944
 20
469.75620971711618
 11
172.50515712982934
 21
469.61184129399203
  0
LINE
  8
_0-1_1_5
  6
CENTER2
 62
    7
 10
172.50515712982934
 20
469.61184129399203
 11
173.19974984049708
 21
469.56322610363111
  0
LINE
  8
_0-1_1_5
  6
CENTER2
 62
    7
 10
173.19974984049708
 20
469.56322610363111
 11
173.89434255116478
 21
469.61184129399203
  0
LINE
  8
_0-1_1_5
  6
CENTER2
 62
    7
 10
173.89434255116478
 20
469.61184129399203
 11
174.56783041379973
 21
469.75620971711618
  0
LINE
  8
_0-1_1_5
  6
CENTER2
 62
    7
 10
174.56783041379973
 20
469.75620971711618
 11
175.19974984049708
 21
469.99194481152091
  0
LINE
  8
_0-1_1_5
  6
CENTER2
 62
    7
 10
175.19974984049708
 20
469.99194481152091
 11
175.77090027924322
 21
470.31188388565039
  0
LINE
  8
_0-1_1_5
  6
CENTER2
 62
    7
 10
175.77090027924322
 20
470.31188388565039
 11
176.26392761297299
 21
470.70630575263414
  0
LINE
  8
_0-1_1_5
  6
CENTER2
 62
    7
 10
176.26392761297299
 20
470.70630575263414
 11
176.66385145563481
 21
471.16322610363108
  0
LINE
  8
_0-1_1_5
  6
CENTER2
 62
    7
 10
176.66385145563481
 20
471.16322610363108
 11
176.9585203236407
 21
471.66876164498893
  0
LINE
  8
_0-1_1_5
  6
CENTER2
 62
    7
 10
176.9585203236407
 20
471.66876164498893
 11
177.1389808525459
 21
472.20755193509689
  0
LINE
  8
_0-1_1_5
  6
CENTER2
 62
    7
 10
177.1389808525459
 20
472.20755193509689
 11
177.19974984049708
 21
472.7632261036311
  0
LINE
  8
_0-1_1_5
  6
CENTER2
 62
    7
 10
177.19974984049708
 20
472.7632261036311
 11
177.19974984049708
 21
472.7632261036311
  0
LINE
  8
_0-1_1_5
  6
CENTER2
 62
    7
 10
177.19974984049708
 20
452.97500648808648
 11
177.19974984049708
 21
452.97500648808648
  0
LINE
  8
_0-1_1_5
  6
CENTER2
 62
    7
 10
177.19974984049708
 20
452.97500648808648
 11
177.1389808525459
 21
453.53068065662063
  0
LINE
  8
_0-1_1_5
  6
CENTER2
 62
    7
 10
177.1389808525459
 20
453.53068065662063
 11
176.9585203236407
 21
454.06947094672864
  0
LINE
  8
_0-1_1_5
  6
CENTER2
 62
    7
 10
176.9585203236407
 20
454.06947094672864
 11
176.66385145563484
 21
454.5750064880865
  0
LINE
  8
_0-1_1_5
  6
CENTER2
 62
    7
 10
176.66385145563484
 20
454.5750064880865
 11
176.26392761297299
 21
455.03192683908338
  0
LINE
  8
_0-1_1_5
  6
CENTER2
 62
    7
 10
176.26392761297299
 20
455.03192683908338
 11
175.77090027924322
 21
455.42634870606719
  0
LINE
  8
_0-1_1_5
  6
CENTER2
 62
    7
 10
175.77090027924322
 20
455.42634870606719
 11
175.19974984049708
 21
455.74628778019667
  0
LINE
  8
_0-1_1_5
  6
CENTER2
 62
    7
 10
175.19974984049708
 20
455.74628778019667
 11
174.56783041379975
 21
455.9820228746014
  0
LINE
  8
_0-1_1_5
  6
CENTER2
 62
    7
 10
174.56783041379975
 20
455.9820228746014
 11
173.89434255116481
 21
456.12639129772555
  0
LINE
  8
_0-1_1_5
  6
CENTER2
 62
    7
 10
173.89434255116481
 20
456.12639129772555
 11
173.19974984049708
 21
456.17500648808647
  0
LINE
  8
_0-1_1_5
  6
CENTER2
 62
    7
 10
173.19974984049708
 20
456.17500648808647
 11
172.50515712982934
 21
456.12639129772555
  0
LINE
  8
_0-1_1_5
  6
CENTER2
 62
    7
 10
172.50515712982934
 20
456.12639129772555
 11
171.8316692671944
 21
455.9820228746014
  0
LINE
  8
_0-1_1_5
  6
CENTER2
 62
    7
 10
171.8316692671944
 20
455.9820228746014
 11
171.19974984049708
 21
455.74628778019667
  0
LINE
  8
_0-1_1_5
  6
CENTER2
 62
    7
 10
171.19974984049708
 20
455.74628778019667
 11
170.62859940175093
 21
455.42634870606719
  0
LINE
  8
_0-1_1_5
  6
CENTER2
 62
    7
 10
170.62859940175093
 20
455.42634870606719
 11
170.13557206802116
 21
455.03192683908338
  0
LINE
  8
_0-1_1_5
  6
CENTER2
 62
    7
 10
170.13557206802116
 20
455.03192683908338
 11
169.73564822535931
 21
454.5750064880865
  0
LINE
  8
_0-1_1_5
  6
CENTER2
 62
    7
 10
169.73564822535931
 20
454.5750064880865
 11
169.44097935735346
 21
454.06947094672864
  0
LINE
  8
_0-1_1_5
  6
CENTER2
 62
    7
 10
169.44097935735346
 20
454.06947094672864
 11
169.26051882844826
 21
453.53068065662063
  0
LINE
  8
_0-1_1_5
  6
CENTER2
 62
    7
 10
169.26051882844826
 20
453.53068065662063
 11
169.19974984049708
 21
452.97500648808648
  0
LINE
  8
_0-1_1_5
  6
CENTER2
 62
    7
 10
169.19974984049708
 20
452.97500648808648
 11
169.26051882844826
 21
452.41933231955232
  0
LINE
  8
_0-1_1_5
  6
CENTER2
 62
    7
 10
169.26051882844826
 20
452.41933231955232
 11
169.44097935735343
 21
451.88054202944437
  0
LINE
  8
_0-1_1_5
  6
CENTER2
 62
    7
 10
169.44097935735343
 20
451.88054202944437
 11
169.73564822535931
 21
451.37500648808646
  0
LINE
  8
_0-1_1_5
  6
CENTER2
 62
    7
 10
169.73564822535931
 20
451.37500648808646
 11
170.13557206802116
 21
450.91808613708957
  0
LINE
  8
_0-1_1_5
  6
CENTER2
 62
    7
 10
170.13557206802116
 20
450.91808613708957
 11
170.6285994017509
 21
450.52366427010577
  0
LINE
  8
_0-1_1_5
  6
CENTER2
 62
    7
 10
170.6285994017509
 20
450.52366427010577
 11
171.19974984049708
 21
450.20372519597629
  0
LINE
  8
_0-1_1_5
  6
CENTER2
 62
    7
 10
171.19974984049708
 20
450.20372519597629
 11
171.8316692671944
 21
449.96799010157156
  0
LINE
  8
_0-1_1_5
  6
CENTER2
 62
    7
 10
171.8316692671944
 20
449.96799010157156
 11
172.50515712982934
 21
449.82362167844741
  0
LINE
  8
_0-1_1_5
  6
CENTER2
 62
    7
 10
172.50515712982934
 20
449.82362167844741
 11
173.19974984049708
 21
449.77500648808649
  0
LINE
  8
_0-1_1_5
  6
CENTER2
 62
    7
 10
173.19974984049708
 20
449.77500648808649
 11
173.89434255116478
 21
449.82362167844741
  0
LINE
  8
_0-1_1_5
  6
CENTER2
 62
    7
 10
173.89434255116478
 20
449.82362167844741
 11
174.56783041379973
 21
449.96799010157156
  0
LINE
  8
_0-1_1_5
  6
CENTER2
 62
    7
 10
174.56783041379973
 20
449.96799010157156
 11
175.19974984049708
 21
450.20372519597629
  0
LINE
  8
_0-1_1_5
  6
CENTER2
 62
    7
 10
175.19974984049708
 20
450.20372519597629
 11
175.77090027924322
 21
450.52366427010577
  0
LINE
  8
_0-1_1_5
  6
CENTER2
 62
    7
 10
175.77090027924322
 20
450.52366427010577
 11
176.26392761297299
 21
450.91808613708952
  0
LINE
  8
_0-1_1_5
  6
CENTER2
 62
    7
 10
176.26392761297299
 20
450.91808613708952
 11
176.66385145563481
 21
451.37500648808646
  0
LINE
  8
_0-1_1_5
  6
CENTER2
 62
    7
 10
176.66385145563481
 20
451.37500648808646
 11
176.9585203236407
 21
451.88054202944431
  0
LINE
  8
_0-1_1_5
  6
CENTER2
 62
    7
 10
176.9585203236407
 20
451.88054202944431
 11
177.1389808525459
 21
452.41933231955227
  0
LINE
  8
_0-1_1_5
  6
CENTER2
 62
    7
 10
177.1389808525459
 20
452.41933231955227
 11
177.19974984049708
 21
452.97500648808648
  0
LINE
  8
_0-1_1_5
  6
CENTER2
 62
    7
 10
177.19974984049708
 20
452.97500648808648
 11
177.19974984049708
 21
452.97500648808648
  0
LINE
  8
_0-1_1_5
  6
CENTER2
 62
    7
 10
178.19974984049708
 20
452.97500648808648
 11
168.19974984049708
 21
452.97500648808648
  0
LINE
  8
_0-1_1_5
  6
CENTER2
 62
    7
 10
173.19974984049708
 20
448.97500648808654
 11
173.19974984049708
 21
456.97500648808648
  0
LINE
  8
_0-1_1_5
  6
CENTER2
 62
    7
 10
162.19974984049713
 20
482.86911629585882
 11
184.19974984049702
 21
482.86911629585882
  0
LINE
  8
_0-1_1_5
  6
CENTER2
 62
    7
 10
184.19974984049702
 20
482.86911629585882
 11
187.19974984049713
 21
479.86911629585882
  0
LINE
  8
_0-1_1_5
  6
CENTER2
 62
    7
 10
187.19974984049713
 20
445.86911629585876
 11
187.19974984049713
 21
479.86911629585882
  0
LINE
  8
_0-1_1_5
  6
CENTER2
 62
    7
 10
187.19974984049713
 20
445.86911629585876
 11
184.19974984049702
 21
442.86911629585882
  0
LINE
  8
_0-1_1_5
  6
CENTER2
 62
    7
 10
162.19974984049713
 20
442.86911629585882
 11
184.19974984049702
 21
442.86911629585882
  0
LINE
  8
_0-1_1_5
  6
CENTER2
 62
    7
 10
162.19974984049713
 20
442.86911629585882
 11
159.19974984049702
 21
445.86911629585876
  0
LINE
  8
_0-1_1_5
  6
CENTER2
 62
    7
 10
159.19974984049702
 20
479.86911629585882
 11
159.19974984049702
 21
445.86911629585876
  0
LINE
  8
_0-1_1_5
  6
CENTER2
 62
    7
 10
159.19974984049702
 20
479.86911629585882
 11
162.19974984049713
 21
482.86911629585882
  0
LINE
  8
_0-1_1_5
  6
STYLE_01
 62
    7
 10
174.83284158174911
 20
238.65415746546773
 11
171.33303759315723
 21
240.06039015519741
  0
LINE
  8
_0-1_1_5
  6
STYLE_01
 62
    7
 10
174.83284158174911
 20
237.25415746546764
 11
171.33303759315723
 21
238.66039015519755
  0
LINE
  8
_0-1_1_5
  6
STYLE_01
 62
    7
 10
172.96467507450643
 20
236.60479287845254
 11
171.33303759315723
 21
237.26039015519723
  0
LINE
  8
_0-1_1_5
  6
STYLE_01
 62
    7
 10
169.69974984049699
 20
234.8546948727485
 11
171.44984784620107
 21
236.60479287845254
  0
LINE
  8
_0-1_1_5
  6
STYLE_01
 62
    7
 10
176.69974984049702
 20
234.8546948727485
 11
174.94965183479295
 21
236.60479287845234
  0
LINE
  8
_0-1_1_5
  6
CONTINUOUS
 62
    7
 10
173.19974984049708
 20
280.80374201898138
 11
171.44984784620107
 21
275.17881126006222
  0
LINE
  8
_0-1_1_5
  6
CONTINUOUS
 62
    7
 10
173.19974984049708
 20
280.80374201898138
 11
174.94965183479295
 21
275.17881126006222
  0
LINE
  8
_0-1_1_5
  6
CONTINUOUS
 62
    7
 10
174.94965183479295
 20
236.60479287845234
 11
174.94965183479295
 21
275.17881126006222
  0
LINE
  8
_0-1_1_5
  6
CONTINUOUS
 62
    7
 10
171.44984784620107
 20
236.64161515537921
 11
171.44984784620107
 21
275.17825733141444
  0
LINE
  8
_0-1_1_5
  6
STYLE_01
 62
    7
 10
171.44984784620107
 20
236.60479287845254
 11
174.94965183479295
 21
236.60479287845254
  0
LINE
  8
_0-1_1_5
  6
CONTINUOUS
 62
    7
 10
174.83284158174911
 20
247.05415746546754
 11
171.33303759315723
 21
248.46039015519699
  0
LINE
  8
_0-1_1_5
  6
CONTINUOUS
 62
    7
 10
174.83284158174911
 20
248.46039015519699
 11
171.33303759315723
 21
249.86662284492718
  0
LINE
  8
_0-1_1_5
  6
CONTINUOUS
 62
    7
 10
174.83284158174911
 20
249.86662284492718
 11
171.33303759315723
 21
251.27285553465663
  0
LINE
  8
_0-1_1_5
  6
CONTINUOUS
 62
    7
 10
174.83284158174911
 20
251.27285553465663
 11
171.33303759315723
 21
252.67908822438648
  0
LINE
  8
_0-1_1_5
  6
CONTINUOUS
 62
    7
 10
174.83284158174911
 20
252.67908822438648
 11
171.33303759315723
 21
254.08532091411593
  0
LINE
  8
_0-1_1_5
  6
CONTINUOUS
 62
    7
 10
174.83284158174911
 20
254.08532091411593
 11
171.33303759315723
 21
255.49155360384611
  0
LINE
  8
_0-1_1_5
  6
CONTINUOUS
 62
    7
 10
174.83284158174911
 20
259.71025167303537
 11
171.33303759315723
 21
261.11648436276505
  0
LINE
  8
_0-1_1_5
  6
CONTINUOUS
 62
    7
 10
174.83284158174911
 20
258.30401898330541
 11
171.33303759315723
 21
259.71025167303537
  0
LINE
  8
_0-1_1_5
  6
CONTINUOUS
 62
    7
 10
174.83284158174911
 20
261.11648436276505
 11
171.33303759315723
 21
262.52271705249473
  0
LINE
  8
_0-1_1_5
  6
CONTINUOUS
 62
    7
 10
174.83284158174911
 20
262.52271705249473
 11
171.33303759315723
 21
263.92894974222435
  0
LINE
  8
_0-1_1_5
  6
CONTINUOUS
 62
    7
 10
174.83284158174911
 20
263.92894974222435
 11
171.33303759315723
 21
265.33518243195402
  0
LINE
  8
_0-1_1_5
  6
CONTINUOUS
 62
    7
 10
174.83284158174911
 20
265.33518243195402
 11
171.33303759315723
 21
266.74141512168399
  0
LINE
  8
_0-1_1_5
  6
CONTINUOUS
 62
    7
 10
174.83284158174911
 20
266.74141512168399
 11
171.33303759315723
 21
268.14764781141366
  0
LINE
  8
_0-1_1_5
  6
CONTINUOUS
 62
    7
 10
174.83284158174911
 20
268.14764781141366
 11
171.33303759315723
 21
269.55388050114328
  0
LINE
  8
_0-1_1_5
  6
CONTINUOUS
 62
    7
 10
174.83284158174911
 20
255.49155360384611
 11
171.33303759315723
 21
256.89778629357556
  0
LINE
  8
_0-1_1_5
  6
CONTINUOUS
 62
    7
 10
174.83284158174911
 20
269.55388050114328
 11
171.33303759315723
 21
270.96011319087324
  0
LINE
  8
_0-1_1_5
  6
CONTINUOUS
 62
    7
 10
174.83284158174911
 20
272.36634588060292
 11
171.33303759315723
 21
273.77257857033277
  0
LINE
  8
_0-1_1_5
  6
CONTINUOUS
 62
    7
 10
174.83284158174911
 20
273.77257857033277
 11
171.33303759315723
 21
275.17881126006222
  0
LINE
  8
_0-1_1_5
  6
CONTINUOUS
 62
    7
 10
174.83284158174911
 20
270.96011319087324
 11
171.33303759315723
 21
272.36634588060292
  0
LINE
  8
_0-1_1_5
  6
CONTINUOUS
 62
    7
 10
174.83284158174911
 20
256.89778629357556
 11
171.33303759315723
 21
258.30401898330541
  0
LINE
  8
_0-1_1_5
  6
CONTINUOUS
 62
    7
 10
174.83284158174911
 20
245.65415746546748
 11
171.33303759315723
 21
247.06039015519713
  0
LINE
  8
_0-1_1_5
  6
CONTINUOUS
 62
    7
 10
174.83284158174911
 20
244.25415746546761
 11
171.33303759315723
 21
245.66039015519726
  0
LINE
  8
_0-1_1_5
  6
CONTINUOUS
 62
    7
 10
174.83284158174911
 20
242.85415746546755
 11
171.33303759315723
 21
244.2603901551972
  0
LINE
  8
_0-1_1_5
  6
CONTINUOUS
 62
    7
 10
174.83284158174911
 20
241.45415746546769
 11
171.33303759315723
 21
242.86039015519734
  0
LINE
  8
_0-1_1_5
  6
CENTER2
 62
    7
 10
159.19974984049702
 20
234.85469487274855
 11
159.19974984049702
 21
241.35469487274847
  0
LINE
  8
_0-1_1_5
  6
CENTER2
 62
    7
 10
187.19974984049713
 20
234.85469487274855
 11
159.19974984049702
 21
234.85469487274855
  0
LINE
  8
_0-1_1_5
  6
CENTER2
 62
    7
 10
187.19974984049713
 20
234.85469487274855
 11
187.19974984049713
 21
241.35469487274847
  0
LINE
  8
_0-2_ADD_LINE
  6
CONTINUOUS
 62
    7
 10
173.19974984049708
 20
519.47300119316969
 11
623.19974984049713
 21
519.47300119316969
  0
TEXT
  8
_0-2_ADD_LINE
 62
    4
 10
388.82474984049708
 20
521.97300119316969
 40
12.5
 41
1
 50
0
  1
450
  0
LINE
  8
_0-1_1_5
  6
CONTINUOUS
 62
    7
 10
179.44474783889547
 20
467.86911629585882
 11
616.95475184209863
 21
467.86911629585882
  0
LINE
  8
_0-1_1_5
  6
CONTINUOUS
 62
    7
 10
179.44474783889547
 20
457.86911629585882
 11
616.95475184209863
 21
457.86911629585882
  0
LINE
  8
_0-2_ADD_LINE
  6
CONTINUOUS
 62
    7
 10
679.44211621578006
 20
241.35469487274847
 11
657.69974984049691
 21
241.35469487274847
  0
LINE
  8
_0-1_1_5
  6
CONTINUOUS
 62
    7
 10
648.19974984049691
 20
231.35469487274838
 11
648.19974984049691
 21
241.35469487274838
  0
POINT
  8
_0-2_ADD_LINE
 62
    7
 10
648.19974984049691
 20
301.34574202298904
  0
POINT
  8
_0-2_ADD_LINE
 62
    7
 10
648.19974984049725
 20
539.34912037466029
  0
POINT
  8
_0-2_ADD_LINE
 62
    7
 10
148.19974984049722
 20
539.34912037466029
  0
LINE
  8
_0-2_ADD_LINE
  6
CONTINUOUS
 62
    7
 10
148.19974984049722
 20
539.34912037466029
 11
148.19974984049722
 21
477.86911629585882
  0
LINE
  8
_0-1_1_5
  6
CONTINUOUS
 62
    7
 10
148.19974984049713
 20
231.35469487274847
 11
148.19974984049713
 21
241.35469487274847
  0
LINE
  8
_0-1_1_5
  6
CONTINUOUS
 62
    7
 10
198.19974984049693
 20
231.35469487274847
 11
198.19974984049693
 21
240.17501146797144
  0
LINE
  8
_0-1_1_5
  6
CONTINUOUS
 62
    7
 10
198.19974984049693
 20
240.17501146797144
 11
198.19974984049693
 21
241.35469487274847
  0
LINE
  8
_0-1_1_5
  6
CONTINUOUS
 62
    7
 10
198.19974984049693
 20
241.35469487274847
 11
148.19974984049713
 21
241.35469487274847
  0
LINE
  8
_0-1_1_5
  6
CONTINUOUS
 62
    7
 10
148.19974984049713
 20
231.35469487274847
 11
198.19974984049693
 21
231.35469487274847
  0
LINE
  8
_0-1_1_5
  6
CONTINUOUS
 62
    7
 10
598.19974984049725
 20
231.35469487274838
 11
598.19974984049725
 21
241.35469487274838
  0
POINT
  8
_0-2_ADD_LINE
 62
    7
 10
598.19974984049725
 20
301.34574202298904
  0
LINE
  8
_0-2_ADD_LINE
  6
CONTINUOUS
 62
    7
 10
598.19974984049725
 20
301.34574202298904
 11
598.19974984049725
 21
251.35469487274847
  0
LINE
  8
_0-1_1_5
  6
CONTINUOUS
 62
    7
 10
648.19974984049691
 20
241.35469487274838
 11
598.19974984049725
 21
241.35469487274838
  0
LINE
  8
_0-1_1_5
  6
CONTINUOUS
 62
    7
 10
648.19974984049691
 20
231.35469487274838
 11
598.19974984049725
 21
231.35469487274838
  0
LINE
  8
_0-2_ADD_LINE
  6
CONTINUOUS
 62
    7
 10
598.19974984049725
 20
301.34574202298904
 11
648.19974984049691
 21
301.34574202298904
  0
TEXT
  8
_0-2_ADD_LINE
 62
    4
 10
616.94974984049713
 20
303.84574202298904
 40
12.5
 41
1
 50
0
  1
50
  0
LINE
  8
_0-2_ADD_LINE
  6
CONTINUOUS
 62
    7
 10
148.19974984049722
 20
539.34912037466029
 11
648.19974984049725
 21
539.34912037466029
  0
TEXT
  8
_0-2_ADD_LINE
 62
    4
 10
388.82474984049725
 20
541.84912037466029
 40
12.5
 41
1
 50
0
  1
500
  0
ARC
  8
_0-1_1_5
  6
CONTINUOUS
 62
    7
 10
173.19974984049708
 20
462.86911629585882
 40
25
 50
11.536959032815485
 51
348.4630409671845
  0
ARC
  8
_0-1_1_5
  6
CONTINUOUS
 62
    7
 10
623.19974984049713
 20
462.86911629585882
 40
25
 50
191.53695903281547
 51
168.46304096718453
  0
POINT
  8
_0-2_ADD_LINE
 62
    7
 10
679.44211621578006
 20
31.354694872748468
  0
LINE
  8
_0-1_1_5
  6
CONTINUOUS
 62
    7
 10
631.19974984049713
 20
31.354694872748397
 11
615.19974984049691
 21
31.354694872748397
  0
LINE
  8
_0-1_1_5
  6
CONTINUOUS
 62
    7
 10
615.19974984049691
 20
36.354694872748397
 11
615.19974984049691
 21
36.354694872748397
  0
LINE
  8
_0-1_1_5
  6
CONTINUOUS
 62
    7
 10
615.19974984049691
 20
36.354694872748397
 11
615.50363415141408
 21
36.430656107687355
  0
LINE
  8
_0-1_1_5
  6
CONTINUOUS
 62
    7
 10
615.50363415141408
 20
36.430656107687355
 11
615.79828509131687
 21
36.656231768818856
  0
LINE
  8
_0-1_1_5
  6
CONTINUOUS
 62
    7
 10
615.79828509131687
 20
36.656231768818856
 11
616.07474984049691
 21
37.024567853826206
  0
LINE
  8
_0-1_1_5
  6
CONTINUOUS
 62
    7
 10
616.07474984049691
 20
37.024567853826206
 11
616.32462815744839
 21
37.52447265715351
  0
LINE
  8
_0-1_1_5
  6
CONTINUOUS
 62
    7
 10
616.32462815744839
 20
37.52447265715351
 11
616.54032761595511
 21
38.140756824315702
  0
LINE
  8
_0-1_1_5
  6
CONTINUOUS
 62
    7
 10
616.54032761595511
 20
38.140756824315702
 11
616.71529429711973
 21
38.854694872748397
  0
LINE
  8
_0-1_1_5
  6
CONTINUOUS
 62
    7
 10
616.71529429711973
 20
38.854694872748397
 11
616.84421192687228
 21
39.64459415612005
  0
LINE
  8
_0-1_1_5
  6
CONTINUOUS
 62
    7
 10
616.84421192687228
 20
39.64459415612005
 11
616.92316340826824
 21
40.486453984413743
  0
LINE
  8
_0-1_1_5
  6
CONTINUOUS
 62
    7
 10
616.92316340826824
 20
40.486453984413743
 11
616.94974984049691
 21
41.354694872748397
  0
LINE
  8
_0-1_1_5
  6
CONTINUOUS
 62
    7
 10
616.94974984049691
 20
41.354694872748397
 11
616.92316340826824
 21
42.22293576108305
  0
LINE
  8
_0-1_1_5
  6
CONTINUOUS
 62
    7
 10
616.92316340826824
 20
42.22293576108305
 11
616.84421192687228
 21
43.064795589376743
  0
LINE
  8
_0-1_1_5
  6
CONTINUOUS
 62
    7
 10
616.84421192687228
 20
43.064795589376743
 11
616.71529429711973
 21
43.854694872748397
  0
LINE
  8
_0-1_1_5
  6
CONTINUOUS
 62
    7
 10
616.71529429711973
 20
43.854694872748397
 11
616.54032761595511
 21
44.568632921181091
  0
LINE
  8
_0-1_1_5
  6
CONTINUOUS
 62
    7
 10
616.54032761595511
 20
44.568632921181091
 11
616.32462815744839
 21
45.184917088343283
  0
LINE
  8
_0-1_1_5
  6
CONTINUOUS
 62
    7
 10
616.32462815744839
 20
45.184917088343283
 11
616.07474984049691
 21
45.684821891670587
  0
LINE
  8
_0-1_1_5
  6
CONTINUOUS
 62
    7
 10
616.07474984049691
 20
45.684821891670587
 11
615.79828509131687
 21
46.053157976677937
  0
LINE
  8
_0-1_1_5
  6
CONTINUOUS
 62
    7
 10
615.79828509131687
 20
46.053157976677937
 11
615.50363415141408
 21
46.278733637809438
  0
LINE
  8
_0-1_1_5
  6
CONTINUOUS
 62
    7
 10
615.50363415141408
 20
46.278733637809438
 11
615.19974984049691
 21
46.354694872748397
  0
LINE
  8
_0-1_1_5
  6
CONTINUOUS
 62
    7
 10
615.19974984049691
 20
46.354694872748397
 11
615.19974984049691
 21
46.354694872748397
  0
LINE
  8
_0-1_1_5
  6
CONTINUOUS
 62
    7
 10
615.19974984049691
 20
31.354694872748397
 11
615.19974984049691
 21
36.354694872748397
  0
POINT
  8
_0-2_ADD_LINE
 62
    7
 10
479.39254445776186
 20
46.354694872748397
  0
POINT
  8
_0-2_ADD_LINE
 62
    7
 10
479.39254445776186
 20
36.354694872748397
  0
LINE
  8
_0-2_ADD_LINE
  6
CONTINUOUS
 62
    7
 10
479.39254445776186
 20
42.965819783110462
 11
479.39254445776186
 21
61.022334870877017
  0
LINE
  8
_0-2_ADD_LINE
  6
CONTINUOUS
 62
    7
 10
479.39254445776186
 20
46.354694872748397
 11
479.39254445776186
 21
36.354694872748325
  0
TEXT
  8
_0-2_ADD_LINE
 62
    4
 10
476.78536348359472
 20
58.715119135967839
 40
12.5
 41
1
 50
90
  1
10
  0
LINE
  8
_0-1_1_5
  6
CONTINUOUS
 62
    7
 10
165.19974984049696
 20
31.354694872748468
 11
181.19974984049719
 21
31.354694872748468
  0
LINE
  8
_0-1_1_5
  6
CONTINUOUS
 62
    7
 10
181.19974984049719
 20
46.354694872748468
 11
181.19974984049719
 21
46.354694872748468
  0
LINE
  8
_0-1_1_5
  6
CONTINUOUS
 62
    7
 10
181.19974984049719
 20
46.354694872748468
 11
180.89586552958005
 21
46.278733637809509
  0
LINE
  8
_0-1_1_5
  6
CONTINUOUS
 62
    7
 10
180.89586552958005
 20
46.278733637809509
 11
180.60121458967728
 21
46.053157976678008
  0
LINE
  8
_0-1_1_5
  6
CONTINUOUS
 62
    7
 10
180.60121458967728
 20
46.053157976678008
 11
180.32474984049719
 21
45.684821891670666
  0
LINE
  8
_0-1_1_5
  6
CONTINUOUS
 62
    7
 10
180.32474984049719
 20
45.684821891670666
 11
180.07487152354574
 21
45.184917088343362
  0
LINE
  8
_0-1_1_5
  6
CONTINUOUS
 62
    7
 10
180.07487152354574
 20
45.184917088343362
 11
179.85917206503899
 21
44.568632921181162
  0
LINE
  8
_0-1_1_5
  6
CONTINUOUS
 62
    7
 10
179.85917206503899
 20
44.568632921181162
 11
179.68420538387443
 21
43.854694872748468
  0
LINE
  8
_0-1_1_5
  6
CONTINUOUS
 62
    7
 10
179.68420538387443
 20
43.854694872748468
 11
179.55528775412185
 21
43.064795589376814
  0
LINE
  8
_0-1_1_5
  6
CONTINUOUS
 62
    7
 10
179.55528775412185
 20
43.064795589376814
 11
179.47633627272583
 21
42.222935761083122
  0
LINE
  8
_0-1_1_5
  6
CONTINUOUS
 62
    7
 10
179.47633627272583
 20
42.222935761083122
 11
179.44974984049719
 21
41.354694872748468
  0
LINE
  8
_0-1_1_5
  6
CONTINUOUS
 62
    7
 10
179.44974984049719
 20
41.354694872748468
 11
179.47633627272583
 21
40.486453984413821
  0
LINE
  8
_0-1_1_5
  6
CONTINUOUS
 62
    7
 10
179.47633627272583
 20
40.486453984413821
 11
179.55528775412185
 21
39.644594156120128
  0
LINE
  8
_0-1_1_5
  6
CONTINUOUS
 62
    7
 10
179.55528775412185
 20
39.644594156120128
 11
179.68420538387443
 21
38.854694872748468
  0
LINE
  8
_0-1_1_5
  6
CONTINUOUS
 62
    7
 10
179.68420538387443
 20
38.854694872748468
 11
179.85917206503899
 21
38.140756824315773
  0
LINE
  8
_0-1_1_5
  6
CONTINUOUS
 62
    7
 10
179.85917206503899
 20
38.140756824315773
 11
180.07487152354574
 21
37.524472657153581
  0
LINE
  8
_0-1_1_5
  6
CONTINUOUS
 62
    7
 10
180.07487152354574
 20
37.524472657153581
 11
180.32474984049719
 21
37.024567853826277
  0
LINE
  8
_0-1_1_5
  6
CONTINUOUS
 62
    7
 10
180.32474984049719
 20
37.024567853826277
 11
180.60121458967726
 21
36.656231768818927
  0
LINE
  8
_0-1_1_5
  6
CONTINUOUS
 62
    7
 10
180.60121458967726
 20
36.656231768818927
 11
180.89586552958005
 21
36.430656107687426
  0
LINE
  8
_0-1_1_5
  6
CONTINUOUS
 62
    7
 10
180.89586552958005
 20
36.430656107687426
 11
181.19974984049719
 21
36.354694872748468
  0
LINE
  8
_0-1_1_5
  6
CONTINUOUS
 62
    7
 10
181.19974984049719
 20
36.354694872748468
 11
181.19974984049719
 21
36.354694872748468
  0
LINE
  8
_0-1_1_5
  6
CONTINUOUS
 62
    7
 10
181.19974984049719
 20
31.354694872748468
 11
181.19974984049719
 21
36.354694872748468
  0
LINE
  8
_0-1_1_5
  6
CONTINUOUS
 62
    7
 10
181.19974984049719
 20
46.354694872748468
 11
615.19974984049691
 21
46.354694872748397
  0
LINE
  8
_0-1_1_5
  6
CONTINUOUS
 62
    7
 10
181.19974984049719
 20
36.354694872748468
 11
615.19974984049691
 21
36.354694872748397
  0
LINE
  8
_0-2_ADD_LINE
  6
CONTINUOUS
 62
    7
 10
679.44211621578006
 20
31.354694872748468
 11
637.19974984049713
 21
31.354694872748468
  0
TEXT
  8
_0-2_ADD_LINE
 62
    7
 10
477.4234165881777
 20
46.128800794257785
 40
15.270399999999999
 41
1
 50
90
  1
φ
  0
LINE
  8
_0-1_1_5
  6
CONTINUOUS
 62
    7
 10
165.19974984049696
 20
31.354694872748468
 11
165.19974984049696
 21
231.35469487274847
  0
LINE
  8
_0-1_1_5
  6
CONTINUOUS
 62
    7
 10
631.19974984049713
 20
31.354694872748468
 11
631.19974984049713
 21
231.35469487274838
  0
POINT
  8
_0-2_ADD_LINE
 62
    7
 10
479.39254445776186
 20
111.3546948727484
  0
POINT
  8
_0-2_ADD_LINE
 62
    7
 10
479.39254445776186
 20
101.3546948727484
  0
LINE
  8
_0-2_ADD_LINE
  6
CONTINUOUS
 62
    7
 10
479.39254445776186
 20
107.96581978311046
 11
479.39254445776186
 21
126.02233487087702
  0
LINE
  8
_0-2_ADD_LINE
  6
CONTINUOUS
 62
    7
 10
479.39254445776186
 20
111.3546948727484
 11
479.39254445776186
 21
101.3546948727484
  0
TEXT
  8
_0-2_ADD_LINE
 62
    4
 10
476.78536348359472
 20
123.70930916365324
 40
12.5
 41
1
 50
90
  1
10
  0
TEXT
  8
_0-2_ADD_LINE
 62
    7
 10
477.42341658817782
 20
110.97673885627259
 40
15.270399999999999
 41
1
 50
90
  1
φ
  0
POINT
  8
_0-2_ADD_LINE
 62
    7
 10
479.39254445776186
 20
176.35469487274838
  0
POINT
  8
_0-2_ADD_LINE
 62
    7
 10
479.39254445776186
 20
166.35469487274838
  0
LINE
  8
_0-2_ADD_LINE
  6
CONTINUOUS
 62
    7
 10
479.39254445776186
 20
172.96581978311048
 11
479.39254445776186
 21
191.02233487087702
  0
LINE
  8
_0-2_ADD_LINE
  6
CONTINUOUS
 62
    7
 10
479.39254445776186
 20
176.35469487274838
 11
479.39254445776186
 21
166.35469487274838
  0
TEXT
  8
_0-2_ADD_LINE
 62
    4
 10
476.78536348359472
 20
188.70930916365324
 40
12.5
 41
1
 50
90
  1
10
  0
TEXT
  8
_0-2_ADD_LINE
 62
    7
 10
477.42341658817782
 20
175.97673885627259
 40
15.270399999999999
 41
1
 50
90
  1
φ
  0
LINE
  8
_0-1_1_5
  6
CONTINUOUS
 62
    7
 10
181.19974984049719
 20
176.35469487274847
 11
181.19974984049719
 21
231.35469487274847
  0
LINE
  8
_0-1_1_5
  6
CONTINUOUS
 62
    7
 10
615.19974984049691
 20
176.35469487274838
 11
615.19974984049691
 21
231.35469487274838
  0
LINE
  8
_0-1_1_5
  6
CONTINUOUS
 62
    7
 10
181.19974984049719
 20
46.354694872748468
 11
181.19974984049719
 21
101.35469487274847
  0
LINE
  8
_0-1_1_5
  6
CONTINUOUS
 62
    7
 10
615.19974984049691
 20
46.354694872748397
 11
615.19974984049691
 21
101.3546948727484
  0
LINE
  8
_0-1_1_5
  6
CONTINUOUS
 62
    7
 10
615.19974984049691
 20
101.3546948727484
 11
615.19974984049691
 21
101.3546948727484
  0
LINE
  8
_0-1_1_5
  6
CONTINUOUS
 62
    7
 10
615.19974984049691
 20
101.3546948727484
 11
615.50363415141408
 21
101.43065610768735
  0
LINE
  8
_0-1_1_5
  6
CONTINUOUS
 62
    7
 10
615.50363415141408
 20
101.43065610768735
 11
615.79828509131687
 21
101.65623176881886
  0
LINE
  8
_0-1_1_5
  6
CONTINUOUS
 62
    7
 10
615.79828509131687
 20
101.65623176881886
 11
616.07474984049691
 21
102.0245678538262
  0
LINE
  8
_0-1_1_5
  6
CONTINUOUS
 62
    7
 10
616.07474984049691
 20
102.0245678538262
 11
616.32462815744839
 21
102.52447265715351
  0
LINE
  8
_0-1_1_5
  6
CONTINUOUS
 62
    7
 10
616.32462815744839
 20
102.52447265715351
 11
616.54032761595511
 21
103.1407568243157
  0
LINE
  8
_0-1_1_5
  6
CONTINUOUS
 62
    7
 10
616.54032761595511
 20
103.1407568243157
 11
616.71529429711973
 21
103.8546948727484
  0
LINE
  8
_0-1_1_5
  6
CONTINUOUS
 62
    7
 10
616.71529429711973
 20
103.8546948727484
 11
616.84421192687228
 21
104.64459415612005
  0
LINE
  8
_0-1_1_5
  6
CONTINUOUS
 62
    7
 10
616.84421192687228
 20
104.64459415612005
 11
616.92316340826824
 21
105.48645398441374
  0
LINE
  8
_0-1_1_5
  6
CONTINUOUS
 62
    7
 10
616.92316340826824
 20
105.48645398441374
 11
616.94974984049691
 21
106.3546948727484
  0
LINE
  8
_0-1_1_5
  6
CONTINUOUS
 62
    7
 10
616.94974984049691
 20
106.3546948727484
 11
616.92316340826824
 21
107.22293576108305
  0
LINE
  8
_0-1_1_5
  6
CONTINUOUS
 62
    7
 10
616.92316340826824
 20
107.22293576108305
 11
616.84421192687228
 21
108.06479558937674
  0
LINE
  8
_0-1_1_5
  6
CONTINUOUS
 62
    7
 10
616.84421192687228
 20
108.06479558937674
 11
616.71529429711973
 21
108.8546948727484
  0
LINE
  8
_0-1_1_5
  6
CONTINUOUS
 62
    7
 10
616.71529429711973
 20
108.8546948727484
 11
616.54032761595511
 21
109.56863292118109
  0
LINE
  8
_0-1_1_5
  6
CONTINUOUS
 62
    7
 10
616.54032761595511
 20
109.56863292118109
 11
616.32462815744839
 21
110.18491708834328
  0
LINE
  8
_0-1_1_5
  6
CONTINUOUS
 62
    7
 10
616.32462815744839
 20
110.18491708834328
 11
616.07474984049691
 21
110.68482189167059
  0
LINE
  8
_0-1_1_5
  6
CONTINUOUS
 62
    7
 10
616.07474984049691
 20
110.68482189167059
 11
615.79828509131687
 21
111.05315797667794
  0
LINE
  8
_0-1_1_5
  6
CONTINUOUS
 62
    7
 10
615.79828509131687
 20
111.05315797667794
 11
615.50363415141408
 21
111.27873363780944
  0
LINE
  8
_0-1_1_5
  6
CONTINUOUS
 62
    7
 10
615.50363415141408
 20
111.27873363780944
 11
615.19974984049691
 21
111.3546948727484
  0
LINE
  8
_0-1_1_5
  6
CONTINUOUS
 62
    7
 10
615.19974984049691
 20
111.3546948727484
 11
615.19974984049691
 21
111.3546948727484
  0
LINE
  8
_0-1_1_5
  6
CONTINUOUS
 62
    7
 10
181.19974984049719
 20
101.35469487274847
 11
615.19974984049691
 21
101.3546948727484
  0
LINE
  8
_0-1_1_5
  6
CONTINUOUS
 62
    7
 10
181.19974984049719
 20
111.35469487274847
 11
181.19974984049719
 21
111.35469487274847
  0
LINE
  8
_0-1_1_5
  6
CONTINUOUS
 62
    7
 10
181.19974984049719
 20
111.35469487274847
 11
180.89586552958005
 21
111.27873363780951
  0
LINE
  8
_0-1_1_5
  6
CONTINUOUS
 62
    7
 10
180.89586552958005
 20
111.27873363780951
 11
180.60121458967728
 21
111.05315797667801
  0
LINE
  8
_0-1_1_5
  6
CONTINUOUS
 62
    7
 10
180.60121458967728
 20
111.05315797667801
 11
180.32474984049719
 21
110.68482189167067
  0
LINE
  8
_0-1_1_5
  6
CONTINUOUS
 62
    7
 10
180.32474984049719
 20
110.68482189167067
 11
180.07487152354574
 21
110.18491708834335
  0
LINE
  8
_0-1_1_5
  6
CONTINUOUS
 62
    7
 10
180.07487152354574
 20
110.18491708834335
 11
179.85917206503899
 21
109.56863292118116
  0
LINE
  8
_0-1_1_5
  6
CONTINUOUS
 62
    7
 10
179.85917206503899
 20
109.56863292118116
 11
179.68420538387443
 21
108.85469487274847
  0
LINE
  8
_0-1_1_5
  6
CONTINUOUS
 62
    7
 10
179.68420538387443
 20
108.85469487274847
 11
179.55528775412185
 21
108.06479558937681
  0
LINE
  8
_0-1_1_5
  6
CONTINUOUS
 62
    7
 10
179.55528775412185
 20
108.06479558937681
 11
179.47633627272583
 21
107.22293576108312
  0
LINE
  8
_0-1_1_5
  6
CONTINUOUS
 62
    7
 10
179.47633627272583
 20
107.22293576108312
 11
179.44974984049719
 21
106.35469487274847
  0
LINE
  8
_0-1_1_5
  6
CONTINUOUS
 62
    7
 10
179.44974984049719
 20
106.35469487274847
 11
179.47633627272583
 21
105.48645398441381
  0
LINE
  8
_0-1_1_5
  6
CONTINUOUS
 62
    7
 10
179.47633627272583
 20
105.48645398441381
 11
179.55528775412185
 21
104.64459415612012
  0
LINE
  8
_0-1_1_5
  6
CONTINUOUS
 62
    7
 10
179.55528775412185
 20
104.64459415612012
 11
179.68420538387443
 21
103.85469487274847
  0
LINE
  8
_0-1_1_5
  6
CONTINUOUS
 62
    7
 10
179.68420538387443
 20
103.85469487274847
 11
179.85917206503899
 21
103.14075682431577
  0
LINE
  8
_0-1_1_5
  6
CONTINUOUS
 62
    7
 10
179.85917206503899
 20
103.14075682431577
 11
180.07487152354574
 21
102.52447265715358
  0
LINE
  8
_0-1_1_5
  6
CONTINUOUS
 62
    7
 10
180.07487152354574
 20
102.52447265715358
 11
180.32474984049719
 21
102.02456785382628
  0
LINE
  8
_0-1_1_5
  6
CONTINUOUS
 62
    7
 10
180.32474984049719
 20
102.02456785382628
 11
180.60121458967726
 21
101.65623176881893
  0
LINE
  8
_0-1_1_5
  6
CONTINUOUS
 62
    7
 10
180.60121458967726
 20
101.65623176881893
 11
180.89586552958005
 21
101.43065610768743
  0
LINE
  8
_0-1_1_5
  6
CONTINUOUS
 62
    7
 10
180.89586552958005
 20
101.43065610768743
 11
181.19974984049719
 21
101.35469487274847
  0
LINE
  8
_0-1_1_5
  6
CONTINUOUS
 62
    7
 10
181.19974984049719
 20
101.35469487274847
 11
181.19974984049719
 21
101.35469487274847
  0
LINE
  8
_0-1_1_5
  6
CONTINUOUS
 62
    7
 10
181.19974984049719
 20
111.35469487274847
 11
615.19974984049691
 21
111.3546948727484
  0
LINE
  8
_0-1_1_5
  6
CONTINUOUS
 62
    7
 10
615.19974984049691
 20
166.35469487274838
 11
615.19974984049691
 21
166.35469487274838
  0
LINE
  8
_0-1_1_5
  6
CONTINUOUS
 62
    7
 10
615.19974984049691
 20
166.35469487274838
 11
615.50363415141408
 21
166.43065610768735
  0
LINE
  8
_0-1_1_5
  6
CONTINUOUS
 62
    7
 10
615.50363415141408
 20
166.43065610768735
 11
615.79828509131687
 21
166.65623176881883
  0
LINE
  8
_0-1_1_5
  6
CONTINUOUS
 62
    7
 10
615.79828509131687
 20
166.65623176881883
 11
616.07474984049691
 21
167.0245678538262
  0
LINE
  8
_0-1_1_5
  6
CONTINUOUS
 62
    7
 10
616.07474984049691
 20
167.0245678538262
 11
616.32462815744839
 21
167.5244726571535
  0
LINE
  8
_0-1_1_5
  6
CONTINUOUS
 62
    7
 10
616.32462815744839
 20
167.5244726571535
 11
616.54032761595511
 21
168.14075682431567
  0
LINE
  8
_0-1_1_5
  6
CONTINUOUS
 62
    7
 10
616.54032761595511
 20
168.14075682431567
 11
616.71529429711973
 21
168.85469487274838
  0
LINE
  8
_0-1_1_5
  6
CONTINUOUS
 62
    7
 10
616.71529429711973
 20
168.85469487274838
 11
616.84421192687228
 21
169.64459415612004
  0
LINE
  8
_0-1_1_5
  6
CONTINUOUS
 62
    7
 10
616.84421192687228
 20
169.64459415612004
 11
616.92316340826824
 21
170.48645398441374
  0
LINE
  8
_0-1_1_5
  6
CONTINUOUS
 62
    7
 10
616.92316340826824
 20
170.48645398441374
 11
616.94974984049691
 21
171.35469487274838
  0
LINE
  8
_0-1_1_5
  6
CONTINUOUS
 62
    7
 10
616.94974984049691
 20
171.35469487274838
 11
616.92316340826824
 21
172.22293576108302
  0
LINE
  8
_0-1_1_5
  6
CONTINUOUS
 62
    7
 10
616.92316340826824
 20
172.22293576108302
 11
616.84421192687228
 21
173.06479558937673
  0
LINE
  8
_0-1_1_5
  6
CONTINUOUS
 62
    7
 10
616.84421192687228
 20
173.06479558937673
 11
616.71529429711973
 21
173.85469487274838
  0
LINE
  8
_0-1_1_5
  6
CONTINUOUS
 62
    7
 10
616.71529429711973
 20
173.85469487274838
 11
616.54032761595511
 21
174.56863292118106
  0
LINE
  8
_0-1_1_5
  6
CONTINUOUS
 62
    7
 10
616.54032761595511
 20
174.56863292118106
 11
616.32462815744839
 21
175.18491708834327
  0
LINE
  8
_0-1_1_5
  6
CONTINUOUS
 62
    7
 10
616.32462815744839
 20
175.18491708834327
 11
616.07474984049691
 21
175.68482189167057
  0
LINE
  8
_0-1_1_5
  6
CONTINUOUS
 62
    7
 10
616.07474984049691
 20
175.68482189167057
 11
615.79828509131687
 21
176.05315797667791
  0
LINE
  8
_0-1_1_5
  6
CONTINUOUS
 62
    7
 10
615.79828509131687
 20
176.05315797667791
 11
615.50363415141408
 21
176.27873363780941
  0
LINE
  8
_0-1_1_5
  6
CONTINUOUS
 62
    7
 10
615.50363415141408
 20
176.27873363780941
 11
615.19974984049691
 21
176.35469487274838
  0
LINE
  8
_0-1_1_5
  6
CONTINUOUS
 62
    7
 10
615.19974984049691
 20
176.35469487274838
 11
615.19974984049691
 21
176.35469487274838
  0
LINE
  8
_0-1_1_5
  6
CONTINUOUS
 62
    7
 10
181.19974984049719
 20
176.35469487274847
 11
615.19974984049691
 21
176.35469487274838
  0
LINE
  8
_0-1_1_5
  6
CONTINUOUS
 62
    7
 10
181.19974984049719
 20
176.35469487274847
 11
181.19974984049719
 21
176.35469487274847
  0
LINE
  8
_0-1_1_5
  6
CONTINUOUS
 62
    7
 10
181.19974984049719
 20
176.35469487274847
 11
180.89586552958005
 21
176.27873363780952
  0
LINE
  8
_0-1_1_5
  6
CONTINUOUS
 62
    7
 10
180.89586552958005
 20
176.27873363780952
 11
180.60121458967728
 21
176.05315797667802
  0
LINE
  8
_0-1_1_5
  6
CONTINUOUS
 62
    7
 10
180.60121458967728
 20
176.05315797667802
 11
180.32474984049719
 21
175.68482189167065
  0
LINE
  8
_0-1_1_5
  6
CONTINUOUS
 62
    7
 10
180.32474984049719
 20
175.68482189167065
 11
180.07487152354574
 21
175.18491708834335
  0
LINE
  8
_0-1_1_5
  6
CONTINUOUS
 62
    7
 10
180.07487152354574
 20
175.18491708834335
 11
179.85917206503899
 21
174.56863292118118
  0
LINE
  8
_0-1_1_5
  6
CONTINUOUS
 62
    7
 10
179.85917206503899
 20
174.56863292118118
 11
179.68420538387443
 21
173.85469487274847
  0
LINE
  8
_0-1_1_5
  6
CONTINUOUS
 62
    7
 10
179.68420538387443
 20
173.85469487274847
 11
179.55528775412185
 21
173.06479558937681
  0
LINE
  8
_0-1_1_5
  6
CONTINUOUS
 62
    7
 10
179.55528775412185
 20
173.06479558937681
 11
179.47633627272583
 21
172.22293576108314
  0
LINE
  8
_0-1_1_5
  6
CONTINUOUS
 62
    7
 10
179.47633627272583
 20
172.22293576108314
 11
179.44974984049719
 21
171.35469487274847
  0
LINE
  8
_0-1_1_5
  6
CONTINUOUS
 62
    7
 10
179.44974984049719
 20
171.35469487274847
 11
179.47633627272583
 21
170.48645398441383
  0
LINE
  8
_0-1_1_5
  6
CONTINUOUS
 62
    7
 10
179.47633627272583
 20
170.48645398441383
 11
179.55528775412185
 21
169.64459415612012
  0
LINE
  8
_0-1_1_5
  6
CONTINUOUS
 62
    7
 10
179.55528775412185
 20
169.64459415612012
 11
179.68420538387443
 21
168.85469487274847
  0
LINE
  8
_0-1_1_5
  6
CONTINUOUS
 62
    7
 10
179.68420538387443
 20
168.85469487274847
 11
179.85917206503899
 21
168.14075682431579
  0
LINE
  8
_0-1_1_5
  6
CONTINUOUS
 62
    7
 10
179.85917206503899
 20
168.14075682431579
 11
180.07487152354574
 21
167.52447265715358
  0
LINE
  8
_0-1_1_5
  6
CONTINUOUS
 62
    7
 10
180.07487152354574
 20
167.52447265715358
 11
180.32474984049719
 21
167.02456785382628
  0
LINE
  8
_0-1_1_5
  6
CONTINUOUS
 62
    7
 10
180.32474984049719
 20
167.02456785382628
 11
180.60121458967726
 21
166.65623176881894
  0
LINE
  8
_0-1_1_5
  6
CONTINUOUS
 62
    7
 10
180.60121458967726
 20
166.65623176881894
 11
180.89586552958005
 21
166.43065610768744
  0
LINE
  8
_0-1_1_5
  6
CONTINUOUS
 62
    7
 10
180.89586552958005
 20
166.43065610768744
 11
181.19974984049719
 21
166.35469487274847
  0
LINE
  8
_0-1_1_5
  6
CONTINUOUS
 62
    7
 10
181.19974984049719
 20
166.35469487274847
 11
181.19974984049719
 21
166.35469487274847
  0
LINE
  8
_0-1_1_5
  6
CONTINUOUS
 62
    7
 10
181.19974984049719
 20
166.35469487274847
 11
615.19974984049691
 21
166.35469487274838
  0
LINE
  8
_0-1_1_5
  6
CONTINUOUS
 62
    7
 10
181.19974984049719
 20
166.35469487274847
 11
181.19974984049719
 21
111.35469487274847
  0
LINE
  8
_0-1_1_5
  6
CONTINUOUS
 62
    7
 10
615.19974984049691
 20
166.35469487274838
 11
615.19974984049691
 21
111.3546948727484
  0
LINE
  8
_0-3_
  6
CONTINUOUS
 62
    7
 10
679.44211621578006
 20
31.354694872748468
 11
679.44211621578006
 21
241.35469487274847
  0
TEXT
  8
_0-2_ADD_LINE
 62
    4
 10
676.94211621578006
 20
126.97969487274847
 40
12.5
 41
1
 50
90
  1
210
  0
LINE
  8
_0-1_1_5
  6
CONTINUOUS
 62
    7
 10
1070.7925704933825
 20
487.86911629585882
 11
1080.7925704933825
 21
487.86911629585882
  0
POINT
  8
_0-2_ADD_LINE
 62
    7
 10
1080.7925704933825
 20
519.11148267114186
  0
LINE
  8
_0-2_ADD_LINE
  6
CONTINUOUS
 62
    7
 10
1080.7925704933825
 20
519.11148267114186
 11
1080.7925704933825
 21
497.36911629585882
  0
TEXT
  8
_0-2_ADD_LINE
 62
    4
 10
1097.8976532847819
 20
386.28586998319292
 40
12.5
 41
1
 50
0
  1
タッピングビス
  0
LINE
  8
_0-2_ADD_LINE
  6
CONTINUOUS
 62
    7
 10
1104.5098880218356
 20
452.97500648808648
 11
1104.5098880218356
 21
407.08249259328483
  0
TEXT
  8
_0-2_ADD_LINE
 62
    4
 10
1097.8976532847819
 20
367.24354178151304
 40
12.5
 41
1
 50
0
  1
3.5x35
  0
POINT
  8
_0-2_ADD_LINE
 62
    7
 10
1070.7925704933825
 20
406.36911629585904
  0
POINT
  8
_0-2_ADD_LINE
 62
    7
 10
1080.7925704933825
 20
406.36911629585904
  0
LINE
  8
_0-2_ADD_LINE
  6
CONTINUOUS
 62
    7
 10
1070.7925704933825
 20
406.36911629585904
 11
1070.7925704933825
 21
433.36911629585899
  0
LINE
  8
_0-2_ADD_LINE
  6
CONTINUOUS
 62
    7
 10
1080.7925704933825
 20
406.36911629585904
 11
1080.7925704933825
 21
433.36911629585899
  0
LINE
  8
_0-2_ADD_LINE
  6
CONTINUOUS
 62
    7
 10
1070.7925704933825
 20
406.36911629585904
 11
1080.7925704933825
 21
406.36911629585904
  0
TEXT
  8
_0-2_ADD_LINE
 62
    4
 10
1056.1875327761979
 20
408.7616997706146
 40
12.5
 41
1
 50
0
  1
10
  0
LINE
  8
_0-2_ADD_LINE
  6
CONTINUOUS
 62
    7
 10
1070.7925704933825
 20
406.36911629585904
 11
1055.3752319143039
 21
406.36911629585904
  0
LINE
  8
_0-1_1_5
  6
CONTINUOUS
 62
    7
 10
1070.7925704933825
 20
437.86911629585904
 11
1080.7925704933825
 21
437.86911629585904
  0
LINE
  8
_0-1_1_5
  6
CONTINUOUS
 62
    7
 10
1070.7925704933825
 20
487.86911629585882
 11
1070.7925704933825
 21
437.86911629585904
  0
LINE
  8
_0-1_1_5
  6
CONTINUOUS
 62
    7
 10
1080.7925704933825
 20
487.86911629585882
 11
1080.7925704933825
 21
437.86911629585904
  0
LINE
  8
_0-1_1_5
  6
CONTINUOUS
 62
    7
 10
870.79257049338253
 20
470.86911629585899
 11
870.79257049338253
 21
454.86911629585876
  0
POINT
  8
_0-2_ADD_LINE
 62
    7
 10
880.79257049338253
 20
519.11148267114186
  0
LINE
  8
_0-2_ADD_LINE
  6
CONTINUOUS
 62
    7
 10
880.79257049338253
 20
519.11148267114186
 11
880.79257049338253
 21
480.86911629585899
  0
POINT
  8
_0-2_ADD_LINE
 62
    7
 10
839.29595399169875
 20
470.86911629585899
  0
POINT
  8
_0-2_ADD_LINE
 62
    7
 10
839.29595399169875
 20
454.86911629585876
  0
LINE
  8
_0-2_ADD_LINE
  6
CONTINUOUS
 62
    7
 10
839.29595399169875
 20
470.86911629585899
 11
860.79257049338253
 21
470.86911629585899
  0
LINE
  8
_0-2_ADD_LINE
  6
CONTINUOUS
 62
    7
 10
839.29595399169875
 20
454.86911629585876
 11
860.79257049338253
 21
454.86911629585876
  0
LINE
  8
_0-3_
  6
CONTINUOUS
 62
    7
 10
839.29595399169875
 20
470.86911629585899
 11
839.29595399169875
 21
454.86911629585876
  0
TEXT
  8
_0-2_ADD_LINE
 62
    4
 10
836.79595399169875
 20
456.61911629585887
 40
12.5
 41
1
 50
90
  1
16
  0
TEXT
  8
_0-2_ADD_LINE
 62
    7
 10
836.46773197076254
 20
444.14335458230545
 40
15.270385742187502
 41
1
 50
90
  1
φ
  0
CIRCLE
  8
_0-1_1_5
  6
DASHED1
 62
    7
 10
880.79257049338253
 20
462.86911629585904
 40
5
  0
CIRCLE
  8
_0-1_1_5
  6
DASHED1
 62
    7
 10
945.79257049338253
 20
462.86911629585904
 40
5
  0
LINE
  8
_0-2_ADD_LINE
  6
CONTINUOUS
 62
    7
 10
945.79257049338253
 20
519.11148267114186
 11
945.79257049338253
 21
480.86911629585899
  0
POINT
  8
_0-2_ADD_LINE
 62
    7
 10
945.79257049338253
 20
519.11148267114186
  0
LINE
  8
_0-3_
  6
CONTINUOUS
 62
    7
 10
945.79257049338253
 20
519.11148267114186
 11
945.79257049338253
 21
480.86911629585899
  0
LINE
  8
_0-1_1_5
  6
CONTINUOUS
 62
    7
 10
870.79257049338253
 20
470.86911629585899
 11
1070.7925704933825
 21
470.86911629585899
  0
LINE
  8
_0-1_1_5
  6
CONTINUOUS
 62
    7
 10
870.79257049338253
 20
454.86911629585876
 11
1070.7925704933825
 21
454.86911629585876
  0
LINE
  8
_0-3_
  6
CONTINUOUS
 62
    7
 10
880.79257049338253
 20
519.11148267114186
 11
945.79257049338253
 21
519.11148267114186
  0
TEXT
  8
_0-2_ADD_LINE
 62
    4
 10
907.04257049338253
 20
521.61148267114186
 40
12.5
 41
1
 50
0
  1
65
  0
POINT
  8
_0-2_ADD_LINE
 62
    7
 10
945.79257049338253
 20
519.11148267114186
  0
LINE
  8
_0-2_ADD_LINE
  6
CONTINUOUS
 62
    7
 10
945.79257049338253
 20
519.11148267114186
 11
945.79257049338253
 21
480.86911629585899
  0
LINE
  8
_0-2_ADD_LINE
  6
CONTINUOUS
 62
    7
 10
1010.7925704933825
 20
519.11148267114186
 11
1010.7925704933825
 21
480.86911629585899
  0
POINT
  8
_0-2_ADD_LINE
 62
    7
 10
1010.7925704933825
 20
519.11148267114186
  0
LINE
  8
_0-3_
  6
CONTINUOUS
 62
    7
 10
1010.7925704933825
 20
519.11148267114186
 11
1010.7925704933825
 21
480.86911629585899
  0
LINE
  8
_0-3_
  6
CONTINUOUS
 62
    7
 10
945.79257049338253
 20
519.11148267114186
 11
1010.7925704933825
 21
519.11148267114186
  0
TEXT
  8
_0-2_ADD_LINE
 62
    4
 10
972.04257049338253
 20
521.61148267114186
 40
12.5
 41
1
 50
0
  1
65
  0
CIRCLE
  8
_0-1_1_5
  6
DASHED1
 62
    7
 10
1010.7925704933825
 20
462.86911629585904
 40
5
  0
LINE
  8
_0-3_
  6
CONTINUOUS
 62
    7
 10
1010.7925704933825
 20
519.11148267114186
 11
1080.7925704933825
 21
519.11148267114186
  0
TEXT
  8
_0-2_ADD_LINE
 62
    4
 10
1039.5425704933825
 20
521.61148267114186
 40
12.5
 41
1
 50
0
  1
70
  0
TEXT
  8
_0-3_
 62
    7
 10
337.91727686287811
 20
-104.70437403928486
 40
15.270385742187502
 41
1
 50
0
  1
タオルラック
  0
TEXT
  8
_0-3_
 62
    7
 10
804.83041738030101
 20
-104.51409794816072
 40
15.270385742187502
 41
1
 50
0
  1
TFP40-B245-002
  0
LINE
  8
_0-1_1_5
  6
STYLE_01
 62
    7
 10
1085.9920330861019
 20
451.3419147468345
 11
1087.3982657758313
 21
454.8417187354263
  0
LINE
  8
_0-1_1_5
  6
STYLE_01
 62
    7
 10
1084.5920330861018
 20
451.3419147468345
 11
1085.9982657758314
 21
454.8417187354263
  0
LINE
  8
_0-1_1_5
  6
STYLE_01
 62
    7
 10
1083.1920330861017
 20
451.3419147468345
 11
1084.5982657758316
 21
454.8417187354263
  0
LINE
  8
_0-1_1_5
  6
STYLE_01
 62
    7
 10
1082.5426684990864
 20
453.21008125407707
 11
1083.1982657758313
 21
454.8417187354263
  0
LINE
  8
_0-1_1_5
  6
STYLE_01
 62
    7
 10
1080.7925704933825
 20
456.47500648808654
 11
1082.5426684990864
 21
454.72490848238243
  0
LINE
  8
_0-1_1_5
  6
STYLE_01
 62
    7
 10
1080.7925704933825
 20
449.47500648808659
 11
1082.5426684990864
 21
451.22510449379064
  0
LINE
  8
_0-1_1_5
  6
CONTINUOUS
 62
    7
 10
1126.7416176396155
 20
452.97500648808648
 11
1121.1166868806961
 21
454.72490848238243
  0
LINE
  8
_0-1_1_5
  6
CONTINUOUS
 62
    7
 10
1126.7416176396155
 20
452.97500648808648
 11
1121.1166868806961
 21
451.22510449379064
  0
LINE
  8
_0-1_1_5
  6
CONTINUOUS
 62
    7
 10
1082.5426684990864
 20
451.22510449379064
 11
1121.1166868806961
 21
451.22510449379064
  0
LINE
  8
_0-1_1_5
  6
CONTINUOUS
 62
    7
 10
1082.5794907760132
 20
454.72490848238243
 11
1121.1161329520485
 21
454.72490848238243
  0
LINE
  8
_0-1_1_5
  6
STYLE_01
 62
    7
 10
1082.5426684990864
 20
454.72490848238243
 11
1082.5426684990864
 21
451.22510449379064
  0
LINE
  8
_0-1_1_5
  6
CONTINUOUS
 62
    7
 10
1092.9920330861014
 20
451.3419147468345
 11
1094.3982657758309
 21
454.8417187354263
  0
LINE
  8
_0-1_1_5
  6
CONTINUOUS
 62
    7
 10
1094.3982657758309
 20
451.3419147468345
 11
1095.8044984655612
 21
454.8417187354263
  0
LINE
  8
_0-1_1_5
  6
CONTINUOUS
 62
    7
 10
1095.8044984655612
 20
451.3419147468345
 11
1097.2107311552907
 21
454.8417187354263
  0
LINE
  8
_0-1_1_5
  6
CONTINUOUS
 62
    7
 10
1097.2107311552907
 20
451.3419147468345
 11
1098.6169638450203
 21
454.8417187354263
  0
LINE
  8
_0-1_1_5
  6
CONTINUOUS
 62
    7
 10
1098.6169638450203
 20
451.3419147468345
 11
1100.0231965347498
 21
454.8417187354263
  0
LINE
  8
_0-1_1_5
  6
CONTINUOUS
 62
    7
 10
1100.0231965347498
 20
451.3419147468345
 11
1101.4294292244801
 21
454.8417187354263
  0
LINE
  8
_0-1_1_5
  6
CONTINUOUS
 62
    7
 10
1105.6481272936694
 20
451.3419147468345
 11
1107.0543599833991
 21
454.8417187354263
  0
LINE
  8
_0-1_1_5
  6
CONTINUOUS
 62
    7
 10
1104.2418946039393
 20
451.3419147468345
 11
1105.6481272936694
 21
454.8417187354263
  0
LINE
  8
_0-1_1_5
  6
CONTINUOUS
 62
    7
 10
1107.0543599833991
 20
451.3419147468345
 11
1108.4605926731288
 21
454.8417187354263
  0
LINE
  8
_0-1_1_5
  6
CONTINUOUS
 62
    7
 10
1108.4605926731288
 20
451.3419147468345
 11
1109.8668253628582
 21
454.8417187354263
  0
LINE
  8
_0-1_1_5
  6
CONTINUOUS
 62
    7
 10
1109.8668253628582
 20
451.3419147468345
 11
1111.2730580525881
 21
454.8417187354263
  0
LINE
  8
_0-1_1_5
  6
CONTINUOUS
 62
    7
 10
1111.2730580525881
 20
451.3419147468345
 11
1112.679290742318
 21
454.8417187354263
  0
LINE
  8
_0-1_1_5
  6
CONTINUOUS
 62
    7
 10
1112.679290742318
 20
451.3419147468345
 11
1114.0855234320477
 21
454.8417187354263
  0
LINE
  8
_0-1_1_5
  6
CONTINUOUS
 62
    7
 10
1114.0855234320477
 20
451.3419147468345
 11
1115.4917561217771
 21
454.8417187354263
  0
LINE
  8
_0-1_1_5
  6
CONTINUOUS
 62
    7
 10
1101.4294292244801
 20
451.3419147468345
 11
1102.8356619142096
 21
454.8417187354263
  0
LINE
  8
_0-1_1_5
  6
CONTINUOUS
 62
    7
 10
1115.4917561217771
 20
451.3419147468345
 11
1116.8979888115073
 21
454.8417187354263
  0
LINE
  8
_0-1_1_5
  6
CONTINUOUS
 62
    7
 10
1118.304221501237
 20
451.3419147468345
 11
1119.7104541909666
 21
454.8417187354263
  0
LINE
  8
_0-1_1_5
  6
CONTINUOUS
 62
    7
 10
1119.7104541909666
 20
451.3419147468345
 11
1121.1166868806961
 21
454.8417187354263
  0
LINE
  8
_0-1_1_5
  6
CONTINUOUS
 62
    7
 10
1116.8979888115073
 20
451.3419147468345
 11
1118.304221501237
 21
454.8417187354263
  0
LINE
  8
_0-1_1_5
  6
CONTINUOUS
 62
    7
 10
1102.8356619142096
 20
451.3419147468345
 11
1104.2418946039393
 21
454.8417187354263
  0
LINE
  8
_0-1_1_5
  6
STYLE_01
 62
    7
 10
1085.9920330861019
 20
471.13013436237907
 11
1087.3982657758313
 21
474.62993835097097
  0
LINE
  8
_0-1_1_5
  6
STYLE_01
 62
    7
 10
1084.5920330861018
 20
471.13013436237907
 11
1085.9982657758314
 21
474.62993835097097
  0
LINE
  8
_0-1_1_5
  6
STYLE_01
 62
    7
 10
1083.1920330861017
 20
471.13013436237907
 11
1084.5982657758316
 21
474.62993835097097
  0
LINE
  8
_0-1_1_5
  6
STYLE_01
 62
    7
 10
1082.5426684990864
 20
472.99830086962169
 11
1083.1982657758313
 21
474.62993835097097
  0
LINE
  8
_0-1_1_5
  6
STYLE_01
 62
    7
 10
1080.7925704933825
 20
476.26322610363115
 11
1082.5426684990864
 21
474.51312809792705
  0
LINE
  8
_0-1_1_5
  6
STYLE_01
 62
    7
 10
1080.7925704933825
 20
469.26322610363115
 11
1082.5426684990864
 21
471.01332410933526
  0
LINE
  8
_0-1_1_5
  6
CONTINUOUS
 62
    7
 10
1126.7416176396155
 20
472.7632261036311
 11
1121.1166868806961
 21
474.51312809792705
  0
LINE
  8
_0-1_1_5
  6
CONTINUOUS
 62
    7
 10
1126.7416176396155
 20
472.7632261036311
 11
1121.1166868806961
 21
471.01332410933526
  0
LINE
  8
_0-1_1_5
  6
CONTINUOUS
 62
    7
 10
1082.5426684990864
 20
471.01332410933526
 11
1121.1166868806961
 21
471.01332410933526
  0
LINE
  8
_0-1_1_5
  6
CONTINUOUS
 62
    7
 10
1082.5794907760132
 20
474.51312809792705
 11
1121.1161329520485
 21
474.51312809792705
  0
LINE
  8
_0-1_1_5
  6
STYLE_01
 62
    7
 10
1082.5426684990864
 20
474.51312809792705
 11
1082.5426684990864
 21
471.01332410933526
  0
LINE
  8
_0-1_1_5
  6
CONTINUOUS
 62
    7
 10
1092.9920330861014
 20
471.13013436237907
 11
1094.3982657758309
 21
474.62993835097097
  0
LINE
  8
_0-1_1_5
  6
CONTINUOUS
 62
    7
 10
1094.3982657758309
 20
471.13013436237907
 11
1095.8044984655612
 21
474.62993835097097
  0
LINE
  8
_0-1_1_5
  6
CONTINUOUS
 62
    7
 10
1095.8044984655612
 20
471.13013436237907
 11
1097.2107311552907
 21
474.62993835097097
  0
LINE
  8
_0-1_1_5
  6
CONTINUOUS
 62
    7
 10
1097.2107311552907
 20
471.13013436237907
 11
1098.6169638450203
 21
474.62993835097097
  0
LINE
  8
_0-1_1_5
  6
CONTINUOUS
 62
    7
 10
1098.6169638450203
 20
471.13013436237907
 11
1100.0231965347498
 21
474.62993835097097
  0
LINE
  8
_0-1_1_5
  6
CONTINUOUS
 62
    7
 10
1100.0231965347498
 20
471.13013436237907
 11
1101.4294292244801
 21
474.62993835097097
  0
LINE
  8
_0-1_1_5
  6
CONTINUOUS
 62
    7
 10
1105.6481272936694
 20
471.13013436237907
 11
1107.0543599833991
 21
474.62993835097097
  0
LINE
  8
_0-1_1_5
  6
CONTINUOUS
 62
    7
 10
1104.2418946039393
 20
471.13013436237907
 11
1105.6481272936694
 21
474.62993835097097
  0
LINE
  8
_0-1_1_5
  6
CONTINUOUS
 62
    7
 10
1107.0543599833991
 20
471.13013436237907
 11
1108.4605926731288
 21
474.62993835097097
  0
LINE
  8
_0-1_1_5
  6
CONTINUOUS
 62
    7
 10
1108.4605926731288
 20
471.13013436237907
 11
1109.8668253628582
 21
474.62993835097097
  0
LINE
  8
_0-1_1_5
  6
CONTINUOUS
 62
    7
 10
1109.8668253628582
 20
471.13013436237907
 11
1111.2730580525881
 21
474.62993835097097
  0
LINE
  8
_0-1_1_5
  6
CONTINUOUS
 62
    7
 10
1111.2730580525881
 20
471.13013436237907
 11
1112.679290742318
 21
474.62993835097097
  0
LINE
  8
_0-1_1_5
  6
CONTINUOUS
 62
    7
 10
1112.679290742318
 20
471.13013436237907
 11
1114.0855234320477
 21
474.62993835097097
  0
LINE
  8
_0-1_1_5
  6
CONTINUOUS
 62
    7
 10
1114.0855234320477
 20
471.13013436237907
 11
1115.4917561217771
 21
474.62993835097097
  0
LINE
  8
_0-1_1_5
  6
CONTINUOUS
 62
    7
 10
1101.4294292244801
 20
471.13013436237907
 11
1102.8356619142096
 21
474.62993835097097
  0
LINE
  8
_0-1_1_5
  6
CONTINUOUS
 62
    7
 10
1115.4917561217771
 20
471.13013436237907
 11
1116.8979888115073
 21
474.62993835097097
  0
LINE
  8
_0-1_1_5
  6
CONTINUOUS
 62
    7
 10
1118.304221501237
 20
471.13013436237907
 11
1119.7104541909666
 21
474.62993835097097
  0
LINE
  8
_0-1_1_5
  6
CONTINUOUS
 62
    7
 10
1119.7104541909666
 20
471.13013436237907
 11
1121.1166868806961
 21
474.62993835097097
  0
LINE
  8
_0-1_1_5
  6
CONTINUOUS
 62
    7
 10
1116.8979888115073
 20
471.13013436237907
 11
1118.304221501237
 21
474.62993835097097
  0
LINE
  8
_0-1_1_5
  6
CONTINUOUS
 62
    7
 10
1102.8356619142096
 20
471.13013436237907
 11
1104.2418946039393
 21
474.62993835097097
  0
LINE
  8
_0-1_1_5
  6
CONTINUOUS
 62
    7
 10
1091.5920330861015
 20
471.13013436237907
 11
1092.998265775831
 21
474.62993835097097
  0
LINE
  8
_0-1_1_5
  6
CONTINUOUS
 62
    7
 10
1090.1920330861017
 20
471.13013436237907
 11
1091.5982657758311
 21
474.62993835097097
  0
LINE
  8
_0-1_1_5
  6
CONTINUOUS
 62
    7
 10
1088.7920330861016
 20
471.13013436237907
 11
1090.1982657758313
 21
474.62993835097097
  0
LINE
  8
_0-1_1_5
  6
CONTINUOUS
 62
    7
 10
1087.3920330861017
 20
471.13013436237907
 11
1088.7982657758314
 21
474.62993835097097
  0
LINE
  8
_0-1_1_5
  6
CONTINUOUS
 62
    7
 10
1090.1920330861017
 20
451.3419147468345
 11
1091.5982657758311
 21
454.8417187354263
  0
LINE
  8
_0-1_1_5
  6
CONTINUOUS
 62
    7
 10
1088.7920330861016
 20
451.3419147468345
 11
1090.1982657758313
 21
454.8417187354263
  0
LINE
  8
_0-1_1_5
  6
CONTINUOUS
 62
    7
 10
1087.3920330861017
 20
451.3419147468345
 11
1088.7982657758314
 21
454.8417187354263
  0
LINE
  8
_0-1_1_5
  6
CONTINUOUS
 62
    7
 10
1091.5920330861015
 20
451.3419147468345
 11
1092.998265775831
 21
454.8417187354263
  0
LINE
  8
_0-1_1_5
  6
CENTER2
 62
    7
 10
1080.7925704933825
 20
479.11633954612631
 11
1080.7925704933825
 21
446.62189304559149
  0
LINE
  8
_0-1_1_5
  6
CENTER2
 62
    7
 10
1080.7925704933825
 20
449.47500648808659
 11
1080.7925704933825
 21
456.47500648808654
  0
LINE
  8
_0-1_1_5
  6
CENTER2
 62
    7
 10
1080.7925704933825
 20
469.26322610363115
 11
1080.7925704933825
 21
476.26322610363115
  0
LINE
  8
_0-1_1_5
  6
CENTER2
 62
    7
 10
1074.2925704933825
 20
482.86911629585887
 11
1080.7925704933825
 21
479.11633954612631
  0
LINE
  8
_0-1_1_5
  6
CENTER2
 62
    7
 10
1074.2925704933825
 20
442.86911629585887
 11
1080.7925704933825
 21
446.62189304559149
  0
ENDSEC
  0
EOF
