  0
SECTION
  2
HEADER
  9
$ACADVER
  1
AC1021
  9
$ACADMAINTVER
 70
    25
  9
$DWGCODEPAGE
  3
ANSI_932
  9
$LASTSAVEDBY
  1
tform
  9
$INSBASE
 10
0.0
 20
0.0
 30
0.0
  9
$EXTMIN
 10
-217.5497668470169
 20
-210.6015747910533
 30
0.0
  9
$EXTMAX
 10
1267.450233152983
 20
839.3984252089467
 30
0.0
  9
$LIMMIN
 10
0.0
 20
0.0
  9
$LIMMAX
 10
1485.0
 20
1050.0
  9
$ORTHOMODE
 70
     0
  9
$REGENMODE
 70
     1
  9
$FILLMODE
 70
     1
  9
$QTEXTMODE
 70
     0
  9
$MIRRTEXT
 70
     1
  9
$LTSCALE
 40
5.0
  9
$ATTMODE
 70
     1
  9
$TEXTSIZE
 40
0.2
  9
$TRACEWID
 40
0.05
  9
$TEXTSTYLE
  7
STANDARD
  9
$CLAYER
  8
0
  9
$CELTYPE
  6
ByBlock
  9
$CECOLOR
 62
   256
  9
$CELTSCALE
 40
1.0
  9
$DISPSILH
 70
     0
  9
$DIMSCALE
 40
1.0
  9
$DIMASZ
 40
0.18
  9
$DIMEXO
 40
0.0625
  9
$DIMDLI
 40
0.38
  9
$DIMRND
 40
0.0
  9
$DIMDLE
 40
0.0
  9
$DIMEXE
 40
0.18
  9
$DIMTP
 40
0.0
  9
$DIMTM
 40
0.0
  9
$DIMTXT
 40
0.18
  9
$DIMCEN
 40
0.09
  9
$DIMTSZ
 40
0.0
  9
$DIMTOL
 70
     0
  9
$DIMLIM
 70
     0
  9
$DIMTIH
 70
     1
  9
$DIMTOH
 70
     1
  9
$DIMSE1
 70
     0
  9
$DIMSE2
 70
     0
  9
$DIMTAD
 70
     0
  9
$DIMZIN
 70
     0
  9
$DIMBLK
  1

  9
$DIMASO
 70
     1
  9
$DIMSHO
 70
     1
  9
$DIMPOST
  1

  9
$DIMAPOST
  1

  9
$DIMALT
 70
     0
  9
$DIMALTD
 70
     2
  9
$DIMALTF
 40
25.4
  9
$DIMLFAC
 40
1.0
  9
$DIMTOFL
 70
     0
  9
$DIMTVP
 40
0.0
  9
$DIMTIX
 70
     0
  9
$DIMSOXD
 70
     0
  9
$DIMSAH
 70
     0
  9
$DIMBLK1
  1

  9
$DIMBLK2
  1

  9
$DIMSTYLE
  2
Standard
  9
$DIMCLRD
 70
     0
  9
$DIMCLRE
 70
     0
  9
$DIMCLRT
 70
     0
  9
$DIMTFAC
 40
1.0
  9
$DIMGAP
 40
0.09
  9
$DIMJUST
 70
     0
  9
$DIMSD1
 70
     0
  9
$DIMSD2
 70
     0
  9
$DIMTOLJ
 70
     1
  9
$DIMTZIN
 70
     0
  9
$DIMALTZ
 70
     0
  9
$DIMALTTZ
 70
     0
  9
$DIMUPT
 70
     0
  9
$DIMDEC
 70
     4
  9
$DIMTDEC
 70
     4
  9
$DIMALTU
 70
     2
  9
$DIMALTTD
 70
     2
  9
$DIMTXSTY
  7
STANDARD
  9
$DIMAUNIT
 70
     0
  9
$DIMADEC
 70
     0
  9
$DIMALTRND
 40
0.0
  9
$DIMAZIN
 70
     0
  9
$DIMDSEP
 70
    46
  9
$DIMATFIT
 70
     3
  9
$DIMFRAC
 70
     0
  9
$DIMLDRBLK
  1

  9
$DIMLUNIT
 70
     2
  9
$DIMLWD
 70
    -2
  9
$DIMLWE
 70
    -2
  9
$DIMTMOVE
 70
     2
  9
$DIMFXL
 40
1.0
  9
$DIMFXLON
 70
     0
  9
$DIMJOGANG
 40
0.7853981633974483
  9
$DIMTFILL
 70
     0
  9
$DIMTFILLCLR
 70
     0
  9
$DIMARCSYM
 70
     0
  9
$DIMLTYPE
  6

  9
$DIMLTEX1
  6

  9
$DIMLTEX2
  6

  9
$LUNITS
 70
     2
  9
$LUPREC
 70
     4
  9
$SKETCHINC
 40
0.1
  9
$FILLETRAD
 40
0.5
  9
$AUNITS
 70
     0
  9
$AUPREC
 70
     0
  9
$MENU
  1
.
  9
$ELEVATION
 40
0.0
  9
$PELEVATION
 40
0.0
  9
$THICKNESS
 40
0.0
  9
$LIMCHECK
 70
     0
  9
$CHAMFERA
 40
0.0
  9
$CHAMFERB
 40
0.0
  9
$CHAMFERC
 40
0.0
  9
$CHAMFERD
 40
0.0
  9
$SKPOLY
 70
     0
  9
$TDCREATE
 40
2457960.677004028
  9
$TDUCREATE
 40
2457960.302004028
  9
$TDUPDATE
 40
2457962.718237361
  9
$TDUUPDATE
 40
2457962.343237361
  9
$TDINDWG
 40
0.0042549769
  9
$TDUSRTIMER
 40
2457962.34242309
  9
$USRTIMER
 70
     1
  9
$ANGBASE
 50
0.0
  9
$ANGDIR
 70
     0
  9
$PDMODE
 70
     0
  9
$PDSIZE
 40
0.0
  9
$PLINEWID
 40
0.0
  9
$SPLFRAME
 70
     0
  9
$SPLINETYPE
 70
     6
  9
$SPLINESEGS
 70
     8
  9
$HANDSEED
  5
24A
  9
$SURFTAB1
 70
     6
  9
$SURFTAB2
 70
     6
  9
$SURFTYPE
 70
     6
  9
$SURFU
 70
     6
  9
$SURFV
 70
     6
  9
$UCSBASE
  2

  9
$UCSNAME
  2

  9
$UCSORG
 10
0.0
 20
0.0
 30
0.0
  9
$UCSXDIR
 10
1.0
 20
0.0
 30
0.0
  9
$UCSYDIR
 10
0.0
 20
1.0
 30
0.0
  9
$UCSORTHOREF
  2

  9
$UCSORTHOVIEW
 70
     0
  9
$UCSORGTOP
 10
0.0
 20
0.0
 30
0.0
  9
$UCSORGBOTTOM
 10
0.0
 20
0.0
 30
0.0
  9
$UCSORGLEFT
 10
0.0
 20
0.0
 30
0.0
  9
$UCSORGRIGHT
 10
0.0
 20
0.0
 30
0.0
  9
$UCSORGFRONT
 10
0.0
 20
0.0
 30
0.0
  9
$UCSORGBACK
 10
0.0
 20
0.0
 30
0.0
  9
$PUCSBASE
  2

  9
$PUCSNAME
  2

  9
$PUCSORG
 10
0.0
 20
0.0
 30
0.0
  9
$PUCSXDIR
 10
1.0
 20
0.0
 30
0.0
  9
$PUCSYDIR
 10
0.0
 20
1.0
 30
0.0
  9
$PUCSORTHOREF
  2

  9
$PUCSORTHOVIEW
 70
     0
  9
$PUCSORGTOP
 10
0.0
 20
0.0
 30
0.0
  9
$PUCSORGBOTTOM
 10
0.0
 20
0.0
 30
0.0
  9
$PUCSORGLEFT
 10
0.0
 20
0.0
 30
0.0
  9
$PUCSORGRIGHT
 10
0.0
 20
0.0
 30
0.0
  9
$PUCSORGFRONT
 10
0.0
 20
0.0
 30
0.0
  9
$PUCSORGBACK
 10
0.0
 20
0.0
 30
0.0
  9
$USERI1
 70
     0
  9
$USERI2
 70
     0
  9
$USERI3
 70
     0
  9
$USERI4
 70
     0
  9
$USERI5
 70
     0
  9
$USERR1
 40
0.0
  9
$USERR2
 40
0.0
  9
$USERR3
 40
0.0
  9
$USERR4
 40
0.0
  9
$USERR5
 40
0.0
  9
$WORLDVIEW
 70
     1
  9
$SHADEDGE
 70
     3
  9
$SHADEDIF
 70
    70
  9
$TILEMODE
 70
     1
  9
$MAXACTVP
 70
    64
  9
$PINSBASE
 10
0.0
 20
0.0
 30
0.0
  9
$PLIMCHECK
 70
     0
  9
$PEXTMIN
 10
1.000000000000000E+20
 20
1.000000000000000E+20
 30
1.000000000000000E+20
  9
$PEXTMAX
 10
-1.000000000000000E+20
 20
-1.000000000000000E+20
 30
-1.000000000000000E+20
  9
$PLIMMIN
 10
0.0
 20
0.0
  9
$PLIMMAX
 10
0.0
 20
0.0
  9
$UNITMODE
 70
     0
  9
$VISRETAIN
 70
     1
  9
$PLINEGEN
 70
     0
  9
$PSLTSCALE
 70
     1
  9
$TREEDEPTH
 70
  3020
  9
$CMLSTYLE
  2
Standard
  9
$CMLJUST
 70
     0
  9
$CMLSCALE
 40
1.0
  9
$PROXYGRAPHICS
 70
     1
  9
$MEASUREMENT
 70
     0
  9
$CELWEIGHT
370
    -1
  9
$ENDCAPS
280
     0
  9
$JOINSTYLE
280
     0
  9
$LWDISPLAY
290
     0
  9
$INSUNITS
 70
     0
  9
$HYPERLINKBASE
  1

  9
$STYLESHEET
  1

  9
$XEDIT
290
     1
  9
$CEPSNTYPE
380
     0
  9
$PSTYLEMODE
290
     1
  9
$FINGERPRINTGUID
  2
{D537CC87-C13F-4167-97FB-D0A8E5225EDC}
  9
$VERSIONGUID
  2
{FAEB1C32-E019-11D5-929B-00C0DF256EC4}
  9
$EXTNAMES
290
     1
  9
$PSVPSCALE
 40
0.0
  9
$OLESTARTUP
290
     0
  9
$SORTENTS
280
   127
  9
$INDEXCTL
280
     0
  9
$HIDETEXT
280
     1
  9
$XCLIPFRAME
290
     0
  9
$HALOGAP
280
     0
  9
$OBSCOLOR
 70
   257
  9
$OBSLTYPE
280
     0
  9
$INTERSECTIONDISPLAY
280
     0
  9
$INTERSECTIONCOLOR
 70
   257
  9
$DIMASSOC
280
     2
  9
$PROJECTNAME
  1

  9
$CAMERADISPLAY
290
     0
  9
$LENSLENGTH
 40
50.0
  9
$CAMERAHEIGHT
 40
0.0
  9
$STEPSPERSEC
 40
2.0
  9
$STEPSIZE
 40
6.0
  9
$3DDWFPREC
 40
2.0
  9
$PSOLWIDTH
 40
0.25
  9
$PSOLHEIGHT
 40
4.0
  9
$LOFTANG1
 40
1.570796326794897
  9
$LOFTANG2
 40
1.570796326794897
  9
$LOFTMAG1
 40
0.0
  9
$LOFTMAG2
 40
0.0
  9
$LOFTPARAM
 70
     7
  9
$LOFTNORMALS
280
     1
  9
$LATITUDE
 40
37.795
  9
$LONGITUDE
 40
-122.394
  9
$NORTHDIRECTION
 40
0.0
  9
$TIMEZONE
 70
 -8000
  9
$LIGHTGLYPHDISPLAY
280
     1
  9
$TILEMODELIGHTSYNCH
280
     1
  9
$SOLIDHIST
280
     0
  9
$SHOWHIST
280
     1
  9
$DWFFRAME
280
     2
  9
$DGNFRAME
280
     2
  9
$REALWORLDSCALE
290
     1
  9
$INTERFERECOLOR
 62
   256
  9
$CSHADOW
280
     0
  9
$SHADOWPLANELOCATION
 40
0.0
  0
ENDSEC
  0
SECTION
  2
CLASSES
  0
CLASS
  1
ACDBDICTIONARYWDFLT
  2
AcDbDictionaryWithDefault
  3
ObjectDBX Classes
 90
        0
 91
        4
280
     0
281
     0
  0
CLASS
  1
SCALE
  2
AcDbScale
  3
ObjectDBX Classes
 90
     1153
 91
        4
280
     0
281
     0
  0
CLASS
  1
VISUALSTYLE
  2
AcDbVisualStyle
  3
ObjectDBX Classes
 90
     4095
 91
        4
280
     0
281
     0
  0
CLASS
  1
MATERIAL
  2
AcDbMaterial
  3
ObjectDBX Classes
 90
     1153
 91
        4
280
     0
281
     0
  0
CLASS
  1
TABLESTYLE
  2
AcDbTableStyle
  3
ObjectDBX Classes
 90
     4095
 91
        4
280
     0
281
     0
  0
CLASS
  1
MLEADERSTYLE
  2
AcDbMLeaderStyle
  3
ACDB_MLEADERSTYLE_CLASS
 90
     4095
 91
        4
280
     0
281
     0
  0
CLASS
  1
SUN
  2
AcDbSun
  3
SCENEOE
 90
     1153
 91
        4
280
     0
281
     0
  0
CLASS
  1
RASTERVARIABLES
  2
AcDbRasterVariables
  3
ISM
 90
        0
 91
        4
280
     0
281
     0
  0
CLASS
  1
DICTIONARYVAR
  2
AcDbDictionaryVar
  3
ObjectDBX Classes
 90
        0
 91
        4
280
     0
281
     0
  0
CLASS
  1
CELLSTYLEMAP
  2
AcDbCellStyleMap
  3
ObjectDBX Classes
 90
     1152
 91
        4
280
     0
281
     0
  0
ENDSEC
  0
SECTION
  2
TABLES
  0
TABLE
  2
VPORT
  5
8
330
0
100
AcDbSymbolTable
 70
     1
  0
VPORT
  5
55
330
8
100
AcDbSymbolTableRecord
100
AcDbViewportTableRecord
  2
*Active
 70
     0
 10
0.0
 20
0.0
 11
1.0
 21
1.0
 12
307.1846516020103
 22
288.9469458380979
 13
0.0
 23
0.0
 14
0.5
 24
0.5
 15
0.5
 25
0.5
 16
0.0
 26
0.0
 36
1.0
 17
0.0
 27
0.0
 37
0.0
 40
1227.256625799565
 41
2.239263803680982
 42
50.0
 43
0.0
 44
0.0
 50
0.0
 51
0.0
 71
    16
 72
   100
 73
     1
 74
     3
 75
     0
 76
     0
 77
     0
 78
     0
281
     0
 65
     1
110
0.0
120
0.0
130
0.0
111
1.0
121
0.0
131
0.0
112
0.0
122
1.0
132
0.0
 79
     0
146
0.0
348
1A4
 60
     3
 61
     5
292
     1
282
     1
141
0.0
142
0.0
 63
   250
361
1C1
  0
ENDTAB
  0
TABLE
  2
LTYPE
  5
5
330
0
100
AcDbSymbolTable
 70
    45
  0
LTYPE
  5
14
330
5
100
AcDbSymbolTableRecord
100
AcDbLinetypeTableRecord
  2
ByBlock
 70
     0
  3

 72
    65
 73
     0
 40
0.0
  0
LTYPE
  5
15
330
5
100
AcDbSymbolTableRecord
100
AcDbLinetypeTableRecord
  2
ByLayer
 70
     0
  3

 72
    65
 73
     0
 40
0.0
  0
LTYPE
  5
16
330
5
100
AcDbSymbolTableRecord
100
AcDbLinetypeTableRecord
  2
CONTINUOUS
 70
     0
  3
実線
 72
    65
 73
     0
 40
0.0
  0
LTYPE
  5
21
330
5
100
AcDbSymbolTableRecord
100
AcDbLinetypeTableRecord
  2
DASHED1
 70
     0
  3
--  --  --  --  --  --  --  --  
 72
    65
 73
     2
 40
2.5
 49
1.25
 74
     0
 49
-1.25
 74
     0
  0
LTYPE
  5
22
330
5
100
AcDbSymbolTableRecord
100
AcDbLinetypeTableRecord
  2
DASHED2
 70
     0
  3
----    ----    ----    ----    
 72
    65
 73
     2
 40
5.0
 49
2.5
 74
     0
 49
-2.5
 74
     0
  0
LTYPE
  5
23
330
5
100
AcDbSymbolTableRecord
100
AcDbLinetypeTableRecord
  2
DASHED3
 70
     0
  3
------  ------  ------  ------  
 72
    65
 73
     2
 40
5.0
 49
3.75
 74
     0
 49
-1.25
 74
     0
  0
LTYPE
  5
24
330
5
100
AcDbSymbolTableRecord
100
AcDbLinetypeTableRecord
  2
CENTER1
 70
     0
  3
----- - ----- - ----- - ----- - 
 72
    65
 73
     4
 40
10.0
 49
6.25
 74
     0
 49
-1.25
 74
     0
 49
1.25
 74
     0
 49
-1.25
 74
     0
  0
LTYPE
  5
25
330
5
100
AcDbSymbolTableRecord
100
AcDbLinetypeTableRecord
  2
CENTER2
 70
     0
  3
----------  --  ----------  --  
 72
    65
 73
     4
 40
20.0
 49
12.5
 74
     0
 49
-2.5
 74
     0
 49
2.5
 74
     0
 49
-2.5
 74
     0
  0
LTYPE
  5
26
330
5
100
AcDbSymbolTableRecord
100
AcDbLinetypeTableRecord
  2
PHANTOM1
 70
     0
  3
--- - - --- - - --- - - --- - - 
 72
    65
 73
     6
 40
9.5
 49
3.25
 74
     0
 49
-1.25
 74
     0
 49
1.25
 74
     0
 49
-1.25
 74
     0
 49
1.25
 74
     0
 49
-1.25
 74
     0
  0
LTYPE
  5
27
330
5
100
AcDbSymbolTableRecord
100
AcDbLinetypeTableRecord
  2
PHANTOM2
 70
     0
  3
--------  -  -  --------  -  -  
 72
    65
 73
     6
 40
20.0
 49
10.0
 74
     0
 49
-2.5
 74
     0
 49
1.25
 74
     0
 49
-2.5
 74
     0
 49
1.25
 74
     0
 49
-2.5
 74
     0
  0
LTYPE
  5
28
330
5
100
AcDbSymbolTableRecord
100
AcDbLinetypeTableRecord
  2
DOT
 70
     0
  3
-   -   -   -   -   -   -   -   
 72
    65
 73
     2
 40
2.5
 49
0.625
 74
     0
 49
-1.875
 74
     0
  0
LTYPE
  5
29
330
5
100
AcDbSymbolTableRecord
100
AcDbLinetypeTableRecord
  2
DUMMY
 70
     0
  3
ダミー
 72
    65
 73
     0
 40
0.0
  0
LTYPE
  5
2A
330
5
100
AcDbSymbolTableRecord
100
AcDbLinetypeTableRecord
  2
RAND1
 70
     0
  3
ランダム線1
 72
    65
 73
     4
 40
10.0
 49
1.0
 74
     0
 49
-2.0
 74
     0
 49
3.0
 74
     0
 49
-4.0
 74
     0
  0
LTYPE
  5
2B
330
5
100
AcDbSymbolTableRecord
100
AcDbLinetypeTableRecord
  2
RAND2
 70
     0
  3
ランダム線2
 72
    65
 73
     4
 40
14.0
 49
2.0
 74
     0
 49
-3.0
 74
     0
 49
4.0
 74
     0
 49
-5.0
 74
     0
  0
LTYPE
  5
2C
330
5
100
AcDbSymbolTableRecord
100
AcDbLinetypeTableRecord
  2
RAND3
 70
     0
  3
ランダム線3
 72
    65
 73
     4
 40
18.0
 49
3.0
 74
     0
 49
-4.0
 74
     0
 49
5.0
 74
     0
 49
-6.0
 74
     0
  0
LTYPE
  5
2D
330
5
100
AcDbSymbolTableRecord
100
AcDbLinetypeTableRecord
  2
RAND4
 70
     0
  3
ランダム線4
 72
    65
 73
     4
 40
22.0
 49
4.0
 74
     0
 49
-5.0
 74
     0
 49
6.0
 74
     0
 49
-7.0
 74
     0
  0
LTYPE
  5
2E
330
5
100
AcDbSymbolTableRecord
100
AcDbLinetypeTableRecord
  2
RAND5
 70
     0
  3
ランダム線5
 72
    65
 73
     4
 40
26.0
 49
5.0
 74
     0
 49
-6.0
 74
     0
 49
7.0
 74
     0
 49
-8.0
 74
     0
  0
LTYPE
  5
2F
330
5
100
AcDbSymbolTableRecord
100
AcDbLinetypeTableRecord
  2
LONG1
 70
     0
  3
----------  --  ----------  --  
 72
    65
 73
     4
 40
40.0
 49
32.5
 74
     0
 49
-2.5
 74
     0
 49
2.5
 74
     0
 49
-2.5
 74
     0
  0
LTYPE
  5
30
330
5
100
AcDbSymbolTableRecord
100
AcDbLinetypeTableRecord
  2
LONG2
 70
     0
  3
--------  -  -  --------  -  -  
 72
    65
 73
     6
 40
40.0
 49
30.0
 74
     0
 49
-2.5
 74
     0
 49
1.25
 74
     0
 49
-2.5
 74
     0
 49
1.25
 74
     0
 49
-2.5
 74
     0
  0
LTYPE
  5
31
330
5
100
AcDbSymbolTableRecord
100
AcDbLinetypeTableRecord
  2
LONG3
 70
     0
  3
+++++++++++++++..+++++++++++++++
 72
    65
 73
     2
 40
40.0
 49
37.5
 74
     0
 49
-2.5
 74
     0
  0
LTYPE
  5
32
330
5
100
AcDbSymbolTableRecord
100
AcDbLinetypeTableRecord
  2
LONG4
 70
     0
  3
+++++++++++++++..+++++++++++++++
 72
    65
 73
     2
 40
80.0
 49
75.0
 74
     0
 49
-5.0
 74
     0
  0
LTYPE
  5
33
330
5
100
AcDbSymbolTableRecord
100
AcDbLinetypeTableRecord
  2
LONG5
 70
     0
  3
----------  --  ----------  --  
 72
    65
 73
     4
 40
60.0
 49
37.5
 74
     0
 49
-7.5
 74
     0
 49
7.5
 74
     0
 49
-7.5
 74
     0
  0
LTYPE
  5
34
330
5
100
AcDbSymbolTableRecord
100
AcDbLinetypeTableRecord
  2
dashed
 70
     0
  3
-------   -------------   ------
 72
    65
 73
     2
 40
7.5
 49
6.0
 74
     0
 49
-1.5
 74
     0
  0
LTYPE
  5
35
330
5
100
AcDbSymbolTableRecord
100
AcDbLinetypeTableRecord
  2
dashed_spaced
 70
     0
  3
----        --------        ----
 72
    65
 73
     2
 40
12.0
 49
6.0
 74
     0
 49
-6.0
 74
     0
  0
LTYPE
  5
36
330
5
100
AcDbSymbolTableRecord
100
AcDbLinetypeTableRecord
  2
long_dashed_dotted
 70
     0
  3
------------- --- --------------
 72
    65
 73
     4
 40
15.25
 49
12.0
 74
     0
 49
-1.5
 74
     0
 49
0.25
 74
     0
 49
-1.5
 74
     0
  0
LTYPE
  5
37
330
5
100
AcDbSymbolTableRecord
100
AcDbLinetypeTableRecord
  2
long_dashed_double-dotted
 70
     0
  3
----------- --- --- ------------
 72
    65
 73
     6
 40
17.0
 49
12.0
 74
     0
 49
-1.5
 74
     0
 49
0.25
 74
     0
 49
-1.5
 74
     0
 49
0.25
 74
     0
 49
-1.5
 74
     0
  0
LTYPE
  5
38
330
5
100
AcDbSymbolTableRecord
100
AcDbLinetypeTableRecord
  2
long_dashed_triplicate-dotted
 70
     0
  3
--------- --- --- --- ----------
 72
    65
 73
     8
 40
18.75
 49
12.0
 74
     0
 49
-1.5
 74
     0
 49
0.25
 74
     0
 49
-1.5
 74
     0
 49
0.25
 74
     0
 49
-1.5
 74
     0
 49
0.25
 74
     0
 49
-1.5
 74
     0
  0
LTYPE
  5
39
330
5
100
AcDbSymbolTableRecord
100
AcDbLinetypeTableRecord
  2
dotted
 70
     0
  3
   -       -       -       -    
 72
    65
 73
     2
 40
1.75
 49
0.25
 74
     0
 49
-1.5
 74
     0
  0
LTYPE
  5
3A
330
5
100
AcDbSymbolTableRecord
100
AcDbLinetypeTableRecord
  2
chain
 70
     0
  3
-------------- -- --------------
 72
    65
 73
     4
 40
18.5
 49
12.0
 74
     0
 49
-1.5
 74
     0
 49
3.5
 74
     0
 49
-1.5
 74
     0
  0
LTYPE
  5
3B
330
5
100
AcDbSymbolTableRecord
100
AcDbLinetypeTableRecord
  2
chain_double_dash
 70
     0
  3
------------ -- -- -------------
 72
    65
 73
     6
 40
23.5
 49
12.0
 74
     0
 49
-1.5
 74
     0
 49
3.5
 74
     0
 49
-1.5
 74
     0
 49
3.5
 74
     0
 49
-1.5
 74
     0
  0
LTYPE
  5
3C
330
5
100
AcDbSymbolTableRecord
100
AcDbLinetypeTableRecord
  2
dashed_dotted
 70
     0
  3
-----------     -     ----------
 72
    65
 73
     4
 40
9.25
 49
6.0
 74
     0
 49
-1.5
 74
     0
 49
0.25
 74
     0
 49
-1.5
 74
     0
  0
LTYPE
  5
3D
330
5
100
AcDbSymbolTableRecord
100
AcDbLinetypeTableRecord
  2
double-dashed_dotted
 70
     0
  3
------   -----------   -   -----
 72
    65
 73
     6
 40
16.75
 49
6.0
 74
     0
 49
-1.5
 74
     0
 49
6.0
 74
     0
 49
-1.5
 74
     0
 49
0.25
 74
     0
 49
-1.5
 74
     0
  0
LTYPE
  5
3E
330
5
100
AcDbSymbolTableRecord
100
AcDbLinetypeTableRecord
  2
dashed_double-dotted
 70
     0
  3
---------    -    -    ---------
 72
    65
 73
     6
 40
11.0
 49
6.0
 74
     0
 49
-1.5
 74
     0
 49
0.25
 74
     0
 49
-1.5
 74
     0
 49
0.25
 74
     0
 49
-1.5
 74
     0
  0
LTYPE
  5
3F
330
5
100
AcDbSymbolTableRecord
100
AcDbLinetypeTableRecord
  2
double-dashed_double-dotted
 70
     0
  3
-----   ---------   -   -   ----
 72
    65
 73
     8
 40
18.5
 49
6.0
 74
     0
 49
-1.5
 74
     0
 49
6.0
 74
     0
 49
-1.5
 74
     0
 49
0.25
 74
     0
 49
-1.5
 74
     0
 49
0.25
 74
     0
 49
-1.5
 74
     0
  0
LTYPE
  5
40
330
5
100
AcDbSymbolTableRecord
100
AcDbLinetypeTableRecord
  2
dashed_triplicate-dotted
 70
     0
  3
-------    -    -    -    ------
 72
    65
 73
     8
 40
12.75
 49
6.0
 74
     0
 49
-1.5
 74
     0
 49
0.25
 74
     0
 49
-1.5
 74
     0
 49
0.25
 74
     0
 49
-1.5
 74
     0
 49
0.25
 74
     0
 49
-1.5
 74
     0
  0
LTYPE
  5
41
330
5
100
AcDbSymbolTableRecord
100
AcDbLinetypeTableRecord
  2
double-dashed_triplicate-dotted
 70
     0
  3
-----  ---------  -  -  -  -----
 72
    65
 73
    10
 40
20.25
 49
6.0
 74
     0
 49
-1.5
 74
     0
 49
6.0
 74
     0
 49
-1.5
 74
     0
 49
0.25
 74
     0
 49
-1.5
 74
     0
 49
0.25
 74
     0
 49
-1.5
 74
     0
 49
0.25
 74
     0
 49
-1.5
 74
     0
  0
LTYPE
  5
42
330
5
100
AcDbSymbolTableRecord
100
AcDbLinetypeTableRecord
  2
undefined
 70
     0
  3
--------------------------------
 72
    65
 73
     0
 40
0.0
  0
LTYPE
  5
43
330
5
100
AcDbSymbolTableRecord
100
AcDbLinetypeTableRecord
  2
STYLE_01
 70
     0
  3
----        --------        ----
 72
    65
 73
     2
 40
0.4166399999999998
 49
0.2082799999999999
 74
     0
 49
-0.2083599999999999
 74
     0
  0
LTYPE
  5
44
330
5
100
AcDbSymbolTableRecord
100
AcDbLinetypeTableRecord
  2
STYLE_02
 70
     0
  3
------     -----------     -----
 72
    65
 73
     2
 40
0.6944250000000001
 49
0.48607
 74
     0
 49
-0.2083550000000001
 74
     0
  0
LTYPE
  5
45
330
5
100
AcDbSymbolTableRecord
100
AcDbLinetypeTableRecord
  2
STYLE_03
 70
     0
  3
-------   -------------   ------
 72
    65
 73
     2
 40
1.25
 49
1.04164
 74
     0
 49
-0.2083599999999999
 74
     0
  0
LTYPE
  5
46
330
5
100
AcDbSymbolTableRecord
100
AcDbLinetypeTableRecord
  2
STYLE_04
 70
     0
  3
-------  --------------  -------
 72
    65
 73
     2
 40
1.52771
 49
1.319425
 74
     0
 49
-0.208285
 74
     0
  0
LTYPE
  5
47
330
5
100
AcDbSymbolTableRecord
100
AcDbLinetypeTableRecord
  2
STYLE_05
 70
     0
  3
---           -----           --
 72
    65
 73
     2
 40
0.20828
 49
0.069425
 74
     0
 49
-0.138855
 74
     0
  0
LTYPE
  5
48
330
5
100
AcDbSymbolTableRecord
100
AcDbLinetypeTableRecord
  2
STYLE_06
 70
     0
  3
----------      --    ----------
 72
    65
 73
     4
 40
1.04164
 49
0.625
 74
     0
 49
-0.2082799999999999
 74
     0
 49
0.06943
 74
     0
 49
-0.13893
 74
     0
  0
LTYPE
  5
49
330
5
100
AcDbSymbolTableRecord
100
AcDbLinetypeTableRecord
  2
STYLE_07
 70
     0
  3
-----    -----------    -  -----
 72
    65
 73
     6
 40
1.875
 49
0.625
 74
     0
 49
-0.2082799999999999
 74
     0
 49
0.6250000000000001
 74
     0
 49
-0.2083599999999999
 74
     0
 49
0.06943
 74
     0
 49
-0.1389299999999998
 74
     0
  0
LTYPE
  5
4A
330
5
100
AcDbSymbolTableRecord
100
AcDbLinetypeTableRecord
  2
STYLE_08
 70
     0
  3
--------     --    --    -------
 72
    65
 73
     6
 40
1.25
 49
0.625
 74
     0
 49
-0.2082799999999999
 74
     0
 49
0.06943
 74
     0
 49
-0.13893
 74
     0
 49
0.0694299999999997
 74
     0
 49
-0.13893
 74
     0
  0
LTYPE
  5
4B
330
5
100
AcDbSymbolTableRecord
100
AcDbLinetypeTableRecord
  2
STYLE_09
 70
     0
  3
------------  ----  ------------
 72
    65
 73
     4
 40
5.0
 49
3.75
 74
     0
 49
-0.2777849999999997
 74
     0
 49
0.6944300000000003
 74
     0
 49
-0.2777849999999997
 74
     0
  0
LTYPE
  5
4C
330
5
100
AcDbSymbolTableRecord
100
AcDbLinetypeTableRecord
  2
STYLE_10
 70
     0
  3
----------- ---- ---  ----------
 72
    65
 73
     6
 40
5.9375
 49
3.75
 74
     0
 49
-0.2777849999999997
 74
     0
 49
0.6944300000000003
 74
     0
 49
-0.2777849999999997
 74
     0
 49
0.625
 74
     0
 49
-0.3125
 74
     0
  0
ENDTAB
  0
TABLE
  2
LAYER
  5
2
102
{ACAD_XDICTIONARY
360
1FA
102
}
330
0
100
AcDbSymbolTable
 70
     8
  0
LAYER
  5
10
330
2
100
AcDbSymbolTableRecord
100
AcDbLayerTableRecord
  2
0
 70
     0
 62
     7
  6
CONTINUOUS
370
    -3
390
F
347
1BB
  0
LAYER
  5
4F
330
2
100
AcDbSymbolTableRecord
100
AcDbLayerTableRecord
  2
_0-0_0
 70
     0
 62
     7
  6
CONTINUOUS
370
    -3
390
F
347
1BB
  0
LAYER
  5
50
330
2
100
AcDbSymbolTableRecord
100
AcDbLayerTableRecord
  2
_0-1_1_5
 70
     0
 62
     7
  6
CONTINUOUS
370
    -3
390
F
347
1BB
  0
LAYER
  5
51
330
2
100
AcDbSymbolTableRecord
100
AcDbLayerTableRecord
  2
_0-2_ADD_LINE
 70
     0
 62
     7
  6
CONTINUOUS
370
    -3
390
F
347
1BB
  0
LAYER
  5
52
330
2
100
AcDbSymbolTableRecord
100
AcDbLayerTableRecord
  2
_0-3_
 70
     0
 62
     7
  6
CONTINUOUS
370
    -3
390
F
347
1BB
  0
LAYER
  5
53
330
2
100
AcDbSymbolTableRecord
100
AcDbLayerTableRecord
  2
ADD_LINE
 70
     0
 62
     7
  6
CONTINUOUS
370
    -3
390
F
347
1BB
  0
LAYER
  5
1CB
330
2
100
AcDbSymbolTableRecord
100
AcDbLayerTableRecord
  2
template
 70
     0
 62
     7
  6
CONTINUOUS
370
    20
390
F
347
1BB
  0
LAYER
  5
1CD
330
2
100
AcDbSymbolTableRecord
100
AcDbLayerTableRecord
  2
Dim
 70
     0
 62
     3
  6
CONTINUOUS
370
    13
390
F
347
1BB
1001
AcAecLayerStandard
1000

1000

  0
ENDTAB
  0
TABLE
  2
STYLE
  5
3
330
0
100
AcDbSymbolTable
 70
     3
  0
STYLE
  5
11
330
3
100
AcDbSymbolTableRecord
100
AcDbTextStyleTableRecord
  2
STANDARD
 70
     0
 40
0.0
 41
1.0
 50
0.0
 71
     0
 42
0.2
  3
txt
  4
bigfont.shx
  0
STYLE
  5
4E
330
3
100
AcDbSymbolTableRecord
100
AcDbTextStyleTableRecord
  2
TATEGAKI
 70
     4
 40
0.0
 41
1.0
 50
0.0
 71
     0
 42
1.0
  3
txt
  4
bigfont.shx
  0
STYLE
  5
1D0
330
3
100
AcDbSymbolTableRecord
100
AcDbTextStyleTableRecord
  2
ＭＳ ゴシック
 70
     0
 40
0.0
 41
1.0
 50
0.0
 71
     0
 42
0.2
  3
msgothic.ttc
  4
ＭＳ ゴシック
1001
ACAD
1000
ＭＳ ゴシック
1071
        0
  0
ENDTAB
  0
TABLE
  2
VIEW
  5
6
330
0
100
AcDbSymbolTable
 70
     0
  0
ENDTAB
  0
TABLE
  2
UCS
  5
7
330
0
100
AcDbSymbolTable
 70
     0
  0
ENDTAB
  0
TABLE
  2
APPID
  5
9
330
0
100
AcDbSymbolTable
 70
     3
  0
APPID
  5
12
330
9
100
AcDbSymbolTableRecord
100
AcDbRegAppTableRecord
  2
ACAD
 70
     0
  0
APPID
  5
1CE
330
9
100
AcDbSymbolTableRecord
100
AcDbRegAppTableRecord
  2
AcAecLayerStandard
 70
     0
  0
APPID
  5
206
330
9
100
AcDbSymbolTableRecord
100
AcDbRegAppTableRecord
  2
ACAD_MLEADERVER
 70
     0
  0
ENDTAB
  0
TABLE
  2
DIMSTYLE
  5
A
330
0
100
AcDbSymbolTable
 70
     2
100
AcDbDimStyleTable
  0
DIMSTYLE
105
54
330
A
100
AcDbSymbolTableRecord
100
AcDbDimStyleTableRecord
  2
Standard
 70
     0
178
     0
340
11
  0
DIMSTYLE
105
1CF
330
A
100
AcDbSymbolTableRecord
100
AcDbDimStyleTableRecord
  2
JIS
 70
     0
  3
<>
  4
[]
 41
9.0
 42
0.0
 43
6.99999999999994
 44
19.9999999999962
 73
     0
 74
     0
 77
     1
 78
    11
140
24.4326171875
141
0.0
143
1.0
147
10.0
171
     1
174
     1
178
     0
179
     2
271
     1
272
     1
276
     2
284
    11
285
    11
286
    11
289
     0
340
1D0
341
1D1
342
1D1
  0
ENDTAB
  0
TABLE
  2
BLOCK_RECORD
  5
1
330
0
100
AcDbSymbolTable
 70
     1
  0
BLOCK_RECORD
  5
1D
330
1
100
AcDbSymbolTableRecord
100
AcDbBlockTableRecord
  2
*Model_Space
340
1E
 70
     0
280
     1
281
     0
  0
BLOCK_RECORD
  5
1B
330
1
100
AcDbSymbolTableRecord
100
AcDbBlockTableRecord
  2
*Paper_Space
340
1C
 70
     0
280
     1
281
     0
  0
BLOCK_RECORD
  5
1D1
330
1
100
AcDbSymbolTableRecord
100
AcDbBlockTableRecord
  2
_DOT
340
0
 70
     0
280
     1
281
     0
  0
ENDTAB
  0
ENDSEC
  0
SECTION
  2
BLOCKS
  0
BLOCK
  5
19B
330
1D
100
AcDbEntity
  8
0
100
AcDbBlockBegin
  2
*Model_Space
 70
     0
 10
0.0
 20
0.0
 30
0.0
  3
*Model_Space
  1

  0
ENDBLK
  5
19C
330
1D
100
AcDbEntity
  8
0
100
AcDbBlockEnd
  0
BLOCK
  5
19D
330
1B
100
AcDbEntity
 67
     1
  8
0
100
AcDbBlockBegin
  2
*Paper_Space
 70
     0
 10
0.0
 20
0.0
 30
0.0
  3
*Paper_Space
  1

  0
ENDBLK
  5
19E
330
1B
100
AcDbEntity
 67
     1
  8
0
100
AcDbBlockEnd
  0
BLOCK
  5
1D2
330
1D1
100
AcDbEntity
  8
0
390
F
100
AcDbBlockBegin
  2
_DOT
 70
     0
 10
0.0
 20
0.0
 30
0.0
  3
_DOT
  1
_DOT
  0
POLYLINE
  5
1D3
330
1D1
100
AcDbEntity
  8
0
  6
ByBlock
 62
     0
370
    -2
390
F
100
AcDb2dPolyline
 66
     1
 10
0.0
 20
0.0
 30
0.0
 70
     1
 40
0.5
 41
0.5
  0
VERTEX
  5
1D4
330
1D3
100
AcDbEntity
  8
0
  6
ByBlock
 62
     0
370
    -2
390
F
100
AcDbVertex
100
AcDb2dVertex
 10
-0.25
 20
0.0
 30
0.0
 42
1.0
  0
VERTEX
  5
1D5
330
1D3
100
AcDbEntity
  8
0
  6
ByBlock
 62
     0
370
    -2
390
F
100
AcDbVertex
100
AcDb2dVertex
 10
0.25
 20
0.0
 30
0.0
 42
1.0
  0
SEQEND
  5
1D6
330
1D3
100
AcDbEntity
  8
0
390
F
  0
LINE
  5
1D7
330
1D1
100
AcDbEntity
  8
0
  6
ByBlock
 62
     0
370
    -2
390
F
100
AcDbLine
 10
-0.5
 20
0.0
 30
0.0
 11
-1.0
 21
0.0
 31
0.0
  0
ENDBLK
  5
1D8
330
1D1
100
AcDbEntity
  8
0
390
F
100
AcDbBlockEnd
  0
ENDSEC
  0
SECTION
  2
ENTITIES
  0
TEXT
  5
56
330
1D
100
AcDbEntity
  8
_0-3_
 62
     7
100
AcDbText
 10
337.9172768628781
 20
-165.7256104023263
 30
0.0
 40
15.2703857421875
  1
ステンレススチール
  7
ＭＳ ゴシック
100
AcDbText
  0
LINE
  5
57
330
1D
100
AcDbEntity
  8
_0-0_0
  6
Continuous
 62
     7
100
AcDbLine
 10
-217.5497668470169
 20
839.3984252089468
 30
0.0
 11
-217.5497668470169
 21
-210.6015747910531
 31
0.0
  0
LINE
  5
58
330
1D
100
AcDbEntity
  8
_0-0_0
  6
Continuous
 62
     7
100
AcDbLine
 10
-217.5497668470169
 20
-210.6015747910531
 30
0.0
 11
1267.450233152983
 21
-210.6015747910533
 31
0.0
  0
LINE
  5
59
330
1D
100
AcDbEntity
  8
_0-0_0
  6
Continuous
 62
     7
100
AcDbLine
 10
1267.450233152983
 20
-210.6015747910533
 30
0.0
 11
1267.450233152983
 21
839.3984252089467
 31
0.0
  0
LINE
  5
5A
330
1D
100
AcDbEntity
  8
_0-0_0
  6
Continuous
 62
     7
100
AcDbLine
 10
1267.450233152983
 20
839.3984252089467
 30
0.0
 11
-217.5497668470169
 21
839.3984252089468
 31
0.0
  0
TEXT
  5
5B
330
1D
100
AcDbEntity
  8
_0-3_
 62
     7
100
AcDbText
 10
303.1435361858484
 20
-157.2512975909325
 30
0.0
 40
10.0
  1
材質
100
AcDbText
  0
TEXT
  5
5C
330
1D
100
AcDbEntity
  8
_0-3_
 62
     7
100
AcDbText
 10
303.1435361858484
 20
-126.0444636542726
 30
0.0
 40
10.0
  1
仕上げ
100
AcDbText
  0
TEXT
  5
5D
330
1D
100
AcDbEntity
  8
_0-3_
 62
     7
100
AcDbText
 10
303.1435361858484
 20
-96.39797141444589
 30
0.0
 40
10.0
  1
品名
100
AcDbText
  0
LINE
  5
5E
330
1D
100
AcDbEntity
  8
_0-3_
  6
Continuous
 62
     7
100
AcDbLine
 10
763.3333333001207
 20
-172.0013536793502
 30
0.0
 11
763.3333333001207
 21
-82.00135367935005
 31
0.0
  0
LINE
  5
5F
330
1D
100
AcDbEntity
  8
_0-3_
  6
Continuous
 62
     7
100
AcDbLine
 10
1230.000000000121
 20
-82.00135367935005
 30
0.0
 11
295.7639372119119
 21
-82.00135367935005
 31
0.0
  0
LINE
  5
60
330
1D
100
AcDbEntity
  8
_0-3_
  6
Continuous
 62
     7
100
AcDbLine
 10
1230.000000000121
 20
-112.00135367935
 30
0.0
 11
295.7639372119119
 21
-112.00135367935
 31
0.0
  0
LINE
  5
61
330
1D
100
AcDbEntity
  8
_0-3_
  6
Continuous
 62
     7
100
AcDbLine
 10
1230.000000000121
 20
-142.00135367935
 30
0.0
 11
295.7639372119119
 21
-142.00135367935
 31
0.0
  0
LINE
  5
62
330
1D
100
AcDbEntity
  8
_0-3_
  6
Continuous
 62
     7
100
AcDbLine
 10
295.7639372119119
 20
-172.00135367935
 30
0.0
 11
295.7639372119119
 21
-82.00135367935005
 31
0.0
  0
TEXT
  5
63
330
1D
100
AcDbEntity
  8
_0-3_
 62
     7
100
AcDbText
 10
769.7661167326717
 20
-97.65079861352163
 30
0.0
 40
10.0
  1
品番
100
AcDbText
  0
TEXT
  5
64
330
1D
100
AcDbEntity
  8
_0-3_
 62
     7
100
AcDbText
 10
769.7661167326717
 20
-126.8476054102518
 30
0.0
 40
10.0
  1
縮尺
100
AcDbText
  0
TEXT
  5
65
330
1D
100
AcDbEntity
  8
_0-3_
 62
     7
100
AcDbText
 10
805.6412288117517
 20
-135.0009158097228
 30
0.0
 40
15.2703857421875
  1
1/5
  7
ＭＳ ゴシック
100
AcDbText
  0
TEXT
  5
66
330
1D
100
AcDbEntity
  8
_0-3_
 62
     7
100
AcDbText
 10
-167.2202349664116
 20
-191.8129578821069
 30
0.0
 40
12.5
  1
120718SH
  7
ＭＳ ゴシック
100
AcDbText
  0
LINE
  5
67
330
1D
100
AcDbEntity
  8
_0-3_
  6
Continuous
 62
     7
100
AcDbLine
 10
-169.9999999998792
 20
802.9986463206502
 30
0.0
 11
-169.9999999998792
 21
-172.00135367935
 31
0.0
  0
LINE
  5
68
330
1D
100
AcDbEntity
  8
_0-3_
  6
Continuous
 62
     7
100
AcDbLine
 10
-169.9999999998792
 20
-172.00135367935
 30
0.0
 11
1230.000000000121
 21
-172.0013536793502
 31
0.0
  0
LINE
  5
69
330
1D
100
AcDbEntity
  8
_0-3_
  6
Continuous
 62
     7
100
AcDbLine
 10
1230.000000000121
 20
-172.0013536793502
 30
0.0
 11
1230.000000000121
 21
802.9986463206501
 31
0.0
  0
LINE
  5
6A
330
1D
100
AcDbEntity
  8
_0-3_
  6
Continuous
 62
     7
100
AcDbLine
 10
1230.000000000121
 20
802.9986463206501
 30
0.0
 11
-169.9999999998792
 21
802.9986463206502
 31
0.0
  0
TEXT
  5
6B
330
1D
100
AcDbEntity
  8
_0-3_
 62
     7
100
AcDbText
 10
337.9172768628781
 20
-104.7043740392849
 30
0.0
 40
15.2703857421875
  1
タオルバー
  7
ＭＳ ゴシック
100
AcDbText
  0
TEXT
  5
6C
330
1D
100
AcDbEntity
  8
_0-3_
 62
     7
100
AcDbText
 10
804.6090696281932
 20
-167.4921497360464
 30
0.0
 40
15.5
  1
大洋金物株式会社  ティーエフプラス事業部
  7
ＭＳ ゴシック
100
AcDbText
  0
TEXT
  5
6D
330
1D
100
AcDbEntity
  8
_0-3_
 62
     7
100
AcDbText
 10
337.9172768628781
 20
-135.472383381087
 30
0.0
 40
15.2703857421875
  1
サテン/ホワイト
  7
ＭＳ ゴシック
100
AcDbText
  0
POINT
  5
6E
330
1D
100
AcDbEntity
  8
_0-2_ADD_LINE
 62
     7
100
AcDbPoint
 10
979.4198516573999
 20
520.243010183196
 30
0.0
  0
LINE
  5
6F
330
1D
100
AcDbEntity
  8
_0-2_ADD_LINE
  6
Continuous
 62
     7
100
AcDbLine
 10
979.4198516573999
 20
520.243010183196
 30
0.0
 11
979.4198516573999
 21
497.8691162958588
 31
0.0
  0
POINT
  5
70
330
1D
100
AcDbEntity
  8
_0-2_ADD_LINE
 62
     7
100
AcDbPoint
 10
655.8145358627861
 20
520.243010183196
 30
0.0
  0
POINT
  5
71
330
1D
100
AcDbEntity
  8
_0-2_ADD_LINE
 62
     7
100
AcDbPoint
 10
680.8145358627861
 20
545.1090357602561
 30
0.0
  0
LINE
  5
72
330
1D
100
AcDbEntity
  8
_0-2_ADD_LINE
  6
Continuous
 62
     7
100
AcDbLine
 10
655.8145358627861
 20
520.243010183196
 30
0.0
 11
655.8145358627861
 21
492.8691162958588
 31
0.0
  0
LINE
  5
73
330
1D
100
AcDbEntity
  8
_0-2_ADD_LINE
  6
Continuous
 62
     7
100
AcDbLine
 10
712.9309775566976
 20
182.8687768643252
 30
0.0
 11
712.9309775566976
 21
214.8687768643253
 31
0.0
  0
POINT
  5
74
330
1D
100
AcDbEntity
  8
_0-2_ADD_LINE
 62
     7
100
AcDbPoint
 10
712.9309775566976
 20
182.9837183428574
 30
0.0
  0
POINT
  5
75
330
1D
100
AcDbEntity
  8
_0-2_ADD_LINE
 62
     7
100
AcDbPoint
 10
712.9309775566976
 20
237.9837183428574
 30
0.0
  0
LINE
  5
76
330
1D
100
AcDbEntity
  8
_0-2_ADD_LINE
  6
Continuous
 62
     7
100
AcDbLine
 10
712.9309775566976
 20
182.9837183428574
 30
0.0
 11
712.9309775566976
 21
237.9837183428574
 31
0.0
  0
TEXT
  5
77
330
1D
100
AcDbEntity
  8
_0-2_ADD_LINE
 62
     4
100
AcDbText
 10
710.4309775566976
 20
204.2337183428574
 30
0.0
 40
12.5
  1
55
 50
90.0
  7
ＭＳ ゴシック
100
AcDbText
  0
POINT
  5
78
330
1D
100
AcDbEntity
  8
_0-2_ADD_LINE
 62
     7
100
AcDbPoint
 10
902.881544525856
 20
467.8691162958588
 30
0.0
  0
POINT
  5
79
330
1D
100
AcDbEntity
  8
_0-2_ADD_LINE
 62
     7
100
AcDbPoint
 10
902.881544525856
 20
457.8691162958588
 30
0.0
  0
LINE
  5
7A
330
1D
100
AcDbEntity
  8
_0-2_ADD_LINE
  6
Continuous
 62
     7
100
AcDbLine
 10
902.881544525856
 20
467.8691162958588
 30
0.0
 11
919.4167882189345
 21
467.8691162958588
 31
0.0
  0
LINE
  5
7B
330
1D
100
AcDbEntity
  8
_0-2_ADD_LINE
  6
Continuous
 62
     7
100
AcDbLine
 10
902.881544525856
 20
457.8691162958588
 30
0.0
 11
919.4167882189345
 21
457.8691162958588
 31
0.0
  0
LINE
  5
7C
330
1D
100
AcDbEntity
  8
_0-2_ADD_LINE
  6
Continuous
 62
     7
100
AcDbLine
 10
902.881544525856
 20
467.8691162958588
 30
0.0
 11
902.881544525856
 21
457.8691162958588
 31
0.0
  0
TEXT
  5
7D
330
1D
100
AcDbEntity
  8
_0-2_ADD_LINE
 62
     4
100
AcDbText
 10
900.381544525856
 20
456.6191162958588
 30
0.0
 40
12.5
  1
10
 50
90.0
  7
ＭＳ ゴシック
100
AcDbText
  0
ARC
  5
7E
330
1D
100
AcDbEntity
  8
_0-1_1_5
  6
Continuous
 62
     7
100
AcDbCircle
 10
655.8145358627861
 20
462.8691162958588
 30
0.0
 40
25.0
100
AcDbArc
 50
191.5369590328155
 51
168.4630409671845
  0
ARC
  5
7F
330
1D
100
AcDbEntity
  8
_0-1_1_5
  6
Continuous
 62
     7
100
AcDbCircle
 10
655.8145358627861
 20
462.8691162958588
 30
0.0
 40
5.0
100
AcDbArc
 50
270.0
 51
90.0
  0
CIRCLE
  5
80
330
1D
100
AcDbEntity
  8
_0-1_1_5
  6
Continuous
 62
     7
100
AcDbCircle
 10
655.8145358627861
 20
445.1191162958588
 30
0.0
 40
2.25
  0
CIRCLE
  5
81
330
1D
100
AcDbEntity
  8
_0-1_1_5
  6
Continuous
 62
     7
100
AcDbCircle
 10
655.8145358627861
 20
445.1191162958588
 30
0.0
 40
4.25
  0
CIRCLE
  5
82
330
1D
100
AcDbEntity
  8
_0-1_1_5
  6
Continuous
 62
     7
100
AcDbCircle
 10
655.8145358627861
 20
480.6191162958588
 30
0.0
 40
2.25
  0
CIRCLE
  5
83
330
1D
100
AcDbEntity
  8
_0-1_1_5
  6
Continuous
 62
     7
100
AcDbCircle
 10
655.8145358627861
 20
480.6191162958588
 30
0.0
 40
4.25
  0
ARC
  5
84
330
1D
100
AcDbEntity
  8
_0-1_1_5
  6
DASHED1
 62
     7
100
AcDbCircle
 10
655.8145358627861
 20
462.8691162958588
 30
0.0
 40
5.0
100
AcDbArc
 50
90.0
 51
270.0
  0
ARC
  5
85
330
1D
100
AcDbEntity
  8
_0-1_1_5
  6
DASHED1
 62
     7
100
AcDbCircle
 10
655.8145358627861
 20
462.8691162958588
 30
0.0
 40
25.0
100
AcDbArc
 50
168.4630409671845
 51
191.310999838446
  0
LINE
  5
86
330
1D
100
AcDbEntity
  8
_0-1_1_5
  6
Continuous
 62
     7
100
AcDbLine
 10
977.4198516574
 20
437.8691162958588
 30
0.0
 11
977.4198516574
 21
487.8691162958588
 31
0.0
  0
LINE
  5
87
330
1D
100
AcDbEntity
  8
_0-1_1_5
  6
Continuous
 62
     7
100
AcDbLine
 10
977.4198516574
 20
487.8691162958588
 30
0.0
 11
979.4198516573999
 21
487.8691162958588
 31
0.0
  0
LINE
  5
88
330
1D
100
AcDbEntity
  8
_0-1_1_5
  6
Continuous
 62
     7
100
AcDbLine
 10
979.4198516573999
 20
487.8691162958588
 30
0.0
 11
979.4198516573999
 21
437.8691162958588
 31
0.0
  0
LINE
  5
89
330
1D
100
AcDbEntity
  8
_0-1_1_5
  6
Continuous
 62
     7
100
AcDbLine
 10
979.4198516573999
 20
437.8691162958588
 30
0.0
 11
977.4198516574
 21
437.8691162958588
 31
0.0
  0
LINE
  5
8A
330
1D
100
AcDbEntity
  8
_0-1_1_5
  6
Continuous
 62
     7
100
AcDbLine
 10
977.4198516574
 20
467.8691162958588
 30
0.0
 11
929.4167882189345
 21
467.8691162958588
 31
0.0
  0
LINE
  5
8B
330
1D
100
AcDbEntity
  8
_0-1_1_5
  6
Continuous
 62
     7
100
AcDbLine
 10
977.4198516574
 20
457.8691162958588
 30
0.0
 11
929.4198516573999
 21
457.8691162958588
 31
0.0
  0
ARC
  5
8C
330
1D
100
AcDbEntity
  8
_0-1_1_5
  6
Continuous
 62
     7
100
AcDbCircle
 10
929.4167882189345
 20
462.8691162958588
 30
0.0
 40
5.0
100
AcDbArc
 50
90.0
 51
270.0
  0
ARC
  5
8D
330
1D
100
AcDbEntity
  8
_0-1_1_5
  6
DASHED1
 62
     7
100
AcDbCircle
 10
929.4167882189345
 20
462.8691162958588
 30
0.0
 40
5.0
100
AcDbArc
 50
270.0
 51
90.0
  0
POINT
  5
8E
330
1D
100
AcDbEntity
  8
_0-2_ADD_LINE
 62
     7
100
AcDbPoint
 10
929.4198516574
 20
520.243010183196
 30
0.0
  0
LINE
  5
8F
330
1D
100
AcDbEntity
  8
_0-2_ADD_LINE
  6
Continuous
 62
     7
100
AcDbLine
 10
979.4198516573999
 20
520.243010183196
 30
0.0
 11
929.4198516574
 21
520.243010183196
 31
0.0
  0
TEXT
  5
90
330
1D
100
AcDbEntity
  8
_0-2_ADD_LINE
 62
     4
100
AcDbText
 10
948.1698516573999
 20
522.743010183196
 30
0.0
 40
12.5
  1
50
  7
ＭＳ ゴシック
100
AcDbText
  0
LINE
  5
91
330
1D
100
AcDbEntity
  8
_0-2_ADD_LINE
  6
Continuous
 62
     7
100
AcDbLine
 10
929.4198516574
 20
520.243010183196
 30
0.0
 11
929.4198516574
 21
475.3691162958588
 31
0.0
  0
LINE
  5
92
330
1D
100
AcDbEntity
  8
_0-2_ADD_LINE
  6
Continuous
 62
     7
100
AcDbLine
 10
680.8145358627861
 20
545.1090357602561
 30
0.0
 11
680.8145358627861
 21
475.3691162958588
 31
0.0
  0
LINE
  5
93
330
1D
100
AcDbEntity
  8
_0-1_1_5
  6
DASHED1
 62
     7
100
AcDbLine
 10
977.4198516574
 20
484.3691162958588
 30
0.0
 11
978.9198516574002
 21
482.8691162958587
 31
0.0
  0
LINE
  5
94
330
1D
100
AcDbEntity
  8
_0-1_1_5
  6
STYLE_01
 62
     7
100
AcDbLine
 10
977.5266673643214
 20
477.1191162958589
 30
0.0
 11
979.276765370025
 21
478.869214301563
 31
0.0
  0
LINE
  5
95
330
1D
100
AcDbEntity
  8
_0-1_1_5
  6
DASHED2
 62
     7
100
AcDbLine
 10
981.3261299570404
 20
478.9860245546068
 30
0.0
 11
982.7323626467703
 21
482.4858285431986
 31
0.0
  0
LINE
  5
96
330
1D
100
AcDbEntity
  8
_0-1_1_5
  6
DASHED2
 62
     7
100
AcDbLine
 10
979.9261299570403
 20
478.9860245546068
 30
0.0
 11
981.3323626467704
 21
482.4858285431986
 31
0.0
  0
LINE
  5
97
330
1D
100
AcDbEntity
  8
_0-1_1_5
  6
DASHED2
 62
     7
100
AcDbLine
 10
979.2767653700255
 20
480.8541910618493
 30
0.0
 11
979.9323626467699
 21
482.4858285431986
 31
0.0
  0
LINE
  5
98
330
1D
100
AcDbEntity
  8
_0-1_1_5
  6
DASHED2
 62
     7
100
AcDbLine
 10
979.2767653700255
 20
482.3690182901547
 30
0.0
 11
979.2767653700255
 21
478.869214301563
 31
0.0
  0
LINE
  5
99
330
1D
100
AcDbEntity
  8
_0-1_1_5
  6
DASHED2
 62
     7
100
AcDbLine
 10
977.5266673643214
 20
484.1191162958589
 30
0.0
 11
979.2767653700255
 21
482.3690182901547
 31
0.0
  0
LINE
  5
9A
330
1D
100
AcDbEntity
  8
_0-1_1_5
  6
Continuous
 62
     7
100
AcDbLine
 10
1019.475714510554
 20
480.6191162958588
 30
0.0
 11
1013.850783751635
 21
478.869214301563
 31
0.0
  0
LINE
  5
9B
330
1D
100
AcDbEntity
  8
_0-1_1_5
  6
Continuous
 62
     7
100
AcDbLine
 10
991.3510607159593
 20
478.9860245546068
 30
0.0
 11
992.7572934056888
 21
482.4858285431986
 31
0.0
  0
LINE
  5
9C
330
1D
100
AcDbEntity
  8
_0-1_1_5
  6
Continuous
 62
     7
100
AcDbLine
 10
992.7572934056888
 20
478.9860245546068
 30
0.0
 11
994.163526095419
 21
482.4858285431986
 31
0.0
  0
LINE
  5
9D
330
1D
100
AcDbEntity
  8
_0-1_1_5
  6
Continuous
 62
     7
100
AcDbLine
 10
998.3822241646083
 20
478.9860245546068
 30
0.0
 11
999.7884568543379
 21
482.4858285431986
 31
0.0
  0
LINE
  5
9E
330
1D
100
AcDbEntity
  8
_0-1_1_5
  6
Continuous
 62
     7
100
AcDbLine
 10
996.9759914748782
 20
478.9860245546068
 30
0.0
 11
998.3822241646083
 21
482.4858285431986
 31
0.0
  0
LINE
  5
9F
330
1D
100
AcDbEntity
  8
_0-1_1_5
  6
Continuous
 62
     7
100
AcDbLine
 10
999.7884568543379
 20
478.9860245546068
 30
0.0
 11
1001.194689544068
 21
482.4858285431986
 31
0.0
  0
LINE
  5
A0
330
1D
100
AcDbEntity
  8
_0-1_1_5
  6
Continuous
 62
     7
100
AcDbLine
 10
1001.194689544068
 20
478.9860245546068
 30
0.0
 11
1002.600922233797
 21
482.4858285431986
 31
0.0
  0
LINE
  5
A1
330
1D
100
AcDbEntity
  8
_0-1_1_5
  6
Continuous
 62
     7
100
AcDbLine
 10
1002.600922233797
 20
478.9860245546068
 30
0.0
 11
1004.007154923527
 21
482.4858285431986
 31
0.0
  0
LINE
  5
A2
330
1D
100
AcDbEntity
  8
_0-1_1_5
  6
Continuous
 62
     7
100
AcDbLine
 10
1004.007154923527
 20
478.9860245546068
 30
0.0
 11
1005.413387613257
 21
482.4858285431986
 31
0.0
  0
LINE
  5
A3
330
1D
100
AcDbEntity
  8
_0-1_1_5
  6
Continuous
 62
     7
100
AcDbLine
 10
1005.413387613257
 20
478.9860245546068
 30
0.0
 11
1006.819620302987
 21
482.4858285431986
 31
0.0
  0
LINE
  5
A4
330
1D
100
AcDbEntity
  8
_0-1_1_5
  6
Continuous
 62
     7
100
AcDbLine
 10
1006.819620302987
 20
478.9860245546068
 30
0.0
 11
1008.225852992716
 21
482.4858285431986
 31
0.0
  0
LINE
  5
A5
330
1D
100
AcDbEntity
  8
_0-1_1_5
  6
Continuous
 62
     7
100
AcDbLine
 10
994.163526095419
 20
478.9860245546068
 30
0.0
 11
995.5697587851485
 21
482.4858285431986
 31
0.0
  0
LINE
  5
A6
330
1D
100
AcDbEntity
  8
_0-1_1_5
  6
Continuous
 62
     7
100
AcDbLine
 10
1008.225852992716
 20
478.9860245546068
 30
0.0
 11
1009.632085682446
 21
482.4858285431986
 31
0.0
  0
LINE
  5
A7
330
1D
100
AcDbEntity
  8
_0-1_1_5
  6
Continuous
 62
     7
100
AcDbLine
 10
1011.038318372176
 20
478.9860245546068
 30
0.0
 11
1012.444551061906
 21
482.4858285431986
 31
0.0
  0
LINE
  5
A8
330
1D
100
AcDbEntity
  8
_0-1_1_5
  6
Continuous
 62
     7
100
AcDbLine
 10
1012.444551061906
 20
478.9860245546068
 30
0.0
 11
1013.850783751635
 21
482.4858285431986
 31
0.0
  0
LINE
  5
A9
330
1D
100
AcDbEntity
  8
_0-1_1_5
  6
Continuous
 62
     7
100
AcDbLine
 10
1009.632085682446
 20
478.9860245546068
 30
0.0
 11
1011.038318372176
 21
482.4858285431986
 31
0.0
  0
LINE
  5
AA
330
1D
100
AcDbEntity
  8
_0-1_1_5
  6
Continuous
 62
     7
100
AcDbLine
 10
995.5697587851485
 20
478.9860245546068
 30
0.0
 11
996.9759914748782
 21
482.4858285431986
 31
0.0
  0
LINE
  5
AB
330
1D
100
AcDbEntity
  8
_0-1_1_5
  6
Continuous
 62
     7
100
AcDbLine
 10
1013.850229822987
 20
482.3690182901547
 30
0.0
 11
1019.475714510554
 21
480.6191162958588
 31
0.0
  0
LINE
  5
AC
330
1D
100
AcDbEntity
  8
_0-1_1_5
  6
DASHED1
 62
     7
100
AcDbLine
 10
977.4198516574
 20
476.8691162958588
 30
0.0
 11
978.9198516574002
 21
478.3691162958586
 31
0.0
  0
LINE
  5
AD
330
1D
100
AcDbEntity
  8
_0-1_1_5
  6
DASHED2
 62
     7
100
AcDbLine
 10
979.2767653700255
 20
478.8692143015633
 30
0.0
 11
982.4198516574
 21
478.8692143015633
 31
0.0
  0
LINE
  5
AE
330
1D
100
AcDbEntity
  8
_0-1_1_5
  6
DASHED2
 62
     7
100
AcDbLine
 10
979.2767653700255
 20
482.3690182901547
 30
0.0
 11
982.4198516574
 21
482.3690182901547
 31
0.0
  0
LINE
  5
AF
330
1D
100
AcDbEntity
  8
_0-1_1_5
  6
Continuous
 62
     7
100
AcDbLine
 10
982.4198516574
 20
478.869214301563
 30
0.0
 11
1013.850783751635
 21
478.869214301563
 31
0.0
  0
LINE
  5
B0
330
1D
100
AcDbEntity
  8
_0-1_1_5
  6
Continuous
 62
     7
100
AcDbLine
 10
982.4198516574
 20
482.3690182901547
 30
0.0
 11
1013.850229822987
 21
482.3690182901547
 31
0.0
  0
LINE
  5
B1
330
1D
100
AcDbEntity
  8
_0-1_1_5
  6
Continuous
 62
     7
100
AcDbLine
 10
989.7261299570405
 20
478.9860245546068
 30
0.0
 11
991.1323626467699
 21
482.4858285431986
 31
0.0
  0
LINE
  5
B2
330
1D
100
AcDbEntity
  8
_0-1_1_5
  6
Continuous
 62
     7
100
AcDbLine
 10
988.3261299570402
 20
478.9860245546068
 30
0.0
 11
989.7323626467701
 21
482.4858285431986
 31
0.0
  0
LINE
  5
B3
330
1D
100
AcDbEntity
  8
_0-1_1_5
  6
Continuous
 62
     7
100
AcDbLine
 10
986.9261299570403
 20
478.9860245546068
 30
0.0
 11
988.3323626467702
 21
482.4858285431986
 31
0.0
  0
LINE
  5
B4
330
1D
100
AcDbEntity
  8
_0-1_1_5
  6
Continuous
 62
     7
100
AcDbLine
 10
985.5261299570404
 20
478.9860245546068
 30
0.0
 11
986.9323626467699
 21
482.4858285431986
 31
0.0
  0
LINE
  5
B5
330
1D
100
AcDbEntity
  8
_0-1_1_5
  6
Continuous
 62
     7
100
AcDbLine
 10
984.1261299570406
 20
478.9860245546068
 30
0.0
 11
985.53236264677
 21
482.4858285431986
 31
0.0
  0
LINE
  5
B6
330
1D
100
AcDbEntity
  8
_0-1_1_5
  6
Continuous
 62
     7
100
AcDbLine
 10
982.7261299570407
 20
478.9860245546068
 30
0.0
 11
984.1323626467702
 21
482.4858285431986
 31
0.0
  0
LINE
  5
B7
330
1D
100
AcDbEntity
  8
_0-1_1_5
  6
DASHED1
 62
     7
100
AcDbLine
 10
978.9198516574002
 20
482.8691162958587
 30
0.0
 11
979.4198516573999
 21
482.8691162958587
 31
0.0
  0
LINE
  5
B8
330
1D
100
AcDbEntity
  8
_0-1_1_5
  6
DASHED1
 62
     7
100
AcDbLine
 10
978.9198516574002
 20
478.3691162958586
 30
0.0
 11
979.4198516573999
 21
478.3691162958586
 31
0.0
  0
LINE
  5
B9
330
1D
100
AcDbEntity
  8
_0-1_1_5
  6
DASHED1
 62
     7
100
AcDbLine
 10
977.4198516574
 20
448.9128005957264
 30
0.0
 11
978.9198516574002
 21
447.4128005957264
 31
0.0
  0
LINE
  5
BA
330
1D
100
AcDbEntity
  8
_0-1_1_5
  6
STYLE_01
 62
     7
100
AcDbLine
 10
977.5266673643214
 20
441.6628005957266
 30
0.0
 11
979.276765370025
 21
443.4128986014306
 31
0.0
  0
LINE
  5
BB
330
1D
100
AcDbEntity
  8
_0-1_1_5
  6
DASHED2
 62
     7
100
AcDbLine
 10
981.3261299570404
 20
443.5297088544745
 30
0.0
 11
982.7323626467703
 21
447.0295128430663
 31
0.0
  0
LINE
  5
BC
330
1D
100
AcDbEntity
  8
_0-1_1_5
  6
DASHED2
 62
     7
100
AcDbLine
 10
979.9261299570403
 20
443.5297088544745
 30
0.0
 11
981.3323626467704
 21
447.0295128430663
 31
0.0
  0
LINE
  5
BD
330
1D
100
AcDbEntity
  8
_0-1_1_5
  6
DASHED2
 62
     7
100
AcDbLine
 10
979.2767653700255
 20
445.397875361717
 30
0.0
 11
979.9323626467699
 21
447.0295128430663
 31
0.0
  0
LINE
  5
BE
330
1D
100
AcDbEntity
  8
_0-1_1_5
  6
DASHED2
 62
     7
100
AcDbLine
 10
979.2767653700255
 20
446.9127025900224
 30
0.0
 11
979.2767653700255
 21
443.4128986014306
 31
0.0
  0
LINE
  5
BF
330
1D
100
AcDbEntity
  8
_0-1_1_5
  6
DASHED2
 62
     7
100
AcDbLine
 10
977.5266673643214
 20
448.6628005957265
 30
0.0
 11
979.2767653700255
 21
446.9127025900224
 31
0.0
  0
LINE
  5
C0
330
1D
100
AcDbEntity
  8
_0-1_1_5
  6
Continuous
 62
     7
100
AcDbLine
 10
1019.475714510554
 20
445.1628005957264
 30
0.0
 11
1013.850783751635
 21
443.4128986014306
 31
0.0
  0
LINE
  5
C1
330
1D
100
AcDbEntity
  8
_0-1_1_5
  6
Continuous
 62
     7
100
AcDbLine
 10
991.3510607159593
 20
443.5297088544745
 30
0.0
 11
992.7572934056888
 21
447.0295128430663
 31
0.0
  0
LINE
  5
C2
330
1D
100
AcDbEntity
  8
_0-1_1_5
  6
Continuous
 62
     7
100
AcDbLine
 10
992.7572934056888
 20
443.5297088544745
 30
0.0
 11
994.163526095419
 21
447.0295128430663
 31
0.0
  0
LINE
  5
C3
330
1D
100
AcDbEntity
  8
_0-1_1_5
  6
Continuous
 62
     7
100
AcDbLine
 10
998.3822241646083
 20
443.5297088544745
 30
0.0
 11
999.7884568543379
 21
447.0295128430663
 31
0.0
  0
LINE
  5
C4
330
1D
100
AcDbEntity
  8
_0-1_1_5
  6
Continuous
 62
     7
100
AcDbLine
 10
996.9759914748782
 20
443.5297088544745
 30
0.0
 11
998.3822241646083
 21
447.0295128430663
 31
0.0
  0
LINE
  5
C5
330
1D
100
AcDbEntity
  8
_0-1_1_5
  6
Continuous
 62
     7
100
AcDbLine
 10
999.7884568543379
 20
443.5297088544745
 30
0.0
 11
1001.194689544068
 21
447.0295128430663
 31
0.0
  0
LINE
  5
C6
330
1D
100
AcDbEntity
  8
_0-1_1_5
  6
Continuous
 62
     7
100
AcDbLine
 10
1001.194689544068
 20
443.5297088544745
 30
0.0
 11
1002.600922233797
 21
447.0295128430663
 31
0.0
  0
LINE
  5
C7
330
1D
100
AcDbEntity
  8
_0-1_1_5
  6
Continuous
 62
     7
100
AcDbLine
 10
1002.600922233797
 20
443.5297088544745
 30
0.0
 11
1004.007154923527
 21
447.0295128430663
 31
0.0
  0
LINE
  5
C8
330
1D
100
AcDbEntity
  8
_0-1_1_5
  6
Continuous
 62
     7
100
AcDbLine
 10
1004.007154923527
 20
443.5297088544745
 30
0.0
 11
1005.413387613257
 21
447.0295128430663
 31
0.0
  0
LINE
  5
C9
330
1D
100
AcDbEntity
  8
_0-1_1_5
  6
Continuous
 62
     7
100
AcDbLine
 10
1005.413387613257
 20
443.5297088544745
 30
0.0
 11
1006.819620302987
 21
447.0295128430663
 31
0.0
  0
LINE
  5
CA
330
1D
100
AcDbEntity
  8
_0-1_1_5
  6
Continuous
 62
     7
100
AcDbLine
 10
1006.819620302987
 20
443.5297088544745
 30
0.0
 11
1008.225852992716
 21
447.0295128430663
 31
0.0
  0
LINE
  5
CB
330
1D
100
AcDbEntity
  8
_0-1_1_5
  6
Continuous
 62
     7
100
AcDbLine
 10
994.163526095419
 20
443.5297088544745
 30
0.0
 11
995.5697587851485
 21
447.0295128430663
 31
0.0
  0
LINE
  5
CC
330
1D
100
AcDbEntity
  8
_0-1_1_5
  6
Continuous
 62
     7
100
AcDbLine
 10
1008.225852992716
 20
443.5297088544745
 30
0.0
 11
1009.632085682446
 21
447.0295128430663
 31
0.0
  0
LINE
  5
CD
330
1D
100
AcDbEntity
  8
_0-1_1_5
  6
Continuous
 62
     7
100
AcDbLine
 10
1011.038318372176
 20
443.5297088544745
 30
0.0
 11
1012.444551061906
 21
447.0295128430663
 31
0.0
  0
LINE
  5
CE
330
1D
100
AcDbEntity
  8
_0-1_1_5
  6
Continuous
 62
     7
100
AcDbLine
 10
1012.444551061906
 20
443.5297088544745
 30
0.0
 11
1013.850783751635
 21
447.0295128430663
 31
0.0
  0
LINE
  5
CF
330
1D
100
AcDbEntity
  8
_0-1_1_5
  6
Continuous
 62
     7
100
AcDbLine
 10
1009.632085682446
 20
443.5297088544745
 30
0.0
 11
1011.038318372176
 21
447.0295128430663
 31
0.0
  0
LINE
  5
D0
330
1D
100
AcDbEntity
  8
_0-1_1_5
  6
Continuous
 62
     7
100
AcDbLine
 10
995.5697587851485
 20
443.5297088544745
 30
0.0
 11
996.9759914748782
 21
447.0295128430663
 31
0.0
  0
LINE
  5
D1
330
1D
100
AcDbEntity
  8
_0-1_1_5
  6
Continuous
 62
     7
100
AcDbLine
 10
1013.850229822987
 20
446.9127025900224
 30
0.0
 11
1019.475714510554
 21
445.1628005957264
 31
0.0
  0
LINE
  5
D2
330
1D
100
AcDbEntity
  8
_0-1_1_5
  6
DASHED1
 62
     7
100
AcDbLine
 10
977.4198516574
 20
441.4128005957264
 30
0.0
 11
978.9198516574002
 21
442.9128005957262
 31
0.0
  0
LINE
  5
D3
330
1D
100
AcDbEntity
  8
_0-1_1_5
  6
DASHED2
 62
     7
100
AcDbLine
 10
979.2767653700255
 20
443.4128986014309
 30
0.0
 11
982.4198516574
 21
443.4128986014309
 31
0.0
  0
LINE
  5
D4
330
1D
100
AcDbEntity
  8
_0-1_1_5
  6
DASHED2
 62
     7
100
AcDbLine
 10
979.2767653700255
 20
446.9127025900224
 30
0.0
 11
982.4198516574
 21
446.9127025900224
 31
0.0
  0
LINE
  5
D5
330
1D
100
AcDbEntity
  8
_0-1_1_5
  6
Continuous
 62
     7
100
AcDbLine
 10
982.4198516574
 20
443.4128986014306
 30
0.0
 11
1013.850783751635
 21
443.4128986014306
 31
0.0
  0
LINE
  5
D6
330
1D
100
AcDbEntity
  8
_0-1_1_5
  6
Continuous
 62
     7
100
AcDbLine
 10
982.4198516574
 20
446.9127025900224
 30
0.0
 11
1013.850229822987
 21
446.9127025900224
 31
0.0
  0
LINE
  5
D7
330
1D
100
AcDbEntity
  8
_0-1_1_5
  6
Continuous
 62
     7
100
AcDbLine
 10
989.7261299570405
 20
443.5297088544745
 30
0.0
 11
991.1323626467699
 21
447.0295128430663
 31
0.0
  0
LINE
  5
D8
330
1D
100
AcDbEntity
  8
_0-1_1_5
  6
Continuous
 62
     7
100
AcDbLine
 10
988.3261299570402
 20
443.5297088544745
 30
0.0
 11
989.7323626467701
 21
447.0295128430663
 31
0.0
  0
LINE
  5
D9
330
1D
100
AcDbEntity
  8
_0-1_1_5
  6
Continuous
 62
     7
100
AcDbLine
 10
986.9261299570403
 20
443.5297088544745
 30
0.0
 11
988.3323626467702
 21
447.0295128430663
 31
0.0
  0
LINE
  5
DA
330
1D
100
AcDbEntity
  8
_0-1_1_5
  6
Continuous
 62
     7
100
AcDbLine
 10
985.5261299570404
 20
443.5297088544745
 30
0.0
 11
986.9323626467699
 21
447.0295128430663
 31
0.0
  0
LINE
  5
DB
330
1D
100
AcDbEntity
  8
_0-1_1_5
  6
Continuous
 62
     7
100
AcDbLine
 10
984.1261299570406
 20
443.5297088544745
 30
0.0
 11
985.53236264677
 21
447.0295128430663
 31
0.0
  0
LINE
  5
DC
330
1D
100
AcDbEntity
  8
_0-1_1_5
  6
Continuous
 62
     7
100
AcDbLine
 10
982.7261299570407
 20
443.5297088544745
 30
0.0
 11
984.1323626467702
 21
447.0295128430663
 31
0.0
  0
LINE
  5
DD
330
1D
100
AcDbEntity
  8
_0-1_1_5
  6
DASHED1
 62
     7
100
AcDbLine
 10
978.9198516574002
 20
447.4128005957264
 30
0.0
 11
979.4198516573999
 21
447.4128005957264
 31
0.0
  0
LINE
  5
DE
330
1D
100
AcDbEntity
  8
_0-1_1_5
  6
DASHED1
 62
     7
100
AcDbLine
 10
978.9198516574002
 20
442.9128005957262
 30
0.0
 11
979.4198516573999
 21
442.9128005957262
 31
0.0
  0
LINE
  5
DF
330
1D
100
AcDbEntity
  8
_0-2_ADD_LINE
  6
Continuous
 62
     7
100
AcDbLine
 10
681.8621412013208
 20
419.0715109573241
 30
0.0
 11
819.8645533086128
 21
419.0715109573241
 31
0.0
  0
LINE
  5
E0
330
1D
100
AcDbEntity
  8
_0-2_ADD_LINE
  6
Continuous
 62
     7
100
AcDbLine
 10
657.4055261204559
 20
443.528126038189
 30
0.0
 11
681.8621412013208
 21
419.0715109573241
 31
0.0
  0
POINT
  5
E1
330
1D
100
AcDbEntity
  8
_0-2_ADD_LINE
 62
     7
100
AcDbPoint
 10
977.4198516574
 20
405.8691162958588
 30
0.0
  0
POINT
  5
E2
330
1D
100
AcDbEntity
  8
_0-2_ADD_LINE
 62
     7
100
AcDbPoint
 10
979.4198516573999
 20
405.8691162958588
 30
0.0
  0
LINE
  5
E3
330
1D
100
AcDbEntity
  8
_0-2_ADD_LINE
  6
Continuous
 62
     7
100
AcDbLine
 10
977.4198516574
 20
405.8691162958588
 30
0.0
 11
977.4198516574
 21
432.8691162958588
 31
0.0
  0
LINE
  5
E4
330
1D
100
AcDbEntity
  8
_0-2_ADD_LINE
  6
Continuous
 62
     7
100
AcDbLine
 10
979.4198516573999
 20
405.8691162958588
 30
0.0
 11
979.4198516573999
 21
432.8691162958588
 31
0.0
  0
LINE
  5
E5
330
1D
100
AcDbEntity
  8
_0-1_1_5
  6
Continuous
 62
     7
100
AcDbLine
 10
977.4198516574
 20
405.8691162958588
 30
0.0
 11
979.4198516573999
 21
405.8691162958588
 31
0.0
  0
TEXT
  5
E6
330
1D
100
AcDbEntity
  8
_0-2_ADD_LINE
 62
     4
100
AcDbText
 10
967.9910752830301
 20
408.1095347219776
 30
0.0
 40
12.5
  1
2
  7
ＭＳ ゴシック
100
AcDbText
  0
LINE
  5
E7
330
1D
100
AcDbEntity
  8
_0-2_ADD_LINE
  6
Continuous
 62
     7
100
AcDbLine
 10
977.4198516574
 20
405.8691162958588
 30
0.0
 11
966.9753422771503
 21
405.8691162958588
 31
0.0
  0
LINE
  5
E8
330
1D
100
AcDbEntity
  8
_0-2_ADD_LINE
  6
Continuous
 62
     7
100
AcDbLine
 10
680.8145358627861
 20
303.17754196827
 30
0.0
 11
680.8145358627861
 21
247.9837183428574
 31
0.0
  0
LINE
  5
E9
330
1D
100
AcDbEntity
  8
_0-2_ADD_LINE
  6
Continuous
 62
     7
100
AcDbLine
 10
630.8145358627861
 20
303.17754196827
 30
0.0
 11
630.8145358627861
 21
247.9837183428574
 31
0.0
  0
LINE
  5
EA
330
1D
100
AcDbEntity
  8
_0-1_1_5
  6
DASHED1
 62
     7
100
AcDbLine
 10
653.5645358627859
 20
237.4837183428574
 30
0.0
 11
653.5645358627859
 21
237.9837183428572
 31
0.0
  0
LINE
  5
EB
330
1D
100
AcDbEntity
  8
_0-1_1_5
  6
DASHED1
 62
     7
100
AcDbLine
 10
658.0645358627861
 20
237.4837183428574
 30
0.0
 11
658.0645358627861
 21
237.9837183428572
 31
0.0
  0
LINE
  5
EC
330
1D
100
AcDbEntity
  8
_0-1_1_5
  6
Continuous
 62
     7
100
AcDbLine
 10
654.1814441215342
 20
241.2899966424979
 30
0.0
 11
657.681248110126
 21
242.6962293322273
 31
0.0
  0
LINE
  5
ED
330
1D
100
AcDbEntity
  8
_0-1_1_5
  6
Continuous
 62
     7
100
AcDbLine
 10
654.1814441215342
 20
242.6899966424978
 30
0.0
 11
657.681248110126
 21
244.0962293322273
 31
0.0
  0
LINE
  5
EE
330
1D
100
AcDbEntity
  8
_0-1_1_5
  6
Continuous
 62
     7
100
AcDbLine
 10
654.1814441215342
 20
244.0899966424976
 30
0.0
 11
657.681248110126
 21
245.4962293322271
 31
0.0
  0
LINE
  5
EF
330
1D
100
AcDbEntity
  8
_0-1_1_5
  6
Continuous
 62
     7
100
AcDbLine
 10
654.1814441215342
 20
245.4899966424975
 30
0.0
 11
657.681248110126
 21
246.8962293322275
 31
0.0
  0
LINE
  5
F0
330
1D
100
AcDbEntity
  8
_0-1_1_5
  6
Continuous
 62
     7
100
AcDbLine
 10
654.1814441215342
 20
246.8899966424974
 30
0.0
 11
657.681248110126
 21
248.2962293322274
 31
0.0
  0
LINE
  5
F1
330
1D
100
AcDbEntity
  8
_0-1_1_5
  6
Continuous
 62
     7
100
AcDbLine
 10
654.1814441215342
 20
248.2899966424978
 30
0.0
 11
657.681248110126
 21
249.6962293322272
 31
0.0
  0
LINE
  5
F2
330
1D
100
AcDbEntity
  8
_0-1_1_5
  6
Continuous
 62
     7
100
AcDbLine
 10
657.564437857082
 20
240.9837183428573
 30
0.0
 11
657.564437857082
 21
272.4140965084445
 31
0.0
  0
LINE
  5
F3
330
1D
100
AcDbEntity
  8
_0-1_1_5
  6
Continuous
 62
     7
100
AcDbLine
 10
654.0646338684904
 20
240.9837183428573
 30
0.0
 11
654.0646338684904
 21
272.4146504370923
 31
0.0
  0
LINE
  5
F4
330
1D
100
AcDbEntity
  8
_0-1_1_5
  6
DASHED2
 62
     7
100
AcDbLine
 10
657.564437857082
 20
237.8406320554828
 30
0.0
 11
657.564437857082
 21
240.9837183428573
 31
0.0
  0
LINE
  5
F5
330
1D
100
AcDbEntity
  8
_0-1_1_5
  6
DASHED2
 62
     7
100
AcDbLine
 10
654.0646338684907
 20
237.8406320554828
 30
0.0
 11
654.0646338684905
 21
240.9837183428573
 31
0.0
  0
LINE
  5
F6
330
1D
100
AcDbEntity
  8
_0-1_1_5
  6
DASHED1
 62
     7
100
AcDbLine
 10
652.0645358627861
 20
235.9837183428573
 30
0.0
 11
653.5645358627859
 21
237.4837183428574
 31
0.0
  0
LINE
  5
F7
330
1D
100
AcDbEntity
  8
_0-1_1_5
  6
Continuous
 62
     7
100
AcDbLine
 10
657.564437857082
 20
272.4140965084445
 30
0.0
 11
655.8145358627861
 21
278.0395811960116
 31
0.0
  0
LINE
  5
F8
330
1D
100
AcDbEntity
  8
_0-1_1_5
  6
Continuous
 62
     7
100
AcDbLine
 10
654.1814441215342
 20
254.1336254706058
 30
0.0
 11
657.681248110126
 21
255.5398581603355
 31
0.0
  0
LINE
  5
F9
330
1D
100
AcDbEntity
  8
_0-1_1_5
  6
Continuous
 62
     7
100
AcDbLine
 10
654.1814441215342
 20
268.1959523679034
 30
0.0
 11
657.681248110126
 21
269.602185057633
 31
0.0
  0
LINE
  5
FA
330
1D
100
AcDbEntity
  8
_0-1_1_5
  6
Continuous
 62
     7
100
AcDbLine
 10
654.1814441215342
 20
271.0084177473629
 30
0.0
 11
657.681248110126
 21
272.4146504370923
 31
0.0
  0
LINE
  5
FB
330
1D
100
AcDbEntity
  8
_0-1_1_5
  6
Continuous
 62
     7
100
AcDbLine
 10
654.1814441215342
 20
269.602185057633
 30
0.0
 11
657.681248110126
 21
271.0084177473629
 31
0.0
  0
LINE
  5
FC
330
1D
100
AcDbEntity
  8
_0-1_1_5
  6
Continuous
 62
     7
100
AcDbLine
 10
654.1814441215342
 20
266.7897196781734
 30
0.0
 11
657.681248110126
 21
268.1959523679034
 31
0.0
  0
LINE
  5
FD
330
1D
100
AcDbEntity
  8
_0-1_1_5
  6
Continuous
 62
     7
100
AcDbLine
 10
654.1814441215342
 20
252.7273927808764
 30
0.0
 11
657.681248110126
 21
254.1336254706058
 31
0.0
  0
LINE
  5
FE
330
1D
100
AcDbEntity
  8
_0-1_1_5
  6
Continuous
 62
     7
100
AcDbLine
 10
654.1814441215342
 20
265.3834869884437
 30
0.0
 11
657.681248110126
 21
266.7897196781734
 31
0.0
  0
LINE
  5
FF
330
1D
100
AcDbEntity
  8
_0-1_1_5
  6
Continuous
 62
     7
100
AcDbLine
 10
654.1814441215342
 20
263.9772542987141
 30
0.0
 11
657.681248110126
 21
265.3834869884437
 31
0.0
  0
LINE
  5
100
330
1D
100
AcDbEntity
  8
_0-1_1_5
  6
Continuous
 62
     7
100
AcDbLine
 10
654.1814441215342
 20
262.5710216089843
 30
0.0
 11
657.681248110126
 21
263.9772542987141
 31
0.0
  0
LINE
  5
101
330
1D
100
AcDbEntity
  8
_0-1_1_5
  6
Continuous
 62
     7
100
AcDbLine
 10
654.1814441215342
 20
261.1647889192545
 30
0.0
 11
657.681248110126
 21
262.5710216089843
 31
0.0
  0
LINE
  5
102
330
1D
100
AcDbEntity
  8
_0-1_1_5
  6
Continuous
 62
     7
100
AcDbLine
 10
654.1814441215342
 20
259.7585562295248
 30
0.0
 11
657.681248110126
 21
261.1647889192545
 31
0.0
  0
LINE
  5
103
330
1D
100
AcDbEntity
  8
_0-1_1_5
  6
Continuous
 62
     7
100
AcDbLine
 10
654.1814441215342
 20
258.3523235397952
 30
0.0
 11
657.681248110126
 21
259.7585562295248
 31
0.0
  0
LINE
  5
104
330
1D
100
AcDbEntity
  8
_0-1_1_5
  6
Continuous
 62
     7
100
AcDbLine
 10
654.1814441215342
 20
255.5398581603355
 30
0.0
 11
657.681248110126
 21
256.9460908500656
 31
0.0
  0
LINE
  5
105
330
1D
100
AcDbEntity
  8
_0-1_1_5
  6
Continuous
 62
     7
100
AcDbLine
 10
654.1814441215342
 20
256.9460908500656
 30
0.0
 11
657.681248110126
 21
258.3523235397952
 31
0.0
  0
LINE
  5
106
330
1D
100
AcDbEntity
  8
_0-1_1_5
  6
Continuous
 62
     7
100
AcDbLine
 10
654.1814441215342
 20
251.3211600911461
 30
0.0
 11
657.681248110126
 21
252.7273927808764
 31
0.0
  0
LINE
  5
107
330
1D
100
AcDbEntity
  8
_0-1_1_5
  6
Continuous
 62
     7
100
AcDbLine
 10
654.1814441215342
 20
249.9149274014166
 30
0.0
 11
657.681248110126
 21
251.3211600911461
 31
0.0
  0
LINE
  5
108
330
1D
100
AcDbEntity
  8
_0-1_1_5
  6
Continuous
 62
     7
100
AcDbLine
 10
655.8145358627861
 20
278.0395811960116
 30
0.0
 11
654.0646338684904
 21
272.4146504370923
 31
0.0
  0
LINE
  5
109
330
1D
100
AcDbEntity
  8
_0-1_1_5
  6
DASHED2
 62
     7
100
AcDbLine
 10
659.3145358627862
 20
236.0905340497786
 30
0.0
 11
657.564437857082
 21
237.8406320554828
 31
0.0
  0
LINE
  5
10A
330
1D
100
AcDbEntity
  8
_0-1_1_5
  6
DASHED2
 62
     7
100
AcDbLine
 10
657.564437857082
 20
237.8406320554828
 30
0.0
 11
654.0646338684904
 21
237.8406320554828
 31
0.0
  0
LINE
  5
10B
330
1D
100
AcDbEntity
  8
_0-1_1_5
  6
DASHED2
 62
     7
100
AcDbLine
 10
656.0496106287767
 20
237.8406320554828
 30
0.0
 11
657.681248110126
 21
238.4962293322272
 31
0.0
  0
LINE
  5
10C
330
1D
100
AcDbEntity
  8
_0-1_1_5
  6
DASHED2
 62
     7
100
AcDbLine
 10
654.1814441215342
 20
238.4899966424977
 30
0.0
 11
657.681248110126
 21
239.8962293322276
 31
0.0
  0
LINE
  5
10D
330
1D
100
AcDbEntity
  8
_0-1_1_5
  6
DASHED2
 62
     7
100
AcDbLine
 10
654.1814441215342
 20
239.8899966424977
 30
0.0
 11
657.681248110126
 21
241.2962293322275
 31
0.0
  0
LINE
  5
10E
330
1D
100
AcDbEntity
  8
_0-1_1_5
  6
STYLE_01
 62
     7
100
AcDbLine
 10
652.3145358627863
 20
236.0905340497786
 30
0.0
 11
654.0646338684904
 21
237.8406320554823
 31
0.0
  0
LINE
  5
10F
330
1D
100
AcDbEntity
  8
_0-1_1_5
  6
DASHED1
 62
     7
100
AcDbLine
 10
659.5645358627861
 20
235.9837183428573
 30
0.0
 11
658.0645358627861
 21
237.4837183428574
 31
0.0
  0
ARC
  5
110
330
1D
100
AcDbEntity
  8
_0-1_1_5
  6
Continuous
 62
     7
100
AcDbCircle
 10
635.8145358627861
 20
207.9837183428574
 30
0.0
 40
15.0
100
AcDbArc
 50
270.0
 51
0.0
  0
LINE
  5
111
330
1D
100
AcDbEntity
  8
_0-1_1_5
  6
Continuous
 62
     7
100
AcDbLine
 10
680.8145358627861
 20
237.9837183428574
 30
0.0
 11
680.8145358627861
 21
235.9837183428573
 31
0.0
  0
LINE
  5
112
330
1D
100
AcDbEntity
  8
_0-1_1_5
  6
Continuous
 62
     7
100
AcDbLine
 10
630.8145358627861
 20
237.9837183428574
 30
0.0
 11
680.8145358627861
 21
237.9837183428574
 31
0.0
  0
LINE
  5
113
330
1D
100
AcDbEntity
  8
_0-1_1_5
  6
Continuous
 62
     7
100
AcDbLine
 10
630.8145358627861
 20
235.9837183428573
 30
0.0
 11
630.8145358627861
 21
237.9837183428574
 31
0.0
  0
LINE
  5
114
330
1D
100
AcDbEntity
  8
_0-1_1_5
  6
Continuous
 62
     7
100
AcDbLine
 10
680.8145358627861
 20
235.9837183428573
 30
0.0
 11
630.8145358627861
 21
235.9837183428573
 31
0.0
  0
ARC
  5
115
330
1D
100
AcDbEntity
  8
_0-1_1_5
  6
Continuous
 62
     7
100
AcDbCircle
 10
635.8145358627861
 20
207.9837183428574
 30
0.0
 40
15.0
100
AcDbArc
 50
270.0
 51
0.0
  0
LINE
  5
116
330
1D
100
AcDbEntity
  8
_0-1_1_5
  6
Continuous
 62
     7
100
AcDbLine
 10
680.8145358627861
 20
237.9837183428574
 30
0.0
 11
680.8145358627861
 21
235.9837183428573
 31
0.0
  0
LINE
  5
117
330
1D
100
AcDbEntity
  8
_0-1_1_5
  6
Continuous
 62
     7
100
AcDbLine
 10
630.8145358627861
 20
237.9837183428574
 30
0.0
 11
680.8145358627861
 21
237.9837183428574
 31
0.0
  0
LINE
  5
118
330
1D
100
AcDbEntity
  8
_0-1_1_5
  6
Continuous
 62
     7
100
AcDbLine
 10
630.8145358627861
 20
235.9837183428573
 30
0.0
 11
630.8145358627861
 21
237.9837183428574
 31
0.0
  0
LINE
  5
119
330
1D
100
AcDbEntity
  8
_0-1_1_5
  6
Continuous
 62
     7
100
AcDbLine
 10
680.8145358627861
 20
235.9837183428573
 30
0.0
 11
630.8145358627861
 21
235.9837183428573
 31
0.0
  0
LINE
  5
11A
330
1D
100
AcDbEntity
  8
_0-1_1_5
  6
Continuous
 62
     7
100
AcDbLine
 10
660.8145358627861
 20
235.9837183428573
 30
0.0
 11
660.8145358627861
 21
207.9837183428574
 31
0.0
  0
ARC
  5
11B
330
1D
100
AcDbEntity
  8
_0-1_1_5
  6
Continuous
 62
     7
100
AcDbCircle
 10
635.8145358627861
 20
207.9837183428574
 30
0.0
 40
25.0
100
AcDbArc
 50
270.0
 51
0.0
  0
ARC
  5
11C
330
1D
100
AcDbEntity
  8
_0-1_1_5
  6
Continuous
 62
     7
100
AcDbCircle
 10
635.8145358627861
 20
207.9837183428574
 30
0.0
 40
25.0
100
AcDbArc
 50
270.0
 51
0.0
  0
LINE
  5
11D
330
1D
100
AcDbEntity
  8
_0-2_ADD_LINE
  6
Continuous
 62
     7
100
AcDbLine
 10
712.9309775566976
 20
182.9837183428574
 30
0.0
 11
645.8145358627861
 21
182.9837183428574
 31
0.0
  0
LINE
  5
11E
330
1D
100
AcDbEntity
  8
_0-2_ADD_LINE
  6
Continuous
 62
     7
100
AcDbLine
 10
712.9309775566976
 20
237.9837183428574
 30
0.0
 11
690.8145358627861
 21
237.9837183428574
 31
0.0
  0
LINE
  5
11F
330
1D
100
AcDbEntity
  8
_0-1_1_5
  6
Continuous
 62
     7
100
AcDbLine
 10
650.8145358627861
 20
235.9837183428573
 30
0.0
 11
650.8145358627861
 21
207.9837183428574
 31
0.0
  0
LINE
  5
120
330
1D
100
AcDbEntity
  8
_0-1_1_5
  6
Continuous
 62
     7
100
AcDbLine
 10
660.8145358627861
 20
235.9837183428573
 30
0.0
 11
660.8145358627861
 21
207.9837183428574
 31
0.0
  0
LINE
  5
121
330
1D
100
AcDbEntity
  8
_0-2_ADD_LINE
  6
Continuous
 62
     7
100
AcDbLine
 10
630.8145358627861
 20
303.17754196827
 30
0.0
 11
680.8145358627861
 21
303.17754196827
 31
0.0
  0
TEXT
  5
122
330
1D
100
AcDbEntity
  8
_0-2_ADD_LINE
 62
     4
100
AcDbText
 10
649.5645358627861
 20
305.9987724379598
 30
0.0
 40
12.5
  1
50
  7
ＭＳ ゴシック
100
AcDbText
  0
POINT
  5
123
330
1D
100
AcDbEntity
  8
_0-2_ADD_LINE
 62
     7
100
AcDbPoint
 10
680.8145358627861
 20
303.17754196827
 30
0.0
  0
POINT
  5
124
330
1D
100
AcDbEntity
  8
_0-2_ADD_LINE
 62
     7
100
AcDbPoint
 10
630.8145358627861
 20
303.17754196827
 30
0.0
  0
POINT
  5
125
330
1D
100
AcDbEntity
  8
_0-2_ADD_LINE
 62
     7
100
AcDbPoint
 10
531.3114348538115
 20
192.9837183428574
 30
0.0
  0
POINT
  5
126
330
1D
100
AcDbEntity
  8
_0-2_ADD_LINE
 62
     7
100
AcDbPoint
 10
531.3114348538115
 20
182.9837183428574
 30
0.0
  0
LINE
  5
127
330
1D
100
AcDbEntity
  8
_0-2_ADD_LINE
  6
Continuous
 62
     7
100
AcDbLine
 10
531.3114348538115
 20
192.9837183428574
 30
0.0
 11
531.3114348538115
 21
182.9837183428574
 31
0.0
  0
TEXT
  5
128
330
1D
100
AcDbEntity
  8
_0-2_ADD_LINE
 62
     4
100
AcDbText
 10
529.7435567512614
 20
206.2473214666739
 30
0.0
 40
12.5
  1
10
 50
90.0
  7
ＭＳ ゴシック
100
AcDbText
  0
LINE
  5
129
330
1D
100
AcDbEntity
  8
_0-2_ADD_LINE
  6
Continuous
 62
     7
100
AcDbLine
 10
531.3114348538115
 20
192.9837183428574
 30
0.0
 11
531.3114348538115
 21
220.9891763868423
 31
0.0
  0
POINT
  5
12A
330
1D
100
AcDbEntity
  8
_0-2_ADD_LINE
 62
     7
100
AcDbPoint
 10
55.81453586278613
 20
520.243010183196
 30
0.0
  0
POINT
  5
12B
330
1D
100
AcDbEntity
  8
_0-2_ADD_LINE
 62
     7
100
AcDbPoint
 10
30.81453586278613
 20
545.1090357602561
 30
0.0
  0
LINE
  5
12C
330
1D
100
AcDbEntity
  8
_0-2_ADD_LINE
  6
Continuous
 62
     7
100
AcDbLine
 10
30.81453586278613
 20
545.1090357602561
 30
0.0
 11
30.81453586278613
 21
475.3691162958588
 31
0.0
  0
LINE
  5
12D
330
1D
100
AcDbEntity
  8
_0-2_ADD_LINE
  6
Continuous
 62
     7
100
AcDbLine
 10
55.81453586278613
 20
520.243010183196
 30
0.0
 11
55.81453586278613
 21
492.8691162958588
 31
0.0
  0
ARC
  5
12E
330
1D
100
AcDbEntity
  8
_0-1_1_5
  6
Continuous
 62
     7
100
AcDbCircle
 10
55.81453586278613
 20
462.8691162958588
 30
0.0
 40
5.0
100
AcDbArc
 50
90.0
 51
270.0
  0
ARC
  5
12F
330
1D
100
AcDbEntity
  8
_0-1_1_5
  6
Continuous
 62
     7
100
AcDbCircle
 10
55.81453586278613
 20
462.8691162958588
 30
0.0
 40
25.0
100
AcDbArc
 50
11.53695903281548
 51
348.4630409671845
  0
CIRCLE
  5
130
330
1D
100
AcDbEntity
  8
_0-1_1_5
  6
Continuous
 62
     7
100
AcDbCircle
 10
55.81453586278613
 20
480.6191162958588
 30
0.0
 40
2.25
  0
CIRCLE
  5
131
330
1D
100
AcDbEntity
  8
_0-1_1_5
  6
Continuous
 62
     7
100
AcDbCircle
 10
55.81453586278613
 20
480.6191162958588
 30
0.0
 40
4.25
  0
CIRCLE
  5
132
330
1D
100
AcDbEntity
  8
_0-1_1_5
  6
Continuous
 62
     7
100
AcDbCircle
 10
55.81453586278613
 20
445.1191162958588
 30
0.0
 40
2.25
  0
CIRCLE
  5
133
330
1D
100
AcDbEntity
  8
_0-1_1_5
  6
Continuous
 62
     7
100
AcDbCircle
 10
55.81453586278613
 20
445.1191162958588
 30
0.0
 40
4.25
  0
ARC
  5
134
330
1D
100
AcDbEntity
  8
_0-1_1_5
  6
DASHED1
 62
     7
100
AcDbCircle
 10
55.81453586278613
 20
462.8691162958588
 30
0.0
 40
5.0
100
AcDbArc
 50
270.0
 51
90.0
  0
ARC
  5
135
330
1D
100
AcDbEntity
  8
_0-1_1_5
  6
DASHED1
 62
     7
100
AcDbCircle
 10
55.81453586278613
 20
462.8691162958588
 30
0.0
 40
25.0
100
AcDbArc
 50
348.4630409671845
 51
11.31099983844599
  0
LINE
  5
136
330
1D
100
AcDbEntity
  8
_0-1_1_5
  6
DASHED1
 62
     7
100
AcDbLine
 10
53.5645358627859
 20
237.4837183428574
 30
0.0
 11
53.5645358627859
 21
237.9837183428572
 31
0.0
  0
LINE
  5
137
330
1D
100
AcDbEntity
  8
_0-1_1_5
  6
DASHED1
 62
     7
100
AcDbLine
 10
58.06453586278607
 20
237.4837183428574
 30
0.0
 11
58.06453586278607
 21
237.9837183428572
 31
0.0
  0
LINE
  5
138
330
1D
100
AcDbEntity
  8
_0-1_1_5
  6
Continuous
 62
     7
100
AcDbLine
 10
54.18144412153424
 20
241.2899966424979
 30
0.0
 11
57.68124811012598
 21
242.6962293322273
 31
0.0
  0
LINE
  5
139
330
1D
100
AcDbEntity
  8
_0-1_1_5
  6
Continuous
 62
     7
100
AcDbLine
 10
54.18144412153424
 20
242.6899966424978
 30
0.0
 11
57.68124811012598
 21
244.0962293322273
 31
0.0
  0
LINE
  5
13A
330
1D
100
AcDbEntity
  8
_0-1_1_5
  6
Continuous
 62
     7
100
AcDbLine
 10
54.18144412153424
 20
244.0899966424976
 30
0.0
 11
57.68124811012598
 21
245.4962293322271
 31
0.0
  0
LINE
  5
13B
330
1D
100
AcDbEntity
  8
_0-1_1_5
  6
Continuous
 62
     7
100
AcDbLine
 10
54.18144412153424
 20
245.4899966424975
 30
0.0
 11
57.68124811012598
 21
246.8962293322275
 31
0.0
  0
LINE
  5
13C
330
1D
100
AcDbEntity
  8
_0-1_1_5
  6
Continuous
 62
     7
100
AcDbLine
 10
54.18144412153424
 20
246.8899966424974
 30
0.0
 11
57.68124811012598
 21
248.2962293322274
 31
0.0
  0
LINE
  5
13D
330
1D
100
AcDbEntity
  8
_0-1_1_5
  6
Continuous
 62
     7
100
AcDbLine
 10
54.18144412153424
 20
248.2899966424978
 30
0.0
 11
57.68124811012598
 21
249.6962293322272
 31
0.0
  0
LINE
  5
13E
330
1D
100
AcDbEntity
  8
_0-1_1_5
  6
Continuous
 62
     7
100
AcDbLine
 10
57.56443785708214
 20
240.9837183428573
 30
0.0
 11
57.56443785708214
 21
272.4140965084445
 31
0.0
  0
LINE
  5
13F
330
1D
100
AcDbEntity
  8
_0-1_1_5
  6
Continuous
 62
     7
100
AcDbLine
 10
54.0646338684904
 20
240.9837183428573
 30
0.0
 11
54.0646338684904
 21
272.4146504370923
 31
0.0
  0
LINE
  5
140
330
1D
100
AcDbEntity
  8
_0-1_1_5
  6
DASHED2
 62
     7
100
AcDbLine
 10
57.56443785708214
 20
237.8406320554828
 30
0.0
 11
57.56443785708214
 21
240.9837183428573
 31
0.0
  0
LINE
  5
141
330
1D
100
AcDbEntity
  8
_0-1_1_5
  6
DASHED2
 62
     7
100
AcDbLine
 10
54.06463386849069
 20
237.8406320554828
 30
0.0
 11
54.06463386849055
 21
240.9837183428573
 31
0.0
  0
LINE
  5
142
330
1D
100
AcDbEntity
  8
_0-1_1_5
  6
DASHED1
 62
     7
100
AcDbLine
 10
52.06453586278627
 20
235.9837183428573
 30
0.0
 11
53.5645358627859
 21
237.4837183428574
 31
0.0
  0
LINE
  5
143
330
1D
100
AcDbEntity
  8
_0-1_1_5
  6
Continuous
 62
     7
100
AcDbLine
 10
57.56443785708214
 20
272.4140965084445
 30
0.0
 11
55.81453586278613
 21
278.0395811960116
 31
0.0
  0
LINE
  5
144
330
1D
100
AcDbEntity
  8
_0-1_1_5
  6
Continuous
 62
     7
100
AcDbLine
 10
54.18144412153424
 20
254.1336254706058
 30
0.0
 11
57.68124811012598
 21
255.5398581603355
 31
0.0
  0
LINE
  5
145
330
1D
100
AcDbEntity
  8
_0-1_1_5
  6
Continuous
 62
     7
100
AcDbLine
 10
54.18144412153424
 20
268.1959523679034
 30
0.0
 11
57.68124811012598
 21
269.602185057633
 31
0.0
  0
LINE
  5
146
330
1D
100
AcDbEntity
  8
_0-1_1_5
  6
Continuous
 62
     7
100
AcDbLine
 10
54.18144412153424
 20
271.0084177473629
 30
0.0
 11
57.68124811012598
 21
272.4146504370923
 31
0.0
  0
LINE
  5
147
330
1D
100
AcDbEntity
  8
_0-1_1_5
  6
Continuous
 62
     7
100
AcDbLine
 10
54.18144412153424
 20
269.602185057633
 30
0.0
 11
57.68124811012598
 21
271.0084177473629
 31
0.0
  0
LINE
  5
148
330
1D
100
AcDbEntity
  8
_0-1_1_5
  6
Continuous
 62
     7
100
AcDbLine
 10
54.18144412153424
 20
266.7897196781734
 30
0.0
 11
57.68124811012598
 21
268.1959523679034
 31
0.0
  0
LINE
  5
149
330
1D
100
AcDbEntity
  8
_0-1_1_5
  6
Continuous
 62
     7
100
AcDbLine
 10
54.18144412153424
 20
252.7273927808764
 30
0.0
 11
57.68124811012598
 21
254.1336254706058
 31
0.0
  0
LINE
  5
14A
330
1D
100
AcDbEntity
  8
_0-1_1_5
  6
Continuous
 62
     7
100
AcDbLine
 10
54.18144412153424
 20
265.3834869884437
 30
0.0
 11
57.68124811012598
 21
266.7897196781734
 31
0.0
  0
LINE
  5
14B
330
1D
100
AcDbEntity
  8
_0-1_1_5
  6
Continuous
 62
     7
100
AcDbLine
 10
54.18144412153424
 20
263.9772542987141
 30
0.0
 11
57.68124811012598
 21
265.3834869884437
 31
0.0
  0
LINE
  5
14C
330
1D
100
AcDbEntity
  8
_0-1_1_5
  6
Continuous
 62
     7
100
AcDbLine
 10
54.18144412153424
 20
262.5710216089843
 30
0.0
 11
57.68124811012598
 21
263.9772542987141
 31
0.0
  0
LINE
  5
14D
330
1D
100
AcDbEntity
  8
_0-1_1_5
  6
Continuous
 62
     7
100
AcDbLine
 10
54.18144412153424
 20
261.1647889192545
 30
0.0
 11
57.68124811012598
 21
262.5710216089843
 31
0.0
  0
LINE
  5
14E
330
1D
100
AcDbEntity
  8
_0-1_1_5
  6
Continuous
 62
     7
100
AcDbLine
 10
54.18144412153424
 20
259.7585562295248
 30
0.0
 11
57.68124811012598
 21
261.1647889192545
 31
0.0
  0
LINE
  5
14F
330
1D
100
AcDbEntity
  8
_0-1_1_5
  6
Continuous
 62
     7
100
AcDbLine
 10
54.18144412153424
 20
258.3523235397952
 30
0.0
 11
57.68124811012598
 21
259.7585562295248
 31
0.0
  0
LINE
  5
150
330
1D
100
AcDbEntity
  8
_0-1_1_5
  6
Continuous
 62
     7
100
AcDbLine
 10
54.18144412153424
 20
255.5398581603355
 30
0.0
 11
57.68124811012598
 21
256.9460908500656
 31
0.0
  0
LINE
  5
151
330
1D
100
AcDbEntity
  8
_0-1_1_5
  6
Continuous
 62
     7
100
AcDbLine
 10
54.18144412153424
 20
256.9460908500656
 30
0.0
 11
57.68124811012598
 21
258.3523235397952
 31
0.0
  0
LINE
  5
152
330
1D
100
AcDbEntity
  8
_0-1_1_5
  6
Continuous
 62
     7
100
AcDbLine
 10
54.18144412153424
 20
251.3211600911461
 30
0.0
 11
57.68124811012598
 21
252.7273927808764
 31
0.0
  0
LINE
  5
153
330
1D
100
AcDbEntity
  8
_0-1_1_5
  6
Continuous
 62
     7
100
AcDbLine
 10
54.18144412153424
 20
249.9149274014166
 30
0.0
 11
57.68124811012598
 21
251.3211600911461
 31
0.0
  0
LINE
  5
154
330
1D
100
AcDbEntity
  8
_0-1_1_5
  6
Continuous
 62
     7
100
AcDbLine
 10
55.81453586278613
 20
278.0395811960116
 30
0.0
 11
54.0646338684904
 21
272.4146504370923
 31
0.0
  0
LINE
  5
155
330
1D
100
AcDbEntity
  8
_0-1_1_5
  6
DASHED2
 62
     7
100
AcDbLine
 10
59.31453586278622
 20
236.0905340497786
 30
0.0
 11
57.56443785708214
 21
237.8406320554828
 31
0.0
  0
LINE
  5
156
330
1D
100
AcDbEntity
  8
_0-1_1_5
  6
DASHED2
 62
     7
100
AcDbLine
 10
57.56443785708214
 20
237.8406320554828
 30
0.0
 11
54.0646338684904
 21
237.8406320554828
 31
0.0
  0
LINE
  5
157
330
1D
100
AcDbEntity
  8
_0-1_1_5
  6
DASHED2
 62
     7
100
AcDbLine
 10
56.04961062877678
 20
237.8406320554828
 30
0.0
 11
57.68124811012598
 21
238.4962293322272
 31
0.0
  0
LINE
  5
158
330
1D
100
AcDbEntity
  8
_0-1_1_5
  6
DASHED2
 62
     7
100
AcDbLine
 10
54.18144412153424
 20
238.4899966424977
 30
0.0
 11
57.68124811012598
 21
239.8962293322276
 31
0.0
  0
LINE
  5
159
330
1D
100
AcDbEntity
  8
_0-1_1_5
  6
DASHED2
 62
     7
100
AcDbLine
 10
54.18144412153424
 20
239.8899966424977
 30
0.0
 11
57.68124811012598
 21
241.2962293322275
 31
0.0
  0
LINE
  5
15A
330
1D
100
AcDbEntity
  8
_0-1_1_5
  6
STYLE_01
 62
     7
100
AcDbLine
 10
52.31453586278633
 20
236.0905340497786
 30
0.0
 11
54.0646338684904
 21
237.8406320554823
 31
0.0
  0
LINE
  5
15B
330
1D
100
AcDbEntity
  8
_0-1_1_5
  6
DASHED1
 62
     7
100
AcDbLine
 10
59.56453586278613
 20
235.9837183428573
 30
0.0
 11
58.06453586278607
 21
237.4837183428574
 31
0.0
  0
ARC
  5
15C
330
1D
100
AcDbEntity
  8
_0-1_1_5
  6
Continuous
 62
     7
100
AcDbCircle
 10
75.81453586278613
 20
207.9837183428574
 30
0.0
 40
25.0
100
AcDbArc
 50
180.0
 51
270.0
  0
ARC
  5
15D
330
1D
100
AcDbEntity
  8
_0-1_1_5
  6
Continuous
 62
     7
100
AcDbCircle
 10
75.81453586278613
 20
207.9837183428574
 30
0.0
 40
15.0
100
AcDbArc
 50
180.0
 51
270.0
  0
LINE
  5
15E
330
1D
100
AcDbEntity
  8
_0-1_1_5
  6
Continuous
 62
     7
100
AcDbLine
 10
60.81453586278613
 20
235.9837183428573
 30
0.0
 11
60.81453586278613
 21
207.9837183428574
 31
0.0
  0
LINE
  5
15F
330
1D
100
AcDbEntity
  8
_0-1_1_5
  6
Continuous
 62
     7
100
AcDbLine
 10
30.81453586278613
 20
237.9837183428574
 30
0.0
 11
30.81453586278613
 21
235.9837183428573
 31
0.0
  0
LINE
  5
160
330
1D
100
AcDbEntity
  8
_0-1_1_5
  6
Continuous
 62
     7
100
AcDbLine
 10
80.81453586278613
 20
237.9837183428574
 30
0.0
 11
30.81453586278613
 21
237.9837183428574
 31
0.0
  0
LINE
  5
161
330
1D
100
AcDbEntity
  8
_0-1_1_5
  6
Continuous
 62
     7
100
AcDbLine
 10
80.81453586278613
 20
235.9837183428573
 30
0.0
 11
80.81453586278613
 21
237.9837183428574
 31
0.0
  0
LINE
  5
162
330
1D
100
AcDbEntity
  8
_0-1_1_5
  6
Continuous
 62
     7
100
AcDbLine
 10
30.81453586278613
 20
235.9837183428573
 30
0.0
 11
80.81453586278613
 21
235.9837183428573
 31
0.0
  0
LINE
  5
163
330
1D
100
AcDbEntity
  8
_0-1_1_5
  6
Continuous
 62
     7
100
AcDbLine
 10
50.81453586278613
 20
235.9837183428573
 30
0.0
 11
50.81453586278613
 21
207.9837183428574
 31
0.0
  0
ARC
  5
164
330
1D
100
AcDbEntity
  8
_0-1_1_5
  6
Continuous
 62
     7
100
AcDbCircle
 10
75.81453586278613
 20
207.9837183428574
 30
0.0
 40
25.0
100
AcDbArc
 50
180.0
 51
270.0
  0
ARC
  5
165
330
1D
100
AcDbEntity
  8
_0-1_1_5
  6
Continuous
 62
     7
100
AcDbCircle
 10
75.81453586278613
 20
207.9837183428574
 30
0.0
 40
15.0
100
AcDbArc
 50
180.0
 51
270.0
  0
LINE
  5
166
330
1D
100
AcDbEntity
  8
_0-1_1_5
  6
Continuous
 62
     7
100
AcDbLine
 10
60.81453586278613
 20
235.9837183428573
 30
0.0
 11
60.81453586278613
 21
207.9837183428574
 31
0.0
  0
LINE
  5
167
330
1D
100
AcDbEntity
  8
_0-1_1_5
  6
Continuous
 62
     7
100
AcDbLine
 10
30.81453586278613
 20
237.9837183428574
 30
0.0
 11
30.81453586278613
 21
235.9837183428573
 31
0.0
  0
LINE
  5
168
330
1D
100
AcDbEntity
  8
_0-1_1_5
  6
Continuous
 62
     7
100
AcDbLine
 10
80.81453586278613
 20
237.9837183428574
 30
0.0
 11
30.81453586278613
 21
237.9837183428574
 31
0.0
  0
LINE
  5
169
330
1D
100
AcDbEntity
  8
_0-1_1_5
  6
Continuous
 62
     7
100
AcDbLine
 10
80.81453586278613
 20
235.9837183428573
 30
0.0
 11
80.81453586278613
 21
237.9837183428574
 31
0.0
  0
LINE
  5
16A
330
1D
100
AcDbEntity
  8
_0-1_1_5
  6
Continuous
 62
     7
100
AcDbLine
 10
30.81453586278613
 20
235.9837183428573
 30
0.0
 11
80.81453586278613
 21
235.9837183428573
 31
0.0
  0
LINE
  5
16B
330
1D
100
AcDbEntity
  8
_0-1_1_5
  6
Continuous
 62
     7
100
AcDbLine
 10
50.81453586278613
 20
235.9837183428573
 30
0.0
 11
50.81453586278613
 21
207.9837183428574
 31
0.0
  0
LINE
  5
16C
330
1D
100
AcDbEntity
  8
_0-1_1_5
  6
Continuous
 62
     7
100
AcDbLine
 10
75.81453586278613
 20
192.9837183428574
 30
0.0
 11
635.8145358627861
 21
192.9837183428574
 31
0.0
  0
LINE
  5
16D
330
1D
100
AcDbEntity
  8
_0-1_1_5
  6
Continuous
 62
     7
100
AcDbLine
 10
75.81453586278613
 20
182.9837183428574
 30
0.0
 11
635.8145358627861
 21
182.9837183428574
 31
0.0
  0
LINE
  5
16E
330
1D
100
AcDbEntity
  8
_0-1_1_5
  6
Continuous
 62
     7
100
AcDbLine
 10
55.81453586278613
 20
467.8691162958588
 30
0.0
 11
655.8145358627861
 21
467.8691162958588
 31
0.0
  0
LINE
  5
16F
330
1D
100
AcDbEntity
  8
_0-1_1_5
  6
Continuous
 62
     7
100
AcDbLine
 10
55.81453586278613
 20
457.8691162958588
 30
0.0
 11
655.8145358627861
 21
457.8691162958588
 31
0.0
  0
LINE
  5
170
330
1D
100
AcDbEntity
  8
_0-2_ADD_LINE
  6
Continuous
 62
     7
100
AcDbLine
 10
55.81453586278613
 20
520.243010183196
 30
0.0
 11
655.8145358627861
 21
520.243010183196
 31
0.0
  0
TEXT
  5
171
330
1D
100
AcDbEntity
  8
_0-2_ADD_LINE
 62
     4
100
AcDbText
 10
346.4395358627861
 20
522.743010183196
 30
0.0
 40
12.5
  1
600
  7
ＭＳ ゴシック
100
AcDbText
  0
LINE
  5
172
330
1D
100
AcDbEntity
  8
_0-2_ADD_LINE
  6
Continuous
 62
     7
100
AcDbLine
 10
30.81453586278613
 20
545.1090357602561
 30
0.0
 11
680.8145358627861
 21
545.1090357602561
 31
0.0
  0
TEXT
  5
173
330
1D
100
AcDbEntity
  8
_0-2_ADD_LINE
 62
     4
100
AcDbText
 10
346.4395358627861
 20
547.6090357602561
 30
0.0
 40
12.5
  1
650
  7
ＭＳ ゴシック
100
AcDbText
  0
TEXT
  5
174
330
1D
100
AcDbEntity
  8
_0-2_ADD_LINE
 62
     4
100
AcDbText
 10
687.1815327438164
 20
420.8656926823016
 30
0.0
 40
12.5
  1
φ4.5穴－φ8.5皿
  7
ＭＳ ゴシック
100
AcDbText
  0
TEXT
  5
175
330
1D
100
AcDbEntity
  8
_0-2_ADD_LINE
 62
     4
100
AcDbText
 10
636.8377647021488
 20
306.5101242721476
 30
0.0
 40
12.5
  1
φ
  7
ＭＳ ゴシック
100
AcDbText
  0
TEXT
  5
176
330
1D
100
AcDbEntity
  8
_0-2_ADD_LINE
 62
     4
100
AcDbText
 10
899.9333991287695
 20
444.0062461170302
 30
0.0
 40
12.5
  1
φ
 50
90.0
  7
ＭＳ ゴシック
100
AcDbText
  0
TEXT
  5
177
330
1D
100
AcDbEntity
  8
_0-2_ADD_LINE
 62
     4
100
AcDbText
 10
529.3888146751182
 20
194.6419703008013
 30
0.0
 40
12.5
  1
φ
 50
90.0
  7
ＭＳ ゴシック
100
AcDbText
  0
TEXT
  5
178
330
1D
100
AcDbEntity
  8
_0-3_
 62
     7
100
AcDbText
 10
804.8304173803011
 20
-104.5140979481607
 30
0.0
 40
15.2703857421875
  1
TFP40-C160
  7
ＭＳ ゴシック
100
AcDbText
  0
TEXT
  5
23A
330
1D
100
AcDbEntity
  8
_0-3_
 62
     7
100
AcDbText
 10
805.1103587972727
 20
-54.08109788255899
 30
0.0
 40
15.2703857421875
  1
TFP40-C160-00W
  7
ＭＳ ゴシック
100
AcDbText
  0
TEXT
  5
23B
330
1D
100
AcDbEntity
  8
_0-3_
 62
     7
100
AcDbText
 10
805.1103587972727
 20
-24.22692996428498
 30
0.0
 40
15.2703857421875
  1
TFP40-C160-002
  7
ＭＳ ゴシック
100
AcDbText
  0
TEXT
  5
23C
330
1D
100
AcDbEntity
  8
_0-3_
 62
     7
100
AcDbText
 10
957.2865223526987
 20
-54.08109788255899
 30
0.0
 40
15.2703857421875
  1
ホワイト
  7
ＭＳ ゴシック
100
AcDbText
  0
TEXT
  5
23D
330
1D
100
AcDbEntity
  8
_0-3_
 62
     7
100
AcDbText
 10
957.2865223526987
 20
-24.22692996428498
 30
0.0
 40
15.2703857421875
  1
サテン
  7
ＭＳ ゴシック
100
AcDbText
  0
ENDSEC
  0
SECTION
  2
OBJECTS
  0
DICTIONARY
  5
C
330
0
100
AcDbDictionary
281
     1
  3
ACAD_COLOR
350
1DB
  3
ACAD_DETAILVIEWSTYLE
350
1C8
  3
ACAD_GROUP
350
D
  3
ACAD_IMAGE_VARS
350
1C2
  3
ACAD_LAYOUT
350
1A
  3
ACAD_MATERIAL
350
1B8
  3
ACAD_MLEADERSTYLE
350
1BE
  3
ACAD_MLINESTYLE
350
17
  3
ACAD_PLOTSETTINGS
350
19
  3
ACAD_PLOTSTYLENAME
350
E
  3
ACAD_SCALELIST
350
179
  3
ACAD_SECTIONVIEWSTYLE
350
1C9
  3
ACAD_TABLESTYLE
350
1BC
  3
ACAD_VISUALSTYLE
350
19F
  3
ACDB_RECOMPOSE_DATA
350
249
  3
AcDbVariableDictionary
350
1C3
  3
APPDATA
350
1C0
  0
SUN
  5
1C1
330
55
100
AcDbSun
 90
        1
290
     0
 63
     7
421
 16777215
 40
1.0
291
     1
 91
  2455826
 92
 54000000
292
     0
 70
     2
 71
   256
280
     1
  0
DICTIONARY
  5
1FA
330
2
100
AcDbDictionary
280
     1
281
     1
  3
ACAD_LAYERSTATES
360
1FB
  0
DICTIONARY
  5
1DB
102
{ACAD_REACTORS
330
C
102
}
330
C
100
AcDbDictionary
281
     1
  0
DICTIONARY
  5
1C8
102
{ACAD_REACTORS
330
C
102
}
330
C
100
AcDbDictionary
281
     1
  0
DICTIONARY
  5
D
102
{ACAD_REACTORS
330
C
102
}
330
C
100
AcDbDictionary
281
     1
  0
RASTERVARIABLES
  5
1C2
102
{ACAD_REACTORS
330
C
102
}
330
C
100
AcDbRasterVariables
 90
        0
 70
     1
 71
     1
 72
     0
  0
DICTIONARY
  5
1A
102
{ACAD_REACTORS
330
C
102
}
330
C
100
AcDbDictionary
281
     1
  3
Model
350
1E
  3
シート 1
350
1C
  0
DICTIONARY
  5
1B8
102
{ACAD_REACTORS
330
C
102
}
330
C
100
AcDbDictionary
281
     1
  3
ByBlock
350
1BA
  3
ByLayer
350
1B9
  3
Global
350
1BB
  0
DICTIONARY
  5
1BE
102
{ACAD_REACTORS
330
C
102
}
330
C
100
AcDbDictionary
281
     1
  3
Standard
350
1BF
  0
DICTIONARY
  5
17
102
{ACAD_REACTORS
330
C
102
}
330
C
100
AcDbDictionary
281
     1
  3
Standard
350
18
  0
DICTIONARY
  5
19
102
{ACAD_REACTORS
330
C
102
}
330
C
100
AcDbDictionary
281
     1
  0
ACDBDICTIONARYWDFLT
  5
E
102
{ACAD_REACTORS
330
C
102
}
330
C
100
AcDbDictionary
281
     1
  3
Normal
350
F
100
AcDbDictionaryWithDefault
340
F
  0
DICTIONARY
  5
179
102
{ACAD_REACTORS
330
C
102
}
330
C
100
AcDbDictionary
281
     1
  3
A0
350
17A
  3
A1
350
17B
  3
A2
350
17C
  3
A3
350
17D
  3
A4
350
17E
  3
A5
350
17F
  3
A6
350
180
  3
A7
350
181
  3
A8
350
182
  3
A9
350
183
  3
B0
350
184
  3
B1
350
185
  3
B2
350
186
  3
B3
350
187
  3
B4
350
188
  3
B5
350
189
  3
B6
350
18A
  3
B7
350
18B
  3
B8
350
18C
  3
B9
350
18D
  3
C0
350
18E
  3
C1
350
18F
  3
C2
350
190
  3
C3
350
191
  3
C4
350
192
  3
C5
350
193
  3
C6
350
194
  3
C7
350
195
  3
C8
350
196
  3
C9
350
197
  3
D0
350
198
  3
D1
350
199
  3
D2
350
19A
  0
DICTIONARY
  5
1C9
102
{ACAD_REACTORS
330
C
102
}
330
C
100
AcDbDictionary
281
     1
  0
DICTIONARY
  5
1BC
102
{ACAD_REACTORS
330
C
102
}
330
C
100
AcDbDictionary
281
     1
  3
Standard
350
1BD
  0
DICTIONARY
  5
19F
102
{ACAD_REACTORS
330
C
102
}
330
C
100
AcDbDictionary
281
     1
  3
2dWireframe
350
1A4
  3
Basic
350
1A7
  3
Brighten
350
1AB
  3
ColorChange
350
1AF
  3
Conceptual
350
1A9
  3
Dim
350
1AA
  3
EdgeColorOff
350
1B2
  3
Facepattern
350
1AE
  3
Flat
350
1A0
  3
FlatWithEdges
350
1A1
  3
Gouraud
350
1A2
  3
GouraudWithEdges
350
1A3
  3
Hidden
350
1A6
  3
JitterOff
350
1B0
  3
Linepattern
350
1AD
  3
OverhangOff
350
1B1
  3
Realistic
350
1A8
  3
Shaded
350
1B7
  3
Shaded with edges
350
1B6
  3
Shades of Gray
350
1B3
  3
Sketchy
350
1B4
  3
Thicken
350
1AC
  3
Wireframe
350
1A5
  3
X-Ray
350
1B5
  0
XRECORD
  5
249
102
{ACAD_REACTORS
330
C
102
}
330
C
100
AcDbXrecord
280
     1
 90
        1
330
1BD
  0
DICTIONARY
  5
1C3
102
{ACAD_REACTORS
330
C
102
}
330
C
100
AcDbDictionary
281
     1
  3
CANNOSCALE
350
1C4
  3
CMLEADERSTYLE
350
1C6
  3
CTABLESTYLE
350
1C5
  3
MSLTSCALE
350
1C7
  3
XCLIPFRAME
350
20B
  0
DICTIONARY
  5
1C0
102
{ACAD_REACTORS
330
C
102
}
330
C
100
AcDbDictionary
281
     1
  0
DICTIONARY
  5
1FB
102
{ACAD_REACTORS
330
1FA
102
}
330
1FA
100
AcDbDictionary
281
     1
  0
LAYOUT
  5
1E
102
{ACAD_REACTORS
330
1A
102
}
330
1A
100
AcDbPlotSettings
  1

  2
none_device
  4
Letter_(8.50_x_11.00_Inches)
  6

 40
6.35
 41
6.35
 42
6.35
 43
6.35
 44
215.9
 45
279.4
 46
0.0
 47
0.0
 48
0.0
 49
0.0
140
0.0
141
0.0
142
1.0
143
1.0
 70
  1712
 72
     0
 73
     0
 74
     0
  7

 75
     0
 76
     0
 77
     2
 78
   300
147
1.0
148
0.0
149
0.0
100
AcDbLayout
  1
Model
 70
     1
 71
     0
 10
0.0
 20
0.0
 11
12.0
 21
9.0
 12
0.0
 22
0.0
 32
0.0
 14
-217.5497668470169
 24
-210.6015747910533
 34
0.0
 15
1267.450233152983
 25
839.3984252089467
 35
0.0
146
0.0
 13
0.0
 23
0.0
 33
0.0
 16
1.0
 26
0.0
 36
0.0
 17
0.0
 27
1.0
 37
0.0
 76
     0
330
1D
331
55
  0
LAYOUT
  5
1C
102
{ACAD_REACTORS
330
1A
102
}
330
1A
100
AcDbPlotSettings
  1

  2
none_device
  4

  6

 40
0.0
 41
0.0
 42
0.0
 43
0.0
 44
0.0
 45
0.0
 46
0.0
 47
0.0
 48
0.0
 49
0.0
140
0.0
141
0.0
142
1.0
143
1.0
 70
   688
 72
     0
 73
     0
 74
     5
  7

 75
    16
 76
     0
 77
     2
 78
   300
147
1.0
148
0.0
149
0.0
100
AcDbLayout
  1
シート 1
 70
     1
 71
     1
 10
0.0
 20
0.0
 11
0.0
 21
0.0
 12
0.0
 22
0.0
 32
0.0
 14
1.000000000000000E+20
 24
1.000000000000000E+20
 34
1.000000000000000E+20
 15
-1.000000000000000E+20
 25
-1.000000000000000E+20
 35
-1.000000000000000E+20
146
0.0
 13
0.0
 23
0.0
 33
0.0
 16
1.0
 26
0.0
 36
0.0
 17
0.0
 27
1.0
 37
0.0
 76
     0
330
1B
  0
MATERIAL
  5
1BA
102
{ACAD_REACTORS
330
1B8
102
}
330
1B8
100
AcDbMaterial
  1
ByBlock
 72
     1
 94
      127
  0
MATERIAL
  5
1B9
102
{ACAD_REACTORS
330
1B8
102
}
330
1B8
100
AcDbMaterial
  1
ByLayer
 72
     1
 94
      127
  0
MATERIAL
  5
1BB
102
{ACAD_REACTORS
330
1B8
102
}
330
1B8
100
AcDbMaterial
  1
Global
 72
     1
 94
      127
  0
MLEADERSTYLE
  5
1BF
102
{ACAD_REACTORS
330
1BE
102
}
330
1BE
100
AcDbMLeaderStyle
170
     2
171
     1
172
     0
 90
        2
 40
0.0
 41
0.0
173
     1
 91
-1056964608
340
14
 92
       -2
290
     1
 42
0.09
291
     1
 43
0.36
  3
Standard
341
0
 44
0.18
300

342
11
174
     1
178
     1
175
     1
176
     0
 93
-1056964608
 45
0.18
292
     0
297
     0
 46
0.18
343
0
 94
-1056964608
 47
1.0
 49
1.0
140
1.0
293
     1
141
0.0
294
     1
177
     0
142
1.0
295
     0
296
     0
143
0.125
1001
ACAD_MLEADERVER
1070
     2
  0
MLINESTYLE
  5
18
102
{ACAD_REACTORS
330
17
102
}
330
17
100
AcDbMlineStyle
  2
Standard
 70
     0
  3

 62
   256
 51
90.0
 52
90.0
 71
     2
 49
0.5
 62
   256
  6
BYLAYER
 49
-0.5
 62
   256
  6
BYLAYER
  0
ACDBPLACEHOLDER
  5
F
102
{ACAD_REACTORS
330
E
102
}
330
E
  0
SCALE
  5
17A
102
{ACAD_REACTORS
330
179
102
}
330
179
100
AcDbScale
 70
     0
300
1:1
140
1.0
141
1.0
290
     1
  0
SCALE
  5
17B
102
{ACAD_REACTORS
330
179
102
}
330
179
100
AcDbScale
 70
     0
300
1:2
140
1.0
141
2.0
290
     0
  0
SCALE
  5
17C
102
{ACAD_REACTORS
330
179
102
}
330
179
100
AcDbScale
 70
     0
300
1:4
140
1.0
141
4.0
290
     0
  0
SCALE
  5
17D
102
{ACAD_REACTORS
330
179
102
}
330
179
100
AcDbScale
 70
     0
300
1:5
140
1.0
141
5.0
290
     0
  0
SCALE
  5
17E
102
{ACAD_REACTORS
330
179
102
}
330
179
100
AcDbScale
 70
     0
300
1:8
140
1.0
141
8.0
290
     0
  0
SCALE
  5
17F
102
{ACAD_REACTORS
330
179
102
}
330
179
100
AcDbScale
 70
     0
300
1:10
140
1.0
141
10.0
290
     0
  0
SCALE
  5
180
102
{ACAD_REACTORS
330
179
102
}
330
179
100
AcDbScale
 70
     0
300
1:16
140
1.0
141
16.0
290
     0
  0
SCALE
  5
181
102
{ACAD_REACTORS
330
179
102
}
330
179
100
AcDbScale
 70
     0
300
1:20
140
1.0
141
20.0
290
     0
  0
SCALE
  5
182
102
{ACAD_REACTORS
330
179
102
}
330
179
100
AcDbScale
 70
     0
300
1:30
140
1.0
141
30.0
290
     0
  0
SCALE
  5
183
102
{ACAD_REACTORS
330
179
102
}
330
179
100
AcDbScale
 70
     0
300
1:40
140
1.0
141
40.0
290
     0
  0
SCALE
  5
184
102
{ACAD_REACTORS
330
179
102
}
330
179
100
AcDbScale
 70
     0
300
1:50
140
1.0
141
50.0
290
     0
  0
SCALE
  5
185
102
{ACAD_REACTORS
330
179
102
}
330
179
100
AcDbScale
 70
     0
300
1:100
140
1.0
141
100.0
290
     0
  0
SCALE
  5
186
102
{ACAD_REACTORS
330
179
102
}
330
179
100
AcDbScale
 70
     0
300
2:1
140
2.0
141
1.0
290
     0
  0
SCALE
  5
187
102
{ACAD_REACTORS
330
179
102
}
330
179
100
AcDbScale
 70
     0
300
4:1
140
4.0
141
1.0
290
     0
  0
SCALE
  5
188
102
{ACAD_REACTORS
330
179
102
}
330
179
100
AcDbScale
 70
     0
300
8:1
140
8.0
141
1.0
290
     0
  0
SCALE
  5
189
102
{ACAD_REACTORS
330
179
102
}
330
179
100
AcDbScale
 70
     0
300
10:1
140
10.0
141
1.0
290
     0
  0
SCALE
  5
18A
102
{ACAD_REACTORS
330
179
102
}
330
179
100
AcDbScale
 70
     0
300
100:1
140
100.0
141
1.0
290
     0
  0
SCALE
  5
18B
102
{ACAD_REACTORS
330
179
102
}
330
179
100
AcDbScale
 70
     0
300
1/128" = 1'-0"
140
0.0078125
141
12.0
290
     0
  0
SCALE
  5
18C
102
{ACAD_REACTORS
330
179
102
}
330
179
100
AcDbScale
 70
     0
300
1/64" = 1'-0"
140
0.015625
141
12.0
290
     0
  0
SCALE
  5
18D
102
{ACAD_REACTORS
330
179
102
}
330
179
100
AcDbScale
 70
     0
300
1/32" = 1'-0"
140
0.03125
141
12.0
290
     0
  0
SCALE
  5
18E
102
{ACAD_REACTORS
330
179
102
}
330
179
100
AcDbScale
 70
     0
300
1/16" = 1'-0"
140
0.0625
141
12.0
290
     0
  0
SCALE
  5
18F
102
{ACAD_REACTORS
330
179
102
}
330
179
100
AcDbScale
 70
     0
300
3/32" = 1'-0"
140
0.09375
141
12.0
290
     0
  0
SCALE
  5
190
102
{ACAD_REACTORS
330
179
102
}
330
179
100
AcDbScale
 70
     0
300
1/8" = 1'-0"
140
0.125
141
12.0
290
     0
  0
SCALE
  5
191
102
{ACAD_REACTORS
330
179
102
}
330
179
100
AcDbScale
 70
     0
300
3/16" = 1'-0"
140
0.1875
141
12.0
290
     0
  0
SCALE
  5
192
102
{ACAD_REACTORS
330
179
102
}
330
179
100
AcDbScale
 70
     0
300
1/4" = 1'-0"
140
0.25
141
12.0
290
     0
  0
SCALE
  5
193
102
{ACAD_REACTORS
330
179
102
}
330
179
100
AcDbScale
 70
     0
300
3/8" = 1'-0"
140
0.375
141
12.0
290
     0
  0
SCALE
  5
194
102
{ACAD_REACTORS
330
179
102
}
330
179
100
AcDbScale
 70
     0
300
1/2" = 1'-0"
140
0.5
141
12.0
290
     0
  0
SCALE
  5
195
102
{ACAD_REACTORS
330
179
102
}
330
179
100
AcDbScale
 70
     0
300
3/4" = 1'-0"
140
0.75
141
12.0
290
     0
  0
SCALE
  5
196
102
{ACAD_REACTORS
330
179
102
}
330
179
100
AcDbScale
 70
     0
300
1" = 1'-0"
140
1.0
141
12.0
290
     0
  0
SCALE
  5
197
102
{ACAD_REACTORS
330
179
102
}
330
179
100
AcDbScale
 70
     0
300
1-1/2" = 1'-0"
140
1.5
141
12.0
290
     0
  0
SCALE
  5
198
102
{ACAD_REACTORS
330
179
102
}
330
179
100
AcDbScale
 70
     0
300
3" = 1'-0"
140
3.0
141
12.0
290
     0
  0
SCALE
  5
199
102
{ACAD_REACTORS
330
179
102
}
330
179
100
AcDbScale
 70
     0
300
6" = 1'-0"
140
6.0
141
12.0
290
     0
  0
SCALE
  5
19A
102
{ACAD_REACTORS
330
179
102
}
330
179
100
AcDbScale
 70
     0
300
1'-0" = 1'-0"
140
12.0
141
12.0
290
     0
  0
TABLESTYLE
  5
1BD
102
{ACAD_REACTORS
330
1BC
102
}
102
{ACAD_XDICTIONARY
360
247
102
}
330
1BC
100
AcDbTableStyle
  3
Standard
 70
     0
 71
     0
 40
0.06
 41
0.06
280
     0
281
     0
  7
STANDARD
140
0.18
170
     2
 62
     0
 63
   257
283
     0
 90
        4
 91
        0
  1

274
    -2
284
     1
 64
     0
275
    -2
285
     1
 65
     0
276
    -2
286
     1
 66
     0
277
    -2
287
     1
 67
     0
278
    -2
288
     1
 68
     0
279
    -2
289
     1
 69
     0
  7
STANDARD
140
0.25
170
     5
 62
     0
 63
   257
283
     0
 90
        4
 91
        0
  1

274
    -2
284
     1
 64
     0
275
    -2
285
     1
 65
     0
276
    -2
286
     1
 66
     0
277
    -2
287
     1
 67
     0
278
    -2
288
     1
 68
     0
279
    -2
289
     1
 69
     0
  7
STANDARD
140
0.18
170
     5
 62
     0
 63
   257
283
     0
 90
        4
 91
        0
  1

274
    -2
284
     1
 64
     0
275
    -2
285
     1
 65
     0
276
    -2
286
     1
 66
     0
277
    -2
287
     1
 67
     0
278
    -2
288
     1
 68
     0
279
    -2
289
     1
 69
     0
  0
VISUALSTYLE
  5
1A4
102
{ACAD_REACTORS
330
19F
102
}
330
19F
100
AcDbVisualStyle
  2
2dWireframe
 70
     4
 71
     0
 72
     2
 73
     0
 90
        0
 40
0.6
 41
30.0
 62
     5
 63
     7
421
 16777215
 74
     1
 91
        4
 64
     7
 65
   257
 75
     1
175
     1
 42
1.0
 92
        0
 66
   257
 43
1.0
 76
     1
 77
     6
 78
     2
 67
     7
 79
     5
170
     0
171
     0
290
     0
174
     0
 93
        1
 44
0.0
173
     0
291
     0
 45
0.0
  0
VISUALSTYLE
  5
1A7
102
{ACAD_REACTORS
330
19F
102
}
330
19F
100
AcDbVisualStyle
  2
Basic
 70
     7
 71
     1
 72
     0
 73
     1
 90
        0
 40
0.6
 41
30.0
 62
     5
 63
     7
421
 16777215
 74
     0
 91
        4
 64
     7
 65
   257
 75
     1
175
     1
 42
1.0
 92
        8
 66
     7
 43
1.0
 76
     1
 77
     6
 78
     2
 67
     7
 79
     5
170
     0
171
     0
290
     0
174
     0
 93
        1
 44
0.0
173
     0
291
     1
 45
0.0
  0
VISUALSTYLE
  5
1AB
102
{ACAD_REACTORS
330
19F
102
}
330
19F
100
AcDbVisualStyle
  2
Brighten
 70
    12
 71
     2
 72
     2
 73
     0
 90
        0
 40
0.6
 41
30.0
 62
     5
 63
     7
421
 16777215
 74
     1
 91
        4
 64
     7
 65
   257
 75
     1
175
     1
 42
1.0
 92
        8
 66
     7
 43
1.0
 76
     1
 77
     6
 78
     2
 67
     7
 79
     5
170
     0
171
     0
290
     0
174
     0
 93
        1
 44
50.0
173
     0
291
     1
 45
0.0
  0
VISUALSTYLE
  5
1AF
102
{ACAD_REACTORS
330
19F
102
}
330
19F
100
AcDbVisualStyle
  2
ColorChange
 70
    16
 71
     2
 72
     2
 73
     3
 90
        0
 40
0.6
 41
30.0
 62
     5
 63
     8
421
  8421504
 74
     1
 91
        4
 64
     7
 65
   257
 75
     1
175
     1
 42
1.0
 92
        8
 66
     8
424
  8421504
 43
1.0
 76
     1
 77
     6
 78
     2
 67
     7
 79
     5
170
     0
171
     0
290
     0
174
     0
 93
        1
 44
0.0
173
     0
291
     1
 45
0.0
  0
VISUALSTYLE
  5
1A9
102
{ACAD_REACTORS
330
19F
102
}
330
19F
100
AcDbVisualStyle
  2
Conceptual
 70
     9
 71
     3
 72
     2
 73
     0
 90
        0
 40
0.6
 41
30.0
 62
     5
 63
     7
421
 16777215
 74
     2
 91
        2
 64
     7
 65
   257
 75
     1
175
     1
 42
179.0
 92
        8
 66
     7
 43
1.0
 76
     1
 77
     6
 78
     2
 67
     7
 79
     3
170
     0
171
     0
290
     0
174
     0
 93
        1
 44
0.0
173
     0
291
     0
 45
0.0
  0
VISUALSTYLE
  5
1AA
102
{ACAD_REACTORS
330
19F
102
}
330
19F
100
AcDbVisualStyle
  2
Dim
 70
    11
 71
     2
 72
     2
 73
     0
 90
        0
 40
0.6
 41
30.0
 62
     5
 63
     7
421
 16777215
 74
     1
 91
        4
 64
     7
 65
   257
 75
     1
175
     1
 42
1.0
 92
        8
 66
     7
 43
1.0
 76
     1
 77
     6
 78
     2
 67
     7
 79
     5
170
     0
171
     0
290
     0
174
     0
 93
        1
 44
-50.0
173
     0
291
     1
 45
0.0
  0
VISUALSTYLE
  5
1B2
102
{ACAD_REACTORS
330
19F
102
}
330
19F
100
AcDbVisualStyle
  2
EdgeColorOff
 70
    22
 71
     2
 72
     2
 73
     0
 90
        0
 40
0.6
 41
30.0
 62
     5
 63
     7
421
 16777215
 74
     1
 91
        4
 64
     7
 65
   257
 75
     1
175
     1
 42
1.0
 92
        8
 66
     7
 43
1.0
 76
     1
 77
     6
 78
     2
 67
     7
 79
     5
170
     0
171
     0
290
     0
174
     0
 93
        1
 44
0.0
173
     0
291
     1
 45
0.0
  0
VISUALSTYLE
  5
1AE
102
{ACAD_REACTORS
330
19F
102
}
330
19F
100
AcDbVisualStyle
  2
Facepattern
 70
    15
 71
     2
 72
     2
 73
     0
 90
        0
 40
0.6
 41
30.0
 62
     5
 63
     7
421
 16777215
 74
     1
 91
        4
 64
     7
 65
   257
 75
     1
175
     1
 42
1.0
 92
        8
 66
     7
 43
1.0
 76
     1
 77
     6
 78
     2
 67
     7
 79
     5
170
     0
171
     0
290
     0
174
     0
 93
        1
 44
0.0
173
     0
291
     1
 45
0.0
  0
VISUALSTYLE
  5
1A0
102
{ACAD_REACTORS
330
19F
102
}
330
19F
100
AcDbVisualStyle
  2
Flat
 70
     0
 71
     2
 72
     1
 73
     1
 90
        2
 40
0.6
 41
30.0
 62
     5
 63
     7
421
 16777215
 74
     0
 91
        0
 64
     7
 65
   257
 75
     1
175
     1
 42
1.0
 92
        8
 66
     7
 43
1.0
 76
     1
 77
     6
 78
     2
 67
     7
 79
     5
170
     0
171
     0
290
     0
174
     0
 93
       13
 44
0.0
173
     0
291
     1
 45
0.0
  0
VISUALSTYLE
  5
1A1
102
{ACAD_REACTORS
330
19F
102
}
330
19F
100
AcDbVisualStyle
  2
FlatWithEdges
 70
     1
 71
     2
 72
     1
 73
     1
 90
        2
 40
0.6
 41
30.0
 62
     5
 63
     7
421
 16777215
 74
     1
 91
        0
 64
     7
 65
   257
 75
     1
175
     1
 42
1.0
 92
        0
 66
   257
 43
1.0
 76
     1
 77
     6
 78
     2
 67
     7
 79
     5
170
     0
171
     0
290
     0
174
     0
 93
       13
 44
0.0
173
     0
291
     1
 45
0.0
  0
VISUALSTYLE
  5
1A2
102
{ACAD_REACTORS
330
19F
102
}
330
19F
100
AcDbVisualStyle
  2
Gouraud
 70
     2
 71
     2
 72
     2
 73
     1
 90
        2
 40
0.6
 41
30.0
 62
     5
 63
     7
421
 16777215
 74
     0
 91
        0
 64
     7
 65
   257
 75
     1
175
     1
 42
1.0
 92
        0
 66
     7
 43
1.0
 76
     1
 77
     6
 78
     2
 67
     7
 79
     5
170
     0
171
     0
290
     0
174
     0
 93
       13
 44
0.0
173
     0
291
     1
 45
0.0
  0
VISUALSTYLE
  5
1A3
102
{ACAD_REACTORS
330
19F
102
}
330
19F
100
AcDbVisualStyle
  2
GouraudWithEdges
 70
     3
 71
     2
 72
     2
 73
     1
 90
        2
 40
0.6
 41
30.0
 62
     5
 63
     7
421
 16777215
 74
     1
 91
        0
 64
     7
 65
   257
 75
     1
175
     1
 42
1.0
 92
        0
 66
   257
 43
1.0
 76
     1
 77
     6
 78
     2
 67
     7
 79
     5
170
     0
171
     0
290
     0
174
     0
 93
       13
 44
0.0
173
     0
291
     1
 45
0.0
  0
VISUALSTYLE
  5
1A6
102
{ACAD_REACTORS
330
19F
102
}
330
19F
100
AcDbVisualStyle
  2
Hidden
 70
     6
 71
     1
 72
     2
 73
     2
 90
        0
 40
0.6
 41
30.0
 62
     5
 63
     7
421
 16777215
 74
     2
 91
        2
 64
     7
 65
   257
 75
     2
175
     1
 42
40.0
 92
        0
 66
   257
 43
1.0
 76
     1
 77
     6
 78
     2
 67
     7
 79
     3
170
     0
171
     0
290
     0
174
     0
 93
        1
 44
0.0
173
     0
291
     0
 45
0.0
  0
VISUALSTYLE
  5
1B0
102
{ACAD_REACTORS
330
19F
102
}
330
19F
100
AcDbVisualStyle
  2
JitterOff
 70
    20
 71
     2
 72
     2
 73
     0
 90
        0
 40
0.6
 41
30.0
 62
     5
 63
     7
421
 16777215
 74
     1
 91
        4
 64
     7
 65
   257
 75
     1
175
     1
 42
1.0
 92
       10
 66
     7
 43
1.0
 76
     1
 77
     6
 78
     2
 67
     7
 79
     5
170
     0
171
     0
290
     0
174
     0
 93
        1
 44
0.0
173
     0
291
     1
 45
0.0
  0
VISUALSTYLE
  5
1AD
102
{ACAD_REACTORS
330
19F
102
}
330
19F
100
AcDbVisualStyle
  2
Linepattern
 70
    14
 71
     2
 72
     2
 73
     0
 90
        0
 40
0.6
 41
30.0
 62
     5
 63
     7
421
 16777215
 74
     1
 91
        4
 64
     7
 65
   257
 75
     7
175
     7
 42
1.0
 92
        8
 66
     7
 43
1.0
 76
     1
 77
     6
 78
     2
 67
     7
 79
     5
170
     0
171
     0
290
     0
174
     0
 93
        1
 44
0.0
173
     0
291
     1
 45
0.0
  0
VISUALSTYLE
  5
1B1
102
{ACAD_REACTORS
330
19F
102
}
330
19F
100
AcDbVisualStyle
  2
OverhangOff
 70
    21
 71
     2
 72
     2
 73
     0
 90
        0
 40
0.6
 41
30.0
 62
     5
 63
     7
421
 16777215
 74
     1
 91
        4
 64
     7
 65
   257
 75
     1
175
     1
 42
1.0
 92
        9
 66
     7
 43
1.0
 76
     1
 77
     6
 78
     2
 67
     7
 79
     5
170
     0
171
     0
290
     0
174
     0
 93
        1
 44
0.0
173
     0
291
     1
 45
0.0
  0
VISUALSTYLE
  5
1A8
102
{ACAD_REACTORS
330
19F
102
}
330
19F
100
AcDbVisualStyle
  2
Realistic
 70
     8
 71
     2
 72
     3
 73
     0
 90
        2
 40
0.6
 41
30.0
 62
     5
 63
     7
421
 16777215
 74
     0
 91
        0
 64
     7
 65
   257
 75
     1
175
     1
 42
1.0
 92
        8
 66
   257
 43
1.0
 76
     1
 77
     6
 78
     2
 67
     7
 79
     3
170
     0
171
     0
290
     0
174
     0
 93
       13
 44
0.0
173
     0
291
     0
 45
0.0
  0
VISUALSTYLE
  5
1B7
102
{ACAD_REACTORS
330
19F
102
}
330
19F
100
AcDbVisualStyle
  2
Shaded
 70
    27
 71
     2
 72
     2
 73
     1
 90
        2
 40
0.6
 41
30.0
 62
     5
 63
     7
421
 16777215
 74
     0
 91
        4
 64
     7
 65
   257
 75
     1
175
     1
 42
1.0
 92
        8
 66
   257
 43
1.0
 76
     1
 77
     6
 78
     2
 67
     8
425
  7895160
 79
     3
170
     0
171
     0
290
     0
174
     0
 93
        5
 44
0.0
173
     0
291
     0
 45
0.0
  0
VISUALSTYLE
  5
1B6
102
{ACAD_REACTORS
330
19F
102
}
330
19F
100
AcDbVisualStyle
  2
Shaded with edges
 70
    26
 71
     2
 72
     2
 73
     1
 90
        2
 40
0.6
 41
30.0
 62
     5
 63
     7
421
 16777215
 74
     1
 91
       10
 64
     7
 65
   257
 75
     2
175
     1
 42
1.0
 92
        8
 66
   257
 43
1.0
 76
     1
 77
     6
 78
     2
 67
     7
 79
     3
170
     0
171
     0
290
     0
174
     0
 93
        5
 44
0.0
173
     0
291
     0
 45
0.0
  0
VISUALSTYLE
  5
1B3
102
{ACAD_REACTORS
330
19F
102
}
330
19F
100
AcDbVisualStyle
  2
Shades of Gray
 70
    23
 71
     2
 72
     2
 73
     3
 90
        0
 40
0.6
 41
30.0
 62
     5
 63
     7
421
 16777215
 74
     2
 91
        2
 64
     7
 65
     7
 75
     1
175
     1
 42
40.0
 92
        8
 66
     7
 43
1.0
 76
     1
 77
     6
 78
     2
 67
     7
 79
     3
170
     0
171
     0
290
     0
174
     0
 93
        1
 44
0.0
173
     0
291
     0
 45
0.0
  0
VISUALSTYLE
  5
1B4
102
{ACAD_REACTORS
330
19F
102
}
330
19F
100
AcDbVisualStyle
  2
Sketchy
 70
    24
 71
     1
 72
     2
 73
     2
 90
        0
 40
0.6
 41
30.0
 62
     5
 63
     7
421
 16777215
 74
     2
 91
        2
 64
     7
 65
     7
 75
     1
175
     1
 42
40.0
 92
       11
 66
     7
 43
1.0
 76
     1
 77
     6
 78
     2
 67
     7
 79
     6
170
     0
171
     0
290
     0
174
     0
 93
        1
 44
0.0
173
     0
291
     0
 45
0.0
  0
VISUALSTYLE
  5
1AC
102
{ACAD_REACTORS
330
19F
102
}
330
19F
100
AcDbVisualStyle
  2
Thicken
 70
    13
 71
     2
 72
     2
 73
     0
 90
        0
 40
0.6
 41
30.0
 62
     5
 63
     7
421
 16777215
 74
     1
 91
        4
 64
     7
 65
   257
 75
     1
175
     1
 42
1.0
 92
       12
 66
     7
 43
1.0
 76
     1
 77
     6
 78
     2
 67
     7
 79
     5
170
     0
171
     0
290
     0
174
     0
 93
        1
 44
0.0
173
     0
291
     1
 45
0.0
  0
VISUALSTYLE
  5
1A5
102
{ACAD_REACTORS
330
19F
102
}
330
19F
100
AcDbVisualStyle
  2
Wireframe
 70
     5
 71
     0
 72
     2
 73
     0
 90
        0
 40
0.6
 41
30.0
 62
     5
 63
     7
421
 16777215
 74
     1
 91
        4
 64
     7
 65
   257
 75
     1
175
     1
 42
1.0
 92
        0
 66
   257
 43
1.0
 76
     1
 77
     6
 78
     2
 67
     7
 79
     3
170
     0
171
     0
290
     0
174
     0
 93
        1
 44
0.0
173
     0
291
     0
 45
0.0
  0
VISUALSTYLE
  5
1B5
102
{ACAD_REACTORS
330
19F
102
}
330
19F
100
AcDbVisualStyle
  2
X-Ray
 70
    25
 71
     2
 72
     2
 73
     1
 90
        1
 40
0.5
 41
30.0
 62
     5
 63
     7
421
 16777215
 74
     1
 91
        0
 64
     7
 65
   257
 75
     1
175
     1
 42
1.0
 92
        8
 66
     7
 43
1.0
 76
     1
 77
     6
 78
     2
 67
     7
 79
     3
170
     0
171
     0
290
     0
174
     0
 93
       13
 44
0.0
173
     0
291
     0
 45
0.0
  0
DICTIONARYVAR
  5
1C4
102
{ACAD_REACTORS
330
1C3
102
}
330
1C3
100
DictionaryVariables
280
     0
  1
1:1
  0
DICTIONARYVAR
  5
1C6
102
{ACAD_REACTORS
330
1C3
102
}
330
1C3
100
DictionaryVariables
280
     0
  1
Standard
  0
DICTIONARYVAR
  5
1C5
102
{ACAD_REACTORS
330
1C3
102
}
330
1C3
100
DictionaryVariables
280
     0
  1
Standard
  0
DICTIONARYVAR
  5
1C7
102
{ACAD_REACTORS
330
1C3
102
}
330
1C3
100
DictionaryVariables
280
     0
  1
0
  0
DICTIONARYVAR
  5
20B
102
{ACAD_REACTORS
330
1C3
102
}
330
1C3
100
DictionaryVariables
280
     0
  1
0
  0
DICTIONARY
  5
247
330
1BD
100
AcDbDictionary
280
     1
281
     1
  3
ACAD_ROUNDTRIP_2008_TABLESTYLE_CELLSTYLEMAP
360
248
  0
CELLSTYLEMAP
  5
248
102
{ACAD_REACTORS
330
247
102
}
330
247
100
AcDbCellStyleMap
 90
        3
300
CELLSTYLE
  1
TABLEFORMAT_BEGIN
 90
        5
170
     1
 91
        0
 92
    32768
 62
   257
 93
        1
300
CONTENTFORMAT
  1
CONTENTFORMAT_BEGIN
 90
        0
 91
        0
 92
        4
 93
        0
300

 40
0.0
140
1.0
 94
        5
 62
     0
340
11
144
0.25
309
CONTENTFORMAT_END
171
     1
301
MARGIN
  1
CELLMARGIN_BEGIN
 40
0.06
 40
0.06
 40
0.06
 40
0.06
 40
0.06
 40
0.06
309
CELLMARGIN_END
 94
        6
 95
        1
302
GRIDFORMAT
  1
GRIDFORMAT_BEGIN
 90
        0
 91
        1
 62
     0
 92
       -2
340
14
 93
        0
 40
0.045
309
GRIDFORMAT_END
 95
        2
302
GRIDFORMAT
  1
GRIDFORMAT_BEGIN
 90
        0
 91
        1
 62
     0
 92
       -2
340
14
 93
        0
 40
0.045
309
GRIDFORMAT_END
 95
        4
302
GRIDFORMAT
  1
GRIDFORMAT_BEGIN
 90
        0
 91
        1
 62
     0
 92
       -2
340
14
 93
        0
 40
0.045
309
GRIDFORMAT_END
 95
        8
302
GRIDFORMAT
  1
GRIDFORMAT_BEGIN
 90
        0
 91
        1
 62
     0
 92
       -2
340
14
 93
        0
 40
0.045
309
GRIDFORMAT_END
 95
       16
302
GRIDFORMAT
  1
GRIDFORMAT_BEGIN
 90
        0
 91
        1
 62
     0
 92
       -2
340
14
 93
        0
 40
0.045
309
GRIDFORMAT_END
 95
       32
302
GRIDFORMAT
  1
GRIDFORMAT_BEGIN
 90
        0
 91
        1
 62
     0
 92
       -2
340
14
 93
        0
 40
0.045
309
GRIDFORMAT_END
309
TABLEFORMAT_END
  1
CELLSTYLE_BEGIN
 90
        1
 91
        1
300
_TITLE
309
CELLSTYLE_END
300
CELLSTYLE
  1
TABLEFORMAT_BEGIN
 90
        5
170
     1
 91
        0
 92
        0
 62
   257
 93
        1
300
CONTENTFORMAT
  1
CONTENTFORMAT_BEGIN
 90
        0
 91
        0
 92
        4
 93
        0
300

 40
0.0
140
1.0
 94
        5
 62
     0
340
11
144
0.18
309
CONTENTFORMAT_END
171
     1
301
MARGIN
  1
CELLMARGIN_BEGIN
 40
0.06
 40
0.06
 40
0.06
 40
0.06
 40
0.06
 40
0.06
309
CELLMARGIN_END
 94
        6
 95
        1
302
GRIDFORMAT
  1
GRIDFORMAT_BEGIN
 90
        0
 91
        1
 62
     0
 92
       -2
340
14
 93
        0
 40
0.045
309
GRIDFORMAT_END
 95
        2
302
GRIDFORMAT
  1
GRIDFORMAT_BEGIN
 90
        0
 91
        1
 62
     0
 92
       -2
340
14
 93
        0
 40
0.045
309
GRIDFORMAT_END
 95
        4
302
GRIDFORMAT
  1
GRIDFORMAT_BEGIN
 90
        0
 91
        1
 62
     0
 92
       -2
340
14
 93
        0
 40
0.045
309
GRIDFORMAT_END
 95
        8
302
GRIDFORMAT
  1
GRIDFORMAT_BEGIN
 90
        0
 91
        1
 62
     0
 92
       -2
340
14
 93
        0
 40
0.045
309
GRIDFORMAT_END
 95
       16
302
GRIDFORMAT
  1
GRIDFORMAT_BEGIN
 90
        0
 91
        1
 62
     0
 92
       -2
340
14
 93
        0
 40
0.045
309
GRIDFORMAT_END
 95
       32
302
GRIDFORMAT
  1
GRIDFORMAT_BEGIN
 90
        0
 91
        1
 62
     0
 92
       -2
340
14
 93
        0
 40
0.045
309
GRIDFORMAT_END
309
TABLEFORMAT_END
  1
CELLSTYLE_BEGIN
 90
        2
 91
        1
300
_HEADER
309
CELLSTYLE_END
300
CELLSTYLE
  1
TABLEFORMAT_BEGIN
 90
        5
170
     1
 91
        0
 92
        0
 62
   257
 93
        1
300
CONTENTFORMAT
  1
CONTENTFORMAT_BEGIN
 90
        0
 91
        0
 92
        4
 93
        0
300

 40
0.0
140
1.0
 94
        2
 62
     0
340
11
144
0.18
309
CONTENTFORMAT_END
171
     1
301
MARGIN
  1
CELLMARGIN_BEGIN
 40
0.06
 40
0.06
 40
0.06
 40
0.06
 40
0.06
 40
0.06
309
CELLMARGIN_END
 94
        6
 95
        1
302
GRIDFORMAT
  1
GRIDFORMAT_BEGIN
 90
        0
 91
        1
 62
     0
 92
       -2
340
14
 93
        0
 40
0.045
309
GRIDFORMAT_END
 95
        2
302
GRIDFORMAT
  1
GRIDFORMAT_BEGIN
 90
        0
 91
        1
 62
     0
 92
       -2
340
14
 93
        0
 40
0.045
309
GRIDFORMAT_END
 95
        4
302
GRIDFORMAT
  1
GRIDFORMAT_BEGIN
 90
        0
 91
        1
 62
     0
 92
       -2
340
14
 93
        0
 40
0.045
309
GRIDFORMAT_END
 95
        8
302
GRIDFORMAT
  1
GRIDFORMAT_BEGIN
 90
        0
 91
        1
 62
     0
 92
       -2
340
14
 93
        0
 40
0.045
309
GRIDFORMAT_END
 95
       16
302
GRIDFORMAT
  1
GRIDFORMAT_BEGIN
 90
        0
 91
        1
 62
     0
 92
       -2
340
14
 93
        0
 40
0.045
309
GRIDFORMAT_END
 95
       32
302
GRIDFORMAT
  1
GRIDFORMAT_BEGIN
 90
        0
 91
        1
 62
     0
 92
       -2
340
14
 93
        0
 40
0.045
309
GRIDFORMAT_END
309
TABLEFORMAT_END
  1
CELLSTYLE_BEGIN
 90
        3
 91
        2
300
_DATA
309
CELLSTYLE_END
  0
ENDSEC
  0
EOF
