  0
SECTION
  2
HEADER
  9
$ACADVER
  1
AC1009
  9
$INSBASE
 10
0
 20
0
 30
0
  9
$EXTMIN
 10
0
 20
0
  9
$EXTMAX
 10
594
 20
420
  9
$LIMMIN
 10
0
 20
0
  9
$LIMMAX
 10
594
 20
420
  9
$LTSCALE
 40
2
  0
ENDSEC
  0
SECTION
  2
TABLES
  0
TABLE
  2
LTYPE
 70
     9
  0
LTYPE
  2
CONTINUOUS
 70
    64
  3
実線
 72
    65
 73
     0
 40
0.0
  0
LTYPE
  2
DASHED1
 70
    64
  3
--  --  --  --  --  --  --  --  
 72
    65
 73
     2
 40
2.5
 49
1.25
 49
-1.25
  0
LTYPE
  2
DASHED2
 70
    64
  3
----    ----    ----    ----    
 72
    65
 73
     2
 40
5.0
 49
2.5
 49
-2.5
  0
LTYPE
  2
DASHED3
 70
    64
  3
------  ------  ------  ------  
 72
    65
 73
     2
 40
5.0
 49
3.75
 49
-1.25
  0
LTYPE
  2
CENTER1
 70
    64
  3
----- - ----- - ----- - ----- - 
 72
    65
 73
     4
 40
10.0
 49
6.25
 49
-1.25
 49
1.25
 49
-1.25
  0
LTYPE
  2
CENTER2
 70
    64
  3
----------  --  ----------  --  
 72
    65
 73
     4
 40
20.0
 49
12.5
 49
-2.5
 49
2.5
 49
-2.5
  0
LTYPE
  2
PHANTOM1
 70
    64
  3
--- - - --- - - --- - - --- - - 
 72
    65
 73
     6
 40
10.0
 49
3.25
 49
-1.25
 49
1.25
 49
-1.25
 49
1.25
 49
-1.25
  0
LTYPE
  2
PHANTOM2
 70
    64
  3
--------  -  -  --------  -  -  
 72
    65
 73
     6
 40
20.0
 49
10.0
 49
-2.5
 49
1.25
 49
-2.5
 49
1.25
 49
-2.5
  0
LTYPE
  2
DOT
 70
    64
  3
-   -   -   -   -   -   -   -   
 72
    65
 73
     2
 40
2.5
 49
0.625
 49
-1.875
  0
LTYPE
  2
DUMMY
 70
    64
  3
ダミー
 72
    65
 73
     0
 40
0.0
  0
LTYPE
  2
RAND1
 70
    64
  3
ランダム線1
 72
    65
 73
     4
 40
10.0
 49
1.0
 49
-2.0
 49
3.0
 49
-4.0
  0
LTYPE
  2
RAND2
 70
    64
  3
ランダム線2
 72
    65
 73
     4
 40
14.0
 49
2.0
 49
-3.0
 49
4.0
 49
-5.0
  0
LTYPE
  2
RAND3
 70
    64
  3
ランダム線3
 72
    65
 73
     4
 40
18.0
 49
3.0
 49
-4.0
 49
5.0
 49
-6.0
  0
LTYPE
  2
RAND4
 70
    64
  3
ランダム線4
 72
    65
 73
     4
 40
22.0
 49
4.0
 49
-5.0
 49
6.0
 49
-7.0
  0
LTYPE
  2
RAND5
 70
    64
  3
ランダム線5
 72
    65
 73
     4
 40
26.0
 49
5.0
 49
-6.0
 49
7.0
 49
-8.0
  0
LTYPE
  2
LONG1
 70
    64
  3
----------  --  ----------  --  
 72
    65
 73
     4
 40
40.0
 49
32.5
 49
-2.5
 49
2.5
 49
-2.5
  0
LTYPE
  2
LONG2
 70
    64
  3
--------  -  -  --------  -  -  
 72
    65
 73
     6
 40
40.0
 49
30.0
 49
-2.5
 49
1.25
 49
-2.5
 49
1.25
 49
-2.5
  0
LTYPE
  2
LONG3
 70
    64
  3
+++++++++++++++..+++++++++++++++
 72
    65
 73
     2
 40
40.0
 49
37.5
 49
-2.5
  0
LTYPE
  2
LONG4
 70
    64
  3
+++++++++++++++..+++++++++++++++
 72
    65
 73
     2
 40
80.0
 49
75.0
 49
-5.0
  0
LTYPE
  2
LONG5
 70
    64
  3
----------  --  ----------  --  
 72
    65
 73
     4
 40
60.0
 49
37.5
 49
-7.5
 49
7.5
 49
-7.5
  0
LTYPE
  2
dashed
 70
   64
  3
-------   -------------   ------
 72
   65
 73
    2
 40
7.5
 49
6
 49
-1.5
  0
LTYPE
  2
dashed_spaced
 70
   64
  3
----        --------        ----
 72
   65
 73
    2
 40
12
 49
6
 49
-6
  0
LTYPE
  2
long_dashed_dotted
 70
   64
  3
------------- --- --------------
 72
   65
 73
    4
 40
15.25
 49
12
 49
-1.5
 49
0.25
 49
-1.5
  0
LTYPE
  2
long_dashed_double-dotted
 70
   64
  3
----------- --- --- ------------
 72
   65
 73
    6
 40
17
 49
12
 49
-1.5
 49
0.25
 49
-1.5
 49
0.25
 49
-1.5
  0
LTYPE
  2
long_dashed_triplicate-dotted
 70
   64
  3
--------- --- --- --- ----------
 72
   65
 73
    8
 40
18.75
 49
12
 49
-1.5
 49
0.25
 49
-1.5
 49
0.25
 49
-1.5
 49
0.25
 49
-1.5
  0
LTYPE
  2
dotted
 70
   64
  3
   -       -       -       -    
 72
   65
 73
    2
 40
1.75
 49
0.25
 49
-1.5
  0
LTYPE
  2
chain
 70
   64
  3
-------------- -- --------------
 72
   65
 73
    4
 40
18.5
 49
12
 49
-1.5
 49
3.5
 49
-1.5
  0
LTYPE
  2
chain_double_dash
 70
   64
  3
------------ -- -- -------------
 72
   65
 73
    6
 40
23.5
 49
12
 49
-1.5
 49
3.5
 49
-1.5
 49
3.5
 49
-1.5
  0
LTYPE
  2
dashed_dotted
 70
   64
  3
-----------     -     ----------
 72
   65
 73
    4
 40
9.25
 49
6
 49
-1.5
 49
0.25
 49
-1.5
  0
LTYPE
  2
double-dashed_dotted
 70
   64
  3
------   -----------   -   -----
 72
   65
 73
    6
 40
16.75
 49
6
 49
-1.5
 49
6
 49
-1.5
 49
0.25
 49
-1.5
  0
LTYPE
  2
dashed_double-dotted
 70
   64
  3
---------    -    -    ---------
 72
   65
 73
    6
 40
11
 49
6
 49
-1.5
 49
0.25
 49
-1.5
 49
0.25
 49
-1.5
  0
LTYPE
  2
double-dashed_double-dotted
 70
   64
  3
-----   ---------   -   -   ----
 72
   65
 73
    8
 40
18.5
 49
6
 49
-1.5
 49
6
 49
-1.5
 49
0.25
 49
-1.5
 49
0.25
 49
-1.5
  0
LTYPE
  2
dashed_triplicate-dotted
 70
   64
  3
-------    -    -    -    ------
 72
   65
 73
    8
 40
12.75
 49
6
 49
-1.5
 49
0.25
 49
-1.5
 49
0.25
 49
-1.5
 49
0.25
 49
-1.5
  0
LTYPE
  2
double-dashed_triplicate-dotted
 70
   64
  3
-----  ---------  -  -  -  -----
 72
   65
 73
   10
 40
20.25
 49
6
 49
-1.5
 49
6
 49
-1.5
 49
0.25
 49
-1.5
 49
0.25
 49
-1.5
 49
0.25
 49
-1.5
  0
LTYPE
  2
undefined
 70
   64
  3
--------------------------------
 72
   65
 73
    0
 40
0
  0
LTYPE
  2
STYLE_01
 70
   64
  3
----        --------        ----
 72
   65
 73
    2
 40
0.4166399999999997
 49
0.2082799999999999
 49
-0.2083599999999999
  0
LTYPE
  2
STYLE_02
 70
   64
  3
------     -----------     -----
 72
   65
 73
    2
 40
0.694425
 49
0.48607
 49
-0.2083550000000001
  0
LTYPE
  2
STYLE_03
 70
   64
  3
-------   -------------   ------
 72
   65
 73
    2
 40
1.25
 49
1.0416400000000001
 49
-0.2083599999999999
  0
LTYPE
  2
STYLE_04
 70
   64
  3
-------  --------------  -------
 72
   65
 73
    2
 40
1.5277099999999999
 49
1.3194249999999998
 49
-0.208285
  0
LTYPE
  2
STYLE_05
 70
   64
  3
---           -----           --
 72
   65
 73
    2
 40
0.20828
 49
0.069425
 49
-0.138855
  0
LTYPE
  2
STYLE_06
 70
   64
  3
----------      --    ----------
 72
   65
 73
    4
 40
1.0416399999999999
 49
0.625
 49
-0.2082799999999999
 49
0.06943
 49
-0.13893
  0
LTYPE
  2
STYLE_07
 70
   64
  3
-----    -----------    -  -----
 72
   65
 73
    6
 40
1.8749999999999998
 49
0.625
 49
-0.2082799999999999
 49
0.6250000000000001
 49
-0.2083599999999999
 49
0.06943
 49
-0.1389299999999998
  0
LTYPE
  2
STYLE_08
 70
   64
  3
--------     --    --    -------
 72
   65
 73
    6
 40
1.2499999999999996
 49
0.625
 49
-0.2082799999999999
 49
0.06943
 49
-0.13893
 49
0.0694299999999997
 49
-0.13893
  0
LTYPE
  2
STYLE_09
 70
   64
  3
------------  ----  ------------
 72
   65
 73
    4
 40
5
 49
3.75
 49
-0.2777849999999997
 49
0.6944300000000003
 49
-0.2777849999999997
  0
LTYPE
  2
STYLE_10
 70
   64
  3
----------- ---- ---  ----------
 72
   65
 73
    6
 40
5.9375
 49
3.75
 49
-0.2777849999999997
 49
0.6944300000000003
 49
-0.2777849999999997
 49
0.625
 49
-0.3125
  0
ENDTAB
  0
TABLE
  2
STYLE
  5
3
100
AcDbSymbolTable
 70
     1
  0
STYLE
  5
10
100
AcDbSymbolTableRecord
100
AcDbTextStyleTableRecord
  2
STANDARD
 70
     0
 40
0.0
 41
1.0
 50
0.0
 71
     0
 42
0.2
  3
txt
  4
bigfont.shx
  0
STYLE
  5
26
100
AcDbSymbolTableRecord
100
AcDbTextStyleTableRecord
  2
TATEGAKI
 70
    68
 40
0.0
 41
1.0
 50
0.0
 71
     0
 42
1.0
  3
txt
  4
bigfont.shx
  0
ENDTAB
  0
TABLE
  2
LAYER
 70
    5
  0
LAYER
  2
_0-0_0
 70
   64
 62
    7
  6
CONTINUOUS
  0
LAYER
  2
_0-1_1_5
 70
   64
 62
    7
  6
CONTINUOUS
  0
LAYER
  2
_0-2_ADD_LINE
 70
   64
 62
    7
  6
CONTINUOUS
  0
LAYER
  2
_0-3_
 70
   64
 62
    7
  6
CONTINUOUS
  0
LAYER
  2
ADD_LINE
 70
   64
 62
    7
  6
CONTINUOUS
  0
ENDTAB
  0
ENDSEC
  0
SECTION
  2
BLOCKS
  0
ENDSEC
  0
SECTION
  2
ENTITIES
  0
LINE
  8
_0-0_0
  6
CONTINUOUS
 62
    7
 10
-87.019906738806753
 20
-84.240629916421256
 11
506.98009326119325
 21
-84.240629916421312
  0
LINE
  8
_0-0_0
  6
CONTINUOUS
 62
    7
 10
-87.019906738806753
 20
335.75937008357874
 11
-87.019906738806753
 21
-84.240629916421256
  0
LINE
  8
_0-0_0
  6
CONTINUOUS
 62
    7
 10
506.98009326119325
 20
335.75937008357869
 11
-87.019906738806753
 21
335.75937008357874
  0
LINE
  8
_0-0_0
  6
CONTINUOUS
 62
    7
 10
506.98009326119325
 20
-84.240629916421312
 11
506.98009326119325
 21
335.75937008357869
  0
TEXT
  8
_0-3_
 62
    7
 10
121.25741447433936
 20
-62.900519036372998
 40
4
 41
1
 50
0
  1
材質
  0
TEXT
  8
_0-3_
 62
    7
 10
121.25741447433936
 20
-50.417785461709059
 40
4
 41
1
 50
0
  1
仕上げ
  0
TEXT
  8
_0-3_
 62
    7
 10
121.25741447433936
 20
-38.559188565778356
 40
4
 41
1
 50
0
  1
品名
  0
LINE
  8
_0-3_
  6
CONTINUOUS
 62
    7
 10
305.33333332004827
 20
-68.800541471740075
 11
305.33333332004827
 21
-32.800541471740019
  0
LINE
  8
_0-3_
  6
CONTINUOUS
 62
    7
 10
492.00000000004832
 20
-32.800541471740019
 11
118.30557488476475
 21
-32.800541471740019
  0
LINE
  8
_0-3_
  6
CONTINUOUS
 62
    7
 10
492.00000000004832
 20
-44.800541471740019
 11
118.30557488476475
 21
-44.800541471740019
  0
LINE
  8
_0-3_
  6
CONTINUOUS
 62
    7
 10
492.00000000004832
 20
-56.800541471740019
 11
118.30557488476475
 21
-56.800541471740019
  0
LINE
  8
_0-3_
  6
CONTINUOUS
 62
    7
 10
118.30557488476475
 20
-68.800541471740019
 11
118.30557488476475
 21
-32.800541471740019
  0
TEXT
  8
_0-3_
 62
    7
 10
307.90644669306869
 20
-39.060319445408652
 40
4
 41
1
 50
0
  1
品番
  0
TEXT
  8
_0-3_
 62
    7
 10
307.90644669306869
 20
-50.739042164100738
 40
4
 41
1
 50
0
  1
縮尺
  0
TEXT
  8
_0-3_
 62
    7
 10
135.16691074515126
 20
-66.290244160930513
 40
6.1081542968750009
 41
1
 50
0
  1
ステンレススチール
  0
LINE
  8
_0-3_
  6
CONTINUOUS
 62
    7
 10
-67.999999999951683
 20
-68.800541471740019
 11
492.00000000004832
 21
-68.800541471740075
  0
LINE
  8
_0-3_
  6
CONTINUOUS
 62
    7
 10
492.00000000004832
 20
-68.800541471740075
 11
492.00000000004832
 21
321.19945852826004
  0
LINE
  8
_0-3_
  6
CONTINUOUS
 62
    7
 10
492.00000000004832
 20
321.19945852826004
 11
-67.999999999951683
 21
321.1994585282601
  0
LINE
  8
_0-3_
  6
CONTINUOUS
 62
    7
 10
-67.999999999951683
 20
321.1994585282601
 11
-67.999999999951683
 21
-68.800541471740019
  0
TEXT
  8
_0-3_
 62
    7
 10
-66.888093986564627
 20
-76.72518315284276
 40
5
 41
1
 50
0
  1
120718SH
  0
TEXT
  8
_0-3_
 62
    7
 10
135.16691074515126
 20
-41.881749615713943
 40
6.1081542968750009
 41
1
 50
0
  1
タオルバー
  0
TEXT
  8
_0-3_
 62
    7
 10
321.57668018376324
 20
-65.734199735123013
 40
6.2000000000000002
 41
1
 50
0
  1
大洋金物株式会社  ティーエフプラス事業部
  0
POINT
  8
_0-2_ADD_LINE
 62
    7
 10
130.97407793770566
 20
36.724000347467921
  0
POINT
  8
_0-2_ADD_LINE
 62
    7
 10
130.97407793770566
 20
20.724000347467808
  0
LINE
  8
_0-1_1_5
  6
CONTINUOUS
 62
    7
 10
130.97407793770566
 20
36.724000347467921
 11
130.97407793770566
 21
20.724000347467808
  0
TEXT
  8
_0-2_ADD_LINE
 62
    4
 10
130.02677194919471
 20
53.614429368547889
 40
5
 41
1
 50
90
  1
16
  0
LINE
  8
_0-2_ADD_LINE
  6
CONTINUOUS
 62
    7
 10
130.97407793770566
 20
36.724000347467921
 11
130.97407793770566
 21
62.482872988789467
  0
TEXT
  8
_0-3_
 62
    7
 10
322.25649152470066
 20
-54.000366323889125
 40
6.1081542968750009
 41
1
 50
0
  1
1/2
  0
POINT
  8
_0-2_ADD_LINE
 62
    7
 10
18.329338027978906
 20
221.70600791612111
  0
POINT
  8
_0-2_ADD_LINE
 62
    7
 10
252.32933802797905
 20
221.70600791612111
  0
LINE
  8
_0-2_ADD_LINE
  6
CONTINUOUS
 62
    7
 10
18.329338027978906
 20
221.70600791612111
 11
18.329338027978906
 21
203.65363158246447
  0
LINE
  8
_0-2_ADD_LINE
  6
CONTINUOUS
 62
    7
 10
252.32933802797905
 20
221.70600791612111
 11
252.32933802797905
 21
203.65363158246447
  0
LINE
  8
_0-2_ADD_LINE
  6
CONTINUOUS
 62
    7
 10
18.329338027978906
 20
221.70600791612111
 11
252.32933802797905
 21
221.70600791612111
  0
TEXT
  8
_0-2_ADD_LINE
 62
    4
 10
131.57933802797896
 20
222.70600791612111
 40
5
 41
1
 50
0
  1
234
  0
POINT
  8
_0-2_ADD_LINE
 62
    7
 10
10.329338027979077
 20
233.95992300664682
  0
POINT
  8
_0-2_ADD_LINE
 62
    7
 10
260.3293380279793
 20
233.95992300664682
  0
LINE
  8
_0-2_ADD_LINE
  6
CONTINUOUS
 62
    7
 10
10.329338027979077
 20
233.95992300664682
 11
10.329338027979077
 21
203.61656704156439
  0
LINE
  8
_0-2_ADD_LINE
  6
CONTINUOUS
 62
    7
 10
260.3293380279793
 20
233.95992300664682
 11
260.3293380279793
 21
203.61656704156439
  0
LINE
  8
_0-2_ADD_LINE
  6
CONTINUOUS
 62
    7
 10
10.329338027979077
 20
233.95992300664682
 11
260.3293380279793
 21
233.95992300664682
  0
TEXT
  8
_0-2_ADD_LINE
 62
    4
 10
131.57933802797919
 20
234.95992300664682
 40
5
 41
1
 50
0
  1
250
  0
POINT
  8
_0-2_ADD_LINE
 62
    7
 10
344.64885816564015
 20
199.14393364175859
  0
POINT
  8
_0-2_ADD_LINE
 62
    7
 10
344.64885816564015
 20
183.14393364175893
  0
LINE
  8
_0-2_ADD_LINE
  6
CONTINUOUS
 62
    7
 10
344.64885816564015
 20
199.14393364175859
 11
357.19589987272064
 21
199.14393364175859
  0
LINE
  8
_0-2_ADD_LINE
  6
CONTINUOUS
 62
    7
 10
344.64885816564015
 20
183.14393364175893
 11
357.19589987272064
 21
183.14393364175893
  0
LINE
  8
_0-2_ADD_LINE
  6
CONTINUOUS
 62
    7
 10
344.64885816564015
 20
199.14393364175859
 11
344.64885816564015
 21
183.14393364175893
  0
TEXT
  8
_0-2_ADD_LINE
 62
    4
 10
343.64885816564015
 20
188.64393364175876
 40
5
 41
1
 50
90
  1
16
  0
POINT
  8
_0-2_ADD_LINE
 62
    7
 10
279.10511692197196
 20
20.724000347467808
  0
LINE
  8
_0-2_ADD_LINE
  6
CONTINUOUS
 62
    7
 10
279.10511692197196
 20
20.724000347467808
 11
265.6618579501
 21
20.724000347467808
  0
TEXT
  8
_0-2_ADD_LINE
 62
    7
 10
130.19079425789204
 20
47.38477565488202
 40
6.1081542968750009
 41
1
 50
90
  1
φ
  0
LINE
  8
_0-1_1_5
  6
STYLE_05
 62
    7
 10
244.3293380279793
 20
199.08278582645011
 11
244.3293380279793
 21
183.08278582645082
  0
LINE
  8
_0-1_1_5
  6
CONTINUOUS
 62
    7
 10
252.32933802797905
 20
193.58278582645048
 11
252.32933802797905
 21
188.58278582645048
  0
LINE
  8
_0-1_1_5
  6
CONTINUOUS
 62
    7
 10
249.82933802797905
 20
191.08278582645048
 11
254.82933802797905
 21
191.08278582645048
  0
LINE
  8
_0-1_1_5
  6
CONTINUOUS
 62
    7
 10
259.82933802797902
 20
199.08278582645011
 11
260.3293380279793
 21
198.58278582645013
  0
LINE
  8
_0-1_1_5
  6
CONTINUOUS
 62
    7
 10
260.3293380279793
 20
198.58278582645013
 11
260.3293380279793
 21
183.58278582645079
  0
LINE
  8
_0-1_1_5
  6
CONTINUOUS
 62
    7
 10
260.3293380279793
 20
183.58278582645079
 11
259.82933802797902
 21
183.08278582645082
  0
LINE
  8
_0-1_1_5
  6
CONTINUOUS
 62
    7
 10
18.329338027978906
 20
193.58278582645048
 11
18.329338027978906
 21
188.58278582645048
  0
LINE
  8
_0-1_1_5
  6
CONTINUOUS
 62
    7
 10
15.829338027978906
 20
191.08278582645048
 11
20.829338027978906
 21
191.08278582645048
  0
LINE
  8
_0-1_1_5
  6
CONTINUOUS
 62
    7
 10
10.829338027978906
 20
199.08278582645011
 11
10.329338027979077
 21
198.58278582645013
  0
LINE
  8
_0-1_1_5
  6
CONTINUOUS
 62
    7
 10
10.329338027979077
 20
198.58278582645013
 11
10.329338027979077
 21
183.58278582645079
  0
LINE
  8
_0-1_1_5
  6
CONTINUOUS
 62
    7
 10
10.329338027979077
 20
183.58278582645079
 11
10.829338027978906
 21
183.08278582645082
  0
LINE
  8
_0-1_1_5
  6
STYLE_05
 62
    7
 10
26.32933802797902
 20
199.08278582645011
 11
26.32933802797902
 21
183.08278582645082
  0
LINE
  8
_0-1_1_5
  6
CONTINUOUS
 62
    7
 10
10.829338027978906
 20
199.08278582645011
 11
259.82933802797902
 21
199.08278582645011
  0
LINE
  8
_0-1_1_5
  6
CONTINUOUS
 62
    7
 10
10.829338027978906
 20
183.08278582645082
 11
259.76581487165623
 21
183.08278582645082
  0
CIRCLE
  8
_0-1_1_5
  6
CONTINUOUS
 62
    7
 10
363.74956833202197
 20
191.14393364175882
 40
7.9999999999999849
  0
CIRCLE
  8
_0-1_1_5
  6
CONTINUOUS
 62
    7
 10
363.74956833202197
 20
191.14393364175882
 40
7.5000000000000613
  0
LINE
  8
_0-1_1_5
  6
CONTINUOUS
 62
    7
 10
260.3293380279793
 20
23.153089174099108
 11
260.3293380279793
 21
21.224000347467921
  0
LINE
  8
_0-1_1_5
  6
CONTINUOUS
 62
    7
 10
260.3293380279793
 20
28.724000347467921
 11
260.3293380279793
 21
23.153089174099108
  0
LINE
  8
_0-1_1_5
  6
CONTINUOUS
 62
    7
 10
259.82933802797902
 20
20.724000347467808
 11
260.3293380279793
 21
21.224000347467921
  0
LINE
  8
_0-1_1_5
  6
CONTINUOUS
 62
    7
 10
260.3293380279793
 20
28.724000347467921
 11
244.3293380279793
 21
28.724000347467921
  0
LINE
  8
_0-1_1_5
  6
CONTINUOUS
 62
    7
 10
26.32933802797902
 20
28.724000347467921
 11
10.329338027979077
 21
28.724000347467921
  0
LINE
  8
_0-1_1_5
  6
CONTINUOUS
 62
    7
 10
10.329338027979077
 20
36.224000347467353
 11
10.329338027979077
 21
21.224000347467921
  0
LINE
  8
_0-1_1_5
  6
CONTINUOUS
 62
    7
 10
10.829338027978906
 20
20.724000347467808
 11
10.329338027979077
 21
21.224000347467921
  0
LINE
  8
_0-1_1_5
  6
CONTINUOUS
 62
    7
 10
244.3293380279793
 20
36.724000347467921
 11
26.32933802797902
 21
36.724000347467921
  0
LINE
  8
_0-1_1_5
  6
CONTINUOUS
 62
    7
 10
259.82933802797902
 20
20.724000347467808
 11
10.829338027978906
 21
20.724000347467808
  0
TEXT
  8
_0-3_
 62
    7
 10
135.16691074515126
 20
-54.188953352434794
 40
6.1081542968750009
 41
1
 50
0
  1
サテン
  0
TEXT
  8
_0-3_
 62
    7
 10
321.93216695212038
 20
-41.805639179264233
 40
6.1081542968750009
 41
1
 50
0
  1
TFP40-D125-002
  0
LINE
  8
_0-2_ADD_LINE
  6
CONTINUOUS
 62
    7
 10
427.19889244257814
 20
189.51084190050673
 11
427.19889244257814
 21
153.87029312839169
  0
LINE
  8
_0-1_1_5
  6
CONTINUOUS
 62
    7
 10
415.74956833202094
 20
199.14393364175859
 11
415.74956833202094
 21
183.14393364175893
  0
LINE
  8
_0-1_1_5
  6
CONTINUOUS
 62
    7
 10
449.69861547825411
 20
191.14393364175868
 11
444.07368471933495
 21
192.89383563605463
  0
LINE
  8
_0-1_1_5
  6
CONTINUOUS
 62
    7
 10
449.69861547825411
 20
191.14393364175868
 11
444.07368471933495
 21
189.39403164746287
  0
LINE
  8
_0-1_1_5
  6
CONTINUOUS
 62
    7
 10
405.49966633772505
 20
189.39403164746287
 11
444.07368471933495
 21
189.39403164746287
  0
LINE
  8
_0-1_1_5
  6
CONTINUOUS
 62
    7
 10
405.53648861465194
 20
192.89383563605463
 11
444.07313079068717
 21
192.89383563605463
  0
LINE
  8
_0-1_1_5
  6
CONTINUOUS
 62
    7
 10
417.35526361446972
 20
189.51084190050673
 11
418.76149630419991
 21
193.01064588909853
  0
LINE
  8
_0-1_1_5
  6
CONTINUOUS
 62
    7
 10
418.76149630419991
 20
189.51084190050673
 11
420.16772899392936
 21
193.01064588909853
  0
LINE
  8
_0-1_1_5
  6
CONTINUOUS
 62
    7
 10
420.16772899392936
 20
189.51084190050673
 11
421.57396168365921
 21
193.01064588909853
  0
LINE
  8
_0-1_1_5
  6
CONTINUOUS
 62
    7
 10
421.57396168365921
 20
189.51084190050673
 11
422.98019437338866
 21
193.01064588909853
  0
LINE
  8
_0-1_1_5
  6
CONTINUOUS
 62
    7
 10
422.98019437338866
 20
189.51084190050673
 11
424.38642706311884
 21
193.01064588909853
  0
LINE
  8
_0-1_1_5
  6
CONTINUOUS
 62
    7
 10
428.6051251323081
 20
189.51084190050673
 11
430.01135782203778
 21
193.01064588909853
  0
LINE
  8
_0-1_1_5
  6
CONTINUOUS
 62
    7
 10
430.01135782203778
 20
189.51084190050673
 11
431.4175905117674
 21
193.01064588909853
  0
LINE
  8
_0-1_1_5
  6
CONTINUOUS
 62
    7
 10
431.4175905117674
 20
189.51084190050673
 11
432.82382320149708
 21
193.01064588909853
  0
LINE
  8
_0-1_1_5
  6
CONTINUOUS
 62
    7
 10
432.82382320149708
 20
189.51084190050673
 11
434.23005589122675
 21
193.01064588909853
  0
LINE
  8
_0-1_1_5
  6
CONTINUOUS
 62
    7
 10
434.23005589122675
 20
189.51084190050673
 11
435.63628858095672
 21
193.01064588909853
  0
LINE
  8
_0-1_1_5
  6
CONTINUOUS
 62
    7
 10
435.63628858095672
 20
189.51084190050673
 11
437.04252127068634
 21
193.01064588909853
  0
LINE
  8
_0-1_1_5
  6
CONTINUOUS
 62
    7
 10
437.04252127068634
 20
189.51084190050673
 11
438.44875396041601
 21
193.01064588909853
  0
LINE
  8
_0-1_1_5
  6
CONTINUOUS
 62
    7
 10
424.38642706311884
 20
189.51084190050673
 11
425.79265975284829
 21
193.01064588909853
  0
LINE
  8
_0-1_1_5
  6
CONTINUOUS
 62
    7
 10
438.44875396041601
 20
189.51084190050673
 11
439.85498665014597
 21
193.01064588909853
  0
LINE
  8
_0-1_1_5
  6
CONTINUOUS
 62
    7
 10
441.26121933987565
 20
189.51084190050673
 11
442.6674520296055
 21
193.01064588909853
  0
LINE
  8
_0-1_1_5
  6
CONTINUOUS
 62
    7
 10
442.6674520296055
 20
189.51084190050673
 11
444.07368471933495
 21
193.01064588909853
  0
LINE
  8
_0-1_1_5
  6
CONTINUOUS
 62
    7
 10
439.85498665014597
 20
189.51084190050673
 11
441.26121933987565
 21
193.01064588909853
  0
LINE
  8
_0-1_1_5
  6
CONTINUOUS
 62
    7
 10
425.79265975284829
 20
189.51084190050673
 11
427.19889244257814
 21
193.01064588909853
  0
LINE
  8
_0-1_1_5
  6
STYLE_01
 62
    7
 10
414.54903092474018
 20
189.51084190050673
 11
415.95526361446986
 21
193.01064588909853
  0
LINE
  8
_0-1_1_5
  6
STYLE_01
 62
    7
 10
413.14903092474032
 20
189.51084190050673
 11
414.55526361446999
 21
193.01064588909853
  0
LINE
  8
_0-1_1_5
  6
STYLE_01
 62
    7
 10
411.74903092474028
 20
189.51084190050673
 11
413.1552636144699
 21
193.01064588909853
  0
LINE
  8
_0-1_1_5
  6
STYLE_01
 62
    7
 10
410.34903092474042
 20
189.51084190050673
 11
411.75526361447004
 21
193.01064588909853
  0
LINE
  8
_0-1_1_5
  6
STYLE_01
 62
    7
 10
408.94903092474055
 20
189.51084190050673
 11
410.35526361447
 21
193.01064588909853
  0
LINE
  8
_0-1_1_5
  6
STYLE_01
 62
    7
 10
407.54903092474046
 20
189.51084190050673
 11
408.95526361447014
 21
193.01064588909853
  0
LINE
  8
_0-1_1_5
  6
STYLE_01
 62
    7
 10
406.14903092474037
 20
189.51084190050673
 11
407.55526361447028
 21
193.01064588909853
  0
LINE
  8
_0-1_1_5
  6
STYLE_01
 62
    7
 10
405.49966633772527
 20
191.37900840774927
 11
406.15526361446996
 21
193.01064588909853
  0
LINE
  8
_0-1_1_5
  6
STYLE_01
 62
    7
 10
403.74956833202123
 20
194.64393364175876
 11
405.49966633772527
 21
192.89383563605463
  0
LINE
  8
_0-1_1_5
  6
STYLE_01
 62
    7
 10
403.74956833202123
 20
187.64393364175882
 11
405.49966633772505
 21
189.39403164746287
  0
LINE
  8
_0-1_1_5
  6
STYLE_01
 62
    7
 10
405.49966633772527
 20
192.89383563605463
 11
405.49966633772527
 21
189.39403164746287
  0
LINE
  8
_0-1_1_5
  6
CONTINUOUS
 62
    7
 10
415.94903092474027
 20
189.51084190050673
 11
417.35526361446972
 21
193.01064588909853
  0
LINE
  8
_0-1_1_5
  6
STYLE_01
 62
    7
 10
411.24956833202123
 20
196.14393364175868
 11
415.74956833202094
 21
196.14393364175868
  0
LINE
  8
_0-1_1_5
  6
STYLE_01
 62
    7
 10
415.74956833202094
 20
196.14393364175868
 11
415.74956833202094
 21
186.14393364175868
  0
LINE
  8
_0-1_1_5
  6
STYLE_01
 62
    7
 10
415.74956833202094
 20
186.14393364175868
 11
411.24956833202123
 21
186.14393364175868
  0
LINE
  8
_0-1_1_5
  6
STYLE_01
 62
    7
 10
408.24956833202094
 20
186.14393364175868
 11
403.74956833202123
 21
186.14393364175868
  0
LINE
  8
_0-1_1_5
  6
STYLE_01
 62
    7
 10
403.74956833202123
 20
186.14393364175868
 11
403.74956833202123
 21
196.14393364175868
  0
LINE
  8
_0-1_1_5
  6
STYLE_01
 62
    7
 10
403.74956833202123
 20
196.14393364175868
 11
408.24956833202094
 21
196.14393364175868
  0
LINE
  8
_0-1_1_5
  6
STYLE_01
 62
    7
 10
408.24956833202094
 20
186.14393364175868
 11
409.749568332021
 21
187.64393364175868
  0
LINE
  8
_0-1_1_5
  6
STYLE_01
 62
    7
 10
411.24956833202123
 20
186.14393364175868
 11
409.749568332021
 21
187.64393364175868
  0
LINE
  8
_0-1_1_5
  6
STYLE_01
 62
    7
 10
408.24956833202094
 20
196.14393364175868
 11
409.749568332021
 21
194.64393364175882
  0
LINE
  8
_0-1_1_5
  6
STYLE_01
 62
    7
 10
411.24956833202123
 20
196.14393364175868
 11
409.749568332021
 21
194.64393364175882
  0
LINE
  8
_0-1_1_5
  6
STYLE_01
 62
    7
 10
408.24956833202094
 20
196.14393364175868
 11
408.24956833202094
 21
186.14393364175868
  0
LINE
  8
_0-1_1_5
  6
STYLE_01
 62
    7
 10
411.24956833202123
 20
186.14393364175868
 11
411.24956833202123
 21
196.14393364175868
  0
LINE
  8
_0-1_1_5
  6
CONTINUOUS
 62
    7
 10
427.19889244257814
 20
189.51084190050673
 11
428.6051251323081
 21
193.01064588909853
  0
LINE
  8
_0-1_1_5
  6
CONTINUOUS
 62
    7
 10
363.74956833202162
 20
199.14393364175859
 11
415.74956833202094
 21
199.14393364175859
  0
LINE
  8
_0-1_1_5
  6
CONTINUOUS
 62
    7
 10
415.74956833202094
 20
183.14393364175893
 11
363.74956833202162
 21
183.14393364175893
  0
POINT
  8
_0-2_ADD_LINE
 62
    7
 10
279.10511692197196
 20
80.724000347467893
  0
LINE
  8
_0-2_ADD_LINE
  6
CONTINUOUS
 62
    7
 10
279.10511692197196
 20
80.724000347467893
 11
265.6618579501
 21
80.724000347467893
  0
POINT
  8
_0-2_ADD_LINE
 62
    7
 10
10.329338027979077
 20
121.90730643517644
  0
POINT
  8
_0-2_ADD_LINE
 62
    7
 10
26.32933802797902
 20
121.90730643517644
  0
LINE
  8
_0-2_ADD_LINE
  6
CONTINUOUS
 62
    7
 10
10.329338027979077
 20
121.90730643517644
 11
10.329338027979077
 21
83.88208820045287
  0
LINE
  8
_0-2_ADD_LINE
  6
CONTINUOUS
 62
    7
 10
26.32933802797902
 20
121.90730643517644
 11
26.32933802797902
 21
83.88208820045287
  0
LINE
  8
_0-2_ADD_LINE
  6
CONTINUOUS
 62
    7
 10
10.329338027979077
 20
121.90730643517644
 11
26.32933802797902
 21
121.90730643517644
  0
TEXT
  8
_0-2_ADD_LINE
 62
    4
 10
15.82933802797902
 20
122.90730643517644
 40
5
 41
1
 50
0
  1
16
  0
LINE
  8
_0-1_1_5
  6
CONTINUOUS
 62
    7
 10
244.3293380279793
 20
80.724000347467893
 11
260.3293380279793
 21
80.724000347467893
  0
LINE
  8
_0-1_1_5
  6
CONTINUOUS
 62
    7
 10
252.32933802797925
 20
114.67304749370105
 11
250.57943603368329
 21
109.0481167347819
  0
LINE
  8
_0-1_1_5
  6
CONTINUOUS
 62
    7
 10
252.32933802797925
 20
114.67304749370105
 11
254.07924002227503
 21
109.0481167347819
  0
LINE
  8
_0-1_1_5
  6
CONTINUOUS
 62
    7
 10
254.07924002227503
 20
70.474098353171996
 11
254.07924002227503
 21
109.0481167347819
  0
LINE
  8
_0-1_1_5
  6
CONTINUOUS
 62
    7
 10
250.57943603368329
 20
70.510920630098866
 11
250.57943603368329
 21
109.0475628061341
  0
LINE
  8
_0-1_1_5
  6
CONTINUOUS
 62
    7
 10
253.96242976923119
 20
82.329695629916671
 11
250.46262578063937
 21
83.735928319646831
  0
LINE
  8
_0-1_1_5
  6
CONTINUOUS
 62
    7
 10
253.96242976923119
 20
83.735928319646831
 11
250.46262578063937
 21
85.142161009376281
  0
LINE
  8
_0-1_1_5
  6
CONTINUOUS
 62
    7
 10
253.96242976923119
 20
85.142161009376281
 11
250.46262578063937
 21
86.548393699106157
  0
LINE
  8
_0-1_1_5
  6
CONTINUOUS
 62
    7
 10
253.96242976923119
 20
86.548393699106157
 11
250.46262578063937
 21
87.954626388835607
  0
LINE
  8
_0-1_1_5
  6
CONTINUOUS
 62
    7
 10
253.96242976923119
 20
87.954626388835607
 11
250.46262578063937
 21
89.360859078565767
  0
LINE
  8
_0-1_1_5
  6
CONTINUOUS
 62
    7
 10
253.96242976923119
 20
93.57955714775504
 11
250.46262578063937
 21
94.985789837484703
  0
LINE
  8
_0-1_1_5
  6
CONTINUOUS
 62
    7
 10
253.96242976923119
 20
92.173324458025093
 11
250.46262578063937
 21
93.57955714775504
  0
LINE
  8
_0-1_1_5
  6
CONTINUOUS
 62
    7
 10
253.96242976923119
 20
94.985789837484703
 11
250.46262578063937
 21
96.392022527214365
  0
LINE
  8
_0-1_1_5
  6
CONTINUOUS
 62
    7
 10
253.96242976923119
 20
96.392022527214365
 11
250.46262578063937
 21
97.798255216944028
  0
LINE
  8
_0-1_1_5
  6
CONTINUOUS
 62
    7
 10
253.96242976923119
 20
97.798255216944028
 11
250.46262578063937
 21
99.204487906673691
  0
LINE
  8
_0-1_1_5
  6
CONTINUOUS
 62
    7
 10
253.96242976923119
 20
99.204487906673691
 11
250.46262578063937
 21
100.61072059640364
  0
LINE
  8
_0-1_1_5
  6
CONTINUOUS
 62
    7
 10
253.96242976923119
 20
100.61072059640364
 11
250.46262578063937
 21
102.0169532861333
  0
LINE
  8
_0-1_1_5
  6
CONTINUOUS
 62
    7
 10
253.96242976923119
 20
102.0169532861333
 11
250.46262578063937
 21
103.42318597586296
  0
LINE
  8
_0-1_1_5
  6
CONTINUOUS
 62
    7
 10
253.96242976923119
 20
89.360859078565767
 11
250.46262578063937
 21
90.767091768295217
  0
LINE
  8
_0-1_1_5
  6
CONTINUOUS
 62
    7
 10
253.96242976923119
 20
103.42318597586296
 11
250.46262578063937
 21
104.82941866559291
  0
LINE
  8
_0-1_1_5
  6
CONTINUOUS
 62
    7
 10
253.96242976923119
 20
106.23565135532257
 11
250.46262578063937
 21
107.64188404505245
  0
LINE
  8
_0-1_1_5
  6
CONTINUOUS
 62
    7
 10
253.96242976923119
 20
107.64188404505245
 11
250.46262578063937
 21
109.0481167347819
  0
LINE
  8
_0-1_1_5
  6
CONTINUOUS
 62
    7
 10
253.96242976923119
 20
104.82941866559291
 11
250.46262578063937
 21
106.23565135532257
  0
LINE
  8
_0-1_1_5
  6
CONTINUOUS
 62
    7
 10
253.96242976923119
 20
90.767091768295217
 11
250.46262578063937
 21
92.173324458025093
  0
LINE
  8
_0-1_1_5
  6
STYLE_01
 62
    7
 10
253.96242976923119
 20
79.52346294018713
 11
250.46262578063937
 21
80.929695629916807
  0
LINE
  8
_0-1_1_5
  6
STYLE_01
 62
    7
 10
253.96242976923119
 20
78.123462940187267
 11
250.46262578063937
 21
79.529695629916944
  0
LINE
  8
_0-1_1_5
  6
STYLE_01
 62
    7
 10
253.96242976923119
 20
76.723462940187204
 11
250.46262578063937
 21
78.129695629916853
  0
LINE
  8
_0-1_1_5
  6
STYLE_01
 62
    7
 10
253.96242976923119
 20
75.323462940187341
 11
250.46262578063937
 21
76.729695629916989
  0
LINE
  8
_0-1_1_5
  6
STYLE_01
 62
    7
 10
253.96242976923119
 20
73.923462940187477
 11
250.46262578063937
 21
75.329695629916927
  0
LINE
  8
_0-1_1_5
  6
STYLE_01
 62
    7
 10
253.96242976923119
 20
72.523462940187414
 11
250.46262578063937
 21
73.929695629917063
  0
LINE
  8
_0-1_1_5
  6
STYLE_01
 62
    7
 10
253.96242976923119
 20
71.123462940187324
 11
250.46262578063937
 21
72.5296956299172
  0
LINE
  8
_0-1_1_5
  6
STYLE_01
 62
    7
 10
252.09426326198866
 20
70.474098353172224
 11
250.46262578063937
 21
71.12969562991691
  0
LINE
  8
_0-1_1_5
  6
STYLE_01
 62
    7
 10
248.82933802797913
 20
68.724000347468149
 11
250.57943603368329
 21
70.474098353172224
  0
LINE
  8
_0-1_1_5
  6
STYLE_01
 62
    7
 10
255.82933802797911
 20
68.724000347468149
 11
254.07924002227503
 21
70.474098353171996
  0
LINE
  8
_0-1_1_5
  6
STYLE_01
 62
    7
 10
250.57943603368329
 20
70.474098353172224
 11
254.07924002227503
 21
70.474098353172224
  0
LINE
  8
_0-1_1_5
  6
CONTINUOUS
 62
    7
 10
253.96242976923119
 20
80.923462940187221
 11
250.46262578063937
 21
82.329695629916671
  0
LINE
  8
_0-1_1_5
  6
STYLE_01
 62
    7
 10
247.32933802797925
 20
76.224000347468149
 11
247.32933802797925
 21
80.724000347467893
  0
LINE
  8
_0-1_1_5
  6
STYLE_01
 62
    7
 10
247.32933802797925
 20
80.724000347467893
 11
257.32933802797925
 21
80.724000347467893
  0
LINE
  8
_0-1_1_5
  6
STYLE_01
 62
    7
 10
257.32933802797925
 20
80.724000347467893
 11
257.32933802797925
 21
76.224000347468149
  0
LINE
  8
_0-1_1_5
  6
STYLE_01
 62
    7
 10
257.32933802797925
 20
73.224000347467893
 11
257.32933802797925
 21
68.724000347468149
  0
LINE
  8
_0-1_1_5
  6
STYLE_01
 62
    7
 10
257.32933802797925
 20
68.724000347468149
 11
247.32933802797925
 21
68.724000347468149
  0
LINE
  8
_0-1_1_5
  6
STYLE_01
 62
    7
 10
247.32933802797925
 20
68.724000347468149
 11
247.32933802797925
 21
73.224000347467893
  0
LINE
  8
_0-1_1_5
  6
STYLE_01
 62
    7
 10
257.32933802797925
 20
73.224000347467893
 11
255.82933802797925
 21
74.72400034746795
  0
LINE
  8
_0-1_1_5
  6
STYLE_01
 62
    7
 10
257.32933802797925
 20
76.224000347468149
 11
255.82933802797925
 21
74.72400034746795
  0
LINE
  8
_0-1_1_5
  6
STYLE_01
 62
    7
 10
247.32933802797925
 20
73.224000347467893
 11
248.82933802797908
 21
74.72400034746795
  0
LINE
  8
_0-1_1_5
  6
STYLE_01
 62
    7
 10
247.32933802797925
 20
76.224000347468149
 11
248.82933802797908
 21
74.72400034746795
  0
LINE
  8
_0-1_1_5
  6
STYLE_01
 62
    7
 10
247.32933802797925
 20
73.224000347467893
 11
257.32933802797925
 21
73.224000347467893
  0
LINE
  8
_0-1_1_5
  6
STYLE_01
 62
    7
 10
257.32933802797925
 20
76.224000347468149
 11
247.32933802797925
 21
76.224000347468149
  0
LINE
  8
_0-1_1_5
  6
CONTINUOUS
 62
    7
 10
10.329338027979077
 20
80.724000347467893
 11
26.32933802797902
 21
80.724000347467893
  0
LINE
  8
_0-1_1_5
  6
CONTINUOUS
 62
    7
 10
18.32933802797902
 20
114.67304749370105
 11
16.57943603368318
 21
109.0481167347819
  0
LINE
  8
_0-1_1_5
  6
CONTINUOUS
 62
    7
 10
18.32933802797902
 20
114.67304749370105
 11
20.079240022274917
 21
109.0481167347819
  0
LINE
  8
_0-1_1_5
  6
CONTINUOUS
 62
    7
 10
20.079240022274917
 20
70.474098353171996
 11
20.079240022274917
 21
109.0481167347819
  0
LINE
  8
_0-1_1_5
  6
CONTINUOUS
 62
    7
 10
16.57943603368318
 20
70.510920630098866
 11
16.57943603368318
 21
109.0475628061341
  0
LINE
  8
_0-1_1_5
  6
CONTINUOUS
 62
    7
 10
19.962429769230937
 20
82.329695629916671
 11
16.4626257806392
 21
83.735928319646831
  0
LINE
  8
_0-1_1_5
  6
CONTINUOUS
 62
    7
 10
19.962429769230937
 20
83.735928319646831
 11
16.4626257806392
 21
85.142161009376281
  0
LINE
  8
_0-1_1_5
  6
CONTINUOUS
 62
    7
 10
19.962429769230937
 20
85.142161009376281
 11
16.4626257806392
 21
86.548393699106157
  0
LINE
  8
_0-1_1_5
  6
CONTINUOUS
 62
    7
 10
19.962429769230937
 20
86.548393699106157
 11
16.4626257806392
 21
87.954626388835607
  0
LINE
  8
_0-1_1_5
  6
CONTINUOUS
 62
    7
 10
19.962429769230937
 20
87.954626388835607
 11
16.4626257806392
 21
89.360859078565767
  0
LINE
  8
_0-1_1_5
  6
CONTINUOUS
 62
    7
 10
19.962429769230937
 20
93.57955714775504
 11
16.4626257806392
 21
94.985789837484703
  0
LINE
  8
_0-1_1_5
  6
CONTINUOUS
 62
    7
 10
19.962429769230937
 20
92.173324458025093
 11
16.4626257806392
 21
93.57955714775504
  0
LINE
  8
_0-1_1_5
  6
CONTINUOUS
 62
    7
 10
19.962429769230937
 20
94.985789837484703
 11
16.4626257806392
 21
96.392022527214365
  0
LINE
  8
_0-1_1_5
  6
CONTINUOUS
 62
    7
 10
19.962429769230937
 20
96.392022527214365
 11
16.4626257806392
 21
97.798255216944028
  0
LINE
  8
_0-1_1_5
  6
CONTINUOUS
 62
    7
 10
19.962429769230937
 20
97.798255216944028
 11
16.4626257806392
 21
99.204487906673691
  0
LINE
  8
_0-1_1_5
  6
CONTINUOUS
 62
    7
 10
19.962429769230937
 20
99.204487906673691
 11
16.4626257806392
 21
100.61072059640364
  0
LINE
  8
_0-1_1_5
  6
CONTINUOUS
 62
    7
 10
19.962429769230937
 20
100.61072059640364
 11
16.4626257806392
 21
102.0169532861333
  0
LINE
  8
_0-1_1_5
  6
CONTINUOUS
 62
    7
 10
19.962429769230937
 20
102.0169532861333
 11
16.4626257806392
 21
103.42318597586296
  0
LINE
  8
_0-1_1_5
  6
CONTINUOUS
 62
    7
 10
19.962429769230937
 20
89.360859078565767
 11
16.4626257806392
 21
90.767091768295217
  0
LINE
  8
_0-1_1_5
  6
CONTINUOUS
 62
    7
 10
19.962429769230937
 20
103.42318597586296
 11
16.4626257806392
 21
104.82941866559291
  0
LINE
  8
_0-1_1_5
  6
CONTINUOUS
 62
    7
 10
19.962429769230937
 20
106.23565135532257
 11
16.4626257806392
 21
107.64188404505245
  0
LINE
  8
_0-1_1_5
  6
CONTINUOUS
 62
    7
 10
19.962429769230937
 20
107.64188404505245
 11
16.4626257806392
 21
109.0481167347819
  0
LINE
  8
_0-1_1_5
  6
CONTINUOUS
 62
    7
 10
19.962429769230937
 20
104.82941866559291
 11
16.4626257806392
 21
106.23565135532257
  0
LINE
  8
_0-1_1_5
  6
CONTINUOUS
 62
    7
 10
19.962429769230937
 20
90.767091768295217
 11
16.4626257806392
 21
92.173324458025093
  0
LINE
  8
_0-1_1_5
  6
STYLE_01
 62
    7
 10
19.962429769230937
 20
79.52346294018713
 11
16.4626257806392
 21
80.929695629916807
  0
LINE
  8
_0-1_1_5
  6
STYLE_01
 62
    7
 10
19.962429769230937
 20
78.123462940187267
 11
16.4626257806392
 21
79.529695629916944
  0
LINE
  8
_0-1_1_5
  6
STYLE_01
 62
    7
 10
19.962429769230937
 20
76.723462940187204
 11
16.4626257806392
 21
78.129695629916853
  0
LINE
  8
_0-1_1_5
  6
STYLE_01
 62
    7
 10
19.962429769230937
 20
75.323462940187341
 11
16.4626257806392
 21
76.729695629916989
  0
LINE
  8
_0-1_1_5
  6
STYLE_01
 62
    7
 10
19.962429769230937
 20
73.923462940187477
 11
16.4626257806392
 21
75.329695629916927
  0
LINE
  8
_0-1_1_5
  6
STYLE_01
 62
    7
 10
19.962429769230937
 20
72.523462940187414
 11
16.4626257806392
 21
73.929695629917063
  0
LINE
  8
_0-1_1_5
  6
STYLE_01
 62
    7
 10
19.962429769230937
 20
71.123462940187324
 11
16.4626257806392
 21
72.5296956299172
  0
LINE
  8
_0-1_1_5
  6
STYLE_01
 62
    7
 10
18.094263261988544
 20
70.474098353172224
 11
16.4626257806392
 21
71.12969562991691
  0
LINE
  8
_0-1_1_5
  6
STYLE_01
 62
    7
 10
14.829338027978963
 20
68.724000347468149
 11
16.57943603368318
 21
70.474098353172224
  0
LINE
  8
_0-1_1_5
  6
STYLE_01
 62
    7
 10
21.829338027978849
 20
68.724000347468149
 11
20.079240022274917
 21
70.474098353171996
  0
LINE
  8
_0-1_1_5
  6
STYLE_01
 62
    7
 10
16.57943603368318
 20
70.474098353172224
 11
20.079240022274917
 21
70.474098353172224
  0
LINE
  8
_0-1_1_5
  6
CONTINUOUS
 62
    7
 10
19.962429769230937
 20
80.923462940187221
 11
16.4626257806392
 21
82.329695629916671
  0
LINE
  8
_0-1_1_5
  6
STYLE_01
 62
    7
 10
13.32933802797902
 20
76.224000347468149
 11
13.32933802797902
 21
80.724000347467893
  0
LINE
  8
_0-1_1_5
  6
STYLE_01
 62
    7
 10
13.32933802797902
 20
80.724000347467893
 11
23.32933802797902
 21
80.724000347467893
  0
LINE
  8
_0-1_1_5
  6
STYLE_01
 62
    7
 10
23.32933802797902
 20
80.724000347467893
 11
23.32933802797902
 21
76.224000347468149
  0
LINE
  8
_0-1_1_5
  6
STYLE_01
 62
    7
 10
23.32933802797902
 20
73.224000347467893
 11
23.32933802797902
 21
68.724000347468149
  0
LINE
  8
_0-1_1_5
  6
STYLE_01
 62
    7
 10
23.32933802797902
 20
68.724000347468149
 11
13.32933802797902
 21
68.724000347468149
  0
LINE
  8
_0-1_1_5
  6
STYLE_01
 62
    7
 10
13.32933802797902
 20
68.724000347468149
 11
13.32933802797902
 21
73.224000347467893
  0
LINE
  8
_0-1_1_5
  6
STYLE_01
 62
    7
 10
23.32933802797902
 20
73.224000347467893
 11
21.829338027979134
 21
74.72400034746795
  0
LINE
  8
_0-1_1_5
  6
STYLE_01
 62
    7
 10
23.32933802797902
 20
76.224000347468149
 11
21.829338027979134
 21
74.72400034746795
  0
LINE
  8
_0-1_1_5
  6
STYLE_01
 62
    7
 10
13.32933802797902
 20
73.224000347467893
 11
14.829338027978963
 21
74.72400034746795
  0
LINE
  8
_0-1_1_5
  6
STYLE_01
 62
    7
 10
13.32933802797902
 20
76.224000347468149
 11
14.829338027978963
 21
74.72400034746795
  0
LINE
  8
_0-1_1_5
  6
STYLE_01
 62
    7
 10
13.32933802797902
 20
73.224000347467893
 11
23.32933802797902
 21
73.224000347467893
  0
LINE
  8
_0-1_1_5
  6
STYLE_01
 62
    7
 10
23.32933802797902
 20
76.224000347468149
 11
13.32933802797902
 21
76.224000347468149
  0
LINE
  8
_0-1_1_5
  6
CONTINUOUS
 62
    7
 10
10.329338027979077
 20
28.724000347467921
 11
10.329338027979077
 21
80.724000347467893
  0
LINE
  8
_0-1_1_5
  6
CONTINUOUS
 62
    7
 10
26.32933802797902
 20
80.724000347467893
 11
26.32933802797902
 21
28.724000347467921
  0
LINE
  8
_0-1_1_5
  6
CONTINUOUS
 62
    7
 10
244.3293380279793
 20
28.724000347467921
 11
244.3293380279793
 21
80.724000347467893
  0
LINE
  8
_0-1_1_5
  6
CONTINUOUS
 62
    7
 10
260.3293380279793
 20
80.724000347467893
 11
260.3293380279793
 21
28.724000347467921
  0
LINE
  8
_0-2_ADD_LINE
  6
CONTINUOUS
 62
    7
 10
279.10511692197196
 20
80.724000347467893
 11
279.10511692197196
 21
20.724000347467808
  0
TEXT
  8
_0-2_ADD_LINE
 62
    4
 10
278.10511692197196
 20
48.224000347467836
 40
5
 41
1
 50
90
  1
60
  0
TEXT
  8
_0-2_ADD_LINE
 62
    4
 10
413.67081264618662
 20
144.59961175273895
 40
5
 41
1
 50
0
  1
タッピングビス
  0
TEXT
  8
_0-2_ADD_LINE
 62
    4
 10
413.97768505296699
 20
136.88368420256577
 40
5
 41
1
 50
0
  1
3.5x45
  0
ENDSEC
  0
EOF
