  0
SECTION
  2
HEADER
  9
$ACADVER
  1
AC1009
  9
$INSBASE
 10
0
 20
0
 30
0
  9
$EXTMIN
 10
0
 20
0
  9
$EXTMAX
 10
594
 20
420
  9
$LIMMIN
 10
0
 20
0
  9
$LIMMAX
 10
594
 20
420
  9
$LTSCALE
 40
2
  0
ENDSEC
  0
SECTION
  2
TABLES
  0
TABLE
  2
LTYPE
 70
     9
  0
LTYPE
  2
CONTINUOUS
 70
    64
  3
実線
 72
    65
 73
     0
 40
0.0
  0
LTYPE
  2
DASHED1
 70
    64
  3
--  --  --  --  --  --  --  --  
 72
    65
 73
     2
 40
2.5
 49
1.25
 49
-1.25
  0
LTYPE
  2
DASHED2
 70
    64
  3
----    ----    ----    ----    
 72
    65
 73
     2
 40
5.0
 49
2.5
 49
-2.5
  0
LTYPE
  2
DASHED3
 70
    64
  3
------  ------  ------  ------  
 72
    65
 73
     2
 40
5.0
 49
3.75
 49
-1.25
  0
LTYPE
  2
CENTER1
 70
    64
  3
----- - ----- - ----- - ----- - 
 72
    65
 73
     4
 40
10.0
 49
6.25
 49
-1.25
 49
1.25
 49
-1.25
  0
LTYPE
  2
CENTER2
 70
    64
  3
----------  --  ----------  --  
 72
    65
 73
     4
 40
20.0
 49
12.5
 49
-2.5
 49
2.5
 49
-2.5
  0
LTYPE
  2
PHANTOM1
 70
    64
  3
--- - - --- - - --- - - --- - - 
 72
    65
 73
     6
 40
10.0
 49
3.25
 49
-1.25
 49
1.25
 49
-1.25
 49
1.25
 49
-1.25
  0
LTYPE
  2
PHANTOM2
 70
    64
  3
--------  -  -  --------  -  -  
 72
    65
 73
     6
 40
20.0
 49
10.0
 49
-2.5
 49
1.25
 49
-2.5
 49
1.25
 49
-2.5
  0
LTYPE
  2
DOT
 70
    64
  3
-   -   -   -   -   -   -   -   
 72
    65
 73
     2
 40
2.5
 49
0.625
 49
-1.875
  0
LTYPE
  2
DUMMY
 70
    64
  3
ダミー
 72
    65
 73
     0
 40
0.0
  0
LTYPE
  2
RAND1
 70
    64
  3
ランダム線1
 72
    65
 73
     4
 40
10.0
 49
1.0
 49
-2.0
 49
3.0
 49
-4.0
  0
LTYPE
  2
RAND2
 70
    64
  3
ランダム線2
 72
    65
 73
     4
 40
14.0
 49
2.0
 49
-3.0
 49
4.0
 49
-5.0
  0
LTYPE
  2
RAND3
 70
    64
  3
ランダム線3
 72
    65
 73
     4
 40
18.0
 49
3.0
 49
-4.0
 49
5.0
 49
-6.0
  0
LTYPE
  2
RAND4
 70
    64
  3
ランダム線4
 72
    65
 73
     4
 40
22.0
 49
4.0
 49
-5.0
 49
6.0
 49
-7.0
  0
LTYPE
  2
RAND5
 70
    64
  3
ランダム線5
 72
    65
 73
     4
 40
26.0
 49
5.0
 49
-6.0
 49
7.0
 49
-8.0
  0
LTYPE
  2
LONG1
 70
    64
  3
----------  --  ----------  --  
 72
    65
 73
     4
 40
40.0
 49
32.5
 49
-2.5
 49
2.5
 49
-2.5
  0
LTYPE
  2
LONG2
 70
    64
  3
--------  -  -  --------  -  -  
 72
    65
 73
     6
 40
40.0
 49
30.0
 49
-2.5
 49
1.25
 49
-2.5
 49
1.25
 49
-2.5
  0
LTYPE
  2
LONG3
 70
    64
  3
+++++++++++++++..+++++++++++++++
 72
    65
 73
     2
 40
40.0
 49
37.5
 49
-2.5
  0
LTYPE
  2
LONG4
 70
    64
  3
+++++++++++++++..+++++++++++++++
 72
    65
 73
     2
 40
80.0
 49
75.0
 49
-5.0
  0
LTYPE
  2
LONG5
 70
    64
  3
----------  --  ----------  --  
 72
    65
 73
     4
 40
60.0
 49
37.5
 49
-7.5
 49
7.5
 49
-7.5
  0
LTYPE
  2
dashed
 70
   64
  3
-------   -------------   ------
 72
   65
 73
    2
 40
7.5
 49
6
 49
-1.5
  0
LTYPE
  2
dashed_spaced
 70
   64
  3
----        --------        ----
 72
   65
 73
    2
 40
12
 49
6
 49
-6
  0
LTYPE
  2
long_dashed_dotted
 70
   64
  3
------------- --- --------------
 72
   65
 73
    4
 40
15.25
 49
12
 49
-1.5
 49
0.25
 49
-1.5
  0
LTYPE
  2
long_dashed_double-dotted
 70
   64
  3
----------- --- --- ------------
 72
   65
 73
    6
 40
17
 49
12
 49
-1.5
 49
0.25
 49
-1.5
 49
0.25
 49
-1.5
  0
LTYPE
  2
long_dashed_triplicate-dotted
 70
   64
  3
--------- --- --- --- ----------
 72
   65
 73
    8
 40
18.75
 49
12
 49
-1.5
 49
0.25
 49
-1.5
 49
0.25
 49
-1.5
 49
0.25
 49
-1.5
  0
LTYPE
  2
dotted
 70
   64
  3
   -       -       -       -    
 72
   65
 73
    2
 40
1.75
 49
0.25
 49
-1.5
  0
LTYPE
  2
chain
 70
   64
  3
-------------- -- --------------
 72
   65
 73
    4
 40
18.5
 49
12
 49
-1.5
 49
3.5
 49
-1.5
  0
LTYPE
  2
chain_double_dash
 70
   64
  3
------------ -- -- -------------
 72
   65
 73
    6
 40
23.5
 49
12
 49
-1.5
 49
3.5
 49
-1.5
 49
3.5
 49
-1.5
  0
LTYPE
  2
dashed_dotted
 70
   64
  3
-----------     -     ----------
 72
   65
 73
    4
 40
9.25
 49
6
 49
-1.5
 49
0.25
 49
-1.5
  0
LTYPE
  2
double-dashed_dotted
 70
   64
  3
------   -----------   -   -----
 72
   65
 73
    6
 40
16.75
 49
6
 49
-1.5
 49
6
 49
-1.5
 49
0.25
 49
-1.5
  0
LTYPE
  2
dashed_double-dotted
 70
   64
  3
---------    -    -    ---------
 72
   65
 73
    6
 40
11
 49
6
 49
-1.5
 49
0.25
 49
-1.5
 49
0.25
 49
-1.5
  0
LTYPE
  2
double-dashed_double-dotted
 70
   64
  3
-----   ---------   -   -   ----
 72
   65
 73
    8
 40
18.5
 49
6
 49
-1.5
 49
6
 49
-1.5
 49
0.25
 49
-1.5
 49
0.25
 49
-1.5
  0
LTYPE
  2
dashed_triplicate-dotted
 70
   64
  3
-------    -    -    -    ------
 72
   65
 73
    8
 40
12.75
 49
6
 49
-1.5
 49
0.25
 49
-1.5
 49
0.25
 49
-1.5
 49
0.25
 49
-1.5
  0
LTYPE
  2
double-dashed_triplicate-dotted
 70
   64
  3
-----  ---------  -  -  -  -----
 72
   65
 73
   10
 40
20.25
 49
6
 49
-1.5
 49
6
 49
-1.5
 49
0.25
 49
-1.5
 49
0.25
 49
-1.5
 49
0.25
 49
-1.5
  0
LTYPE
  2
undefined
 70
   64
  3
--------------------------------
 72
   65
 73
    0
 40
0
  0
LTYPE
  2
STYLE_01
 70
   64
  3
----        --------        ----
 72
   65
 73
    2
 40
0.4166399999999997
 49
0.2082799999999999
 49
-0.2083599999999999
  0
LTYPE
  2
STYLE_02
 70
   64
  3
------     -----------     -----
 72
   65
 73
    2
 40
0.694425
 49
0.48607
 49
-0.2083550000000001
  0
LTYPE
  2
STYLE_03
 70
   64
  3
-------   -------------   ------
 72
   65
 73
    2
 40
1.25
 49
1.0416400000000001
 49
-0.2083599999999999
  0
LTYPE
  2
STYLE_04
 70
   64
  3
-------  --------------  -------
 72
   65
 73
    2
 40
1.5277099999999999
 49
1.3194249999999998
 49
-0.208285
  0
LTYPE
  2
STYLE_05
 70
   64
  3
---           -----           --
 72
   65
 73
    2
 40
0.20828
 49
0.069425
 49
-0.138855
  0
LTYPE
  2
STYLE_06
 70
   64
  3
----------      --    ----------
 72
   65
 73
    4
 40
1.0416399999999999
 49
0.625
 49
-0.2082799999999999
 49
0.06943
 49
-0.13893
  0
LTYPE
  2
STYLE_07
 70
   64
  3
-----    -----------    -  -----
 72
   65
 73
    6
 40
1.8749999999999998
 49
0.625
 49
-0.2082799999999999
 49
0.6250000000000001
 49
-0.2083599999999999
 49
0.06943
 49
-0.1389299999999998
  0
LTYPE
  2
STYLE_08
 70
   64
  3
--------     --    --    -------
 72
   65
 73
    6
 40
1.2499999999999996
 49
0.625
 49
-0.2082799999999999
 49
0.06943
 49
-0.13893
 49
0.0694299999999997
 49
-0.13893
  0
LTYPE
  2
STYLE_09
 70
   64
  3
------------  ----  ------------
 72
   65
 73
    4
 40
5
 49
3.75
 49
-0.2777849999999997
 49
0.6944300000000003
 49
-0.2777849999999997
  0
LTYPE
  2
STYLE_10
 70
   64
  3
----------- ---- ---  ----------
 72
   65
 73
    6
 40
5.9375
 49
3.75
 49
-0.2777849999999997
 49
0.6944300000000003
 49
-0.2777849999999997
 49
0.625
 49
-0.3125
  0
ENDTAB
  0
TABLE
  2
STYLE
  5
3
100
AcDbSymbolTable
 70
     1
  0
STYLE
  5
10
100
AcDbSymbolTableRecord
100
AcDbTextStyleTableRecord
  2
STANDARD
 70
     0
 40
0.0
 41
1.0
 50
0.0
 71
     0
 42
0.2
  3
txt
  4
bigfont.shx
  0
STYLE
  5
26
100
AcDbSymbolTableRecord
100
AcDbTextStyleTableRecord
  2
TATEGAKI
 70
    68
 40
0.0
 41
1.0
 50
0.0
 71
     0
 42
1.0
  3
txt
  4
bigfont.shx
  0
ENDTAB
  0
TABLE
  2
LAYER
 70
    5
  0
LAYER
  2
_0-0_0
 70
   64
 62
    7
  6
CONTINUOUS
  0
LAYER
  2
_0-1_1_5
 70
   64
 62
    7
  6
CONTINUOUS
  0
LAYER
  2
_0-2_ADD_LINE
 70
   64
 62
    7
  6
CONTINUOUS
  0
LAYER
  2
_0-3_
 70
   64
 62
    7
  6
CONTINUOUS
  0
LAYER
  2
ADD_LINE
 70
   64
 62
    7
  6
CONTINUOUS
  0
ENDTAB
  0
ENDSEC
  0
SECTION
  2
BLOCKS
  0
ENDSEC
  0
SECTION
  2
ENTITIES
  0
TEXT
  8
_0-3_
 62
    7
 10
321.93216695212038
 20
-41.80563917926429
 40
6.1081542968750009
 41
1
 50
0
  1
TFP40-D300-003
  0
LINE
  8
_0-1_1_5
  6
CENTER2
 62
    7
 10
39.441842250386799
 20
217.675330338501
 11
49.44184225038677
 21
217.675330338501
  0
LINE
  8
_0-1_1_5
  6
CENTER2
 62
    7
 10
44.44184225038677
 20
212.675330338501
 11
44.44184225038677
 21
222.675330338501
  0
TEXT
  8
_0-3_
 62
    7
 10
135.16691074515126
 20
-66.290244160930513
 40
6.1081542968750009
 41
1
 50
0
  1
ステンレススチール
  0
LINE
  8
_0-0_0
  6
CONTINUOUS
 62
    7
 10
-87.019906738806753
 20
335.75937008357874
 11
-87.019906738806753
 21
-84.240629916421256
  0
LINE
  8
_0-0_0
  6
CONTINUOUS
 62
    7
 10
-87.019906738806753
 20
-84.240629916421256
 11
506.98009326119325
 21
-84.240629916421312
  0
LINE
  8
_0-0_0
  6
CONTINUOUS
 62
    7
 10
506.98009326119325
 20
-84.240629916421312
 11
506.98009326119325
 21
335.75937008357869
  0
LINE
  8
_0-0_0
  6
CONTINUOUS
 62
    7
 10
506.98009326119325
 20
335.75937008357869
 11
-87.019906738806753
 21
335.75937008357874
  0
TEXT
  8
_0-3_
 62
    7
 10
121.25741447433936
 20
-62.900519036372998
 40
4
 41
1
 50
0
  1
材質
  0
TEXT
  8
_0-3_
 62
    7
 10
121.25741447433936
 20
-50.417785461709059
 40
4
 41
1
 50
0
  1
仕上げ
  0
TEXT
  8
_0-3_
 62
    7
 10
121.25741447433936
 20
-38.559188565778356
 40
4
 41
1
 50
0
  1
品名
  0
LINE
  8
_0-3_
  6
CONTINUOUS
 62
    7
 10
305.33333332004827
 20
-68.800541471740075
 11
305.33333332004827
 21
-32.800541471740019
  0
LINE
  8
_0-3_
  6
CONTINUOUS
 62
    7
 10
492.00000000004832
 20
-32.800541471740019
 11
118.30557488476475
 21
-32.800541471740019
  0
LINE
  8
_0-3_
  6
CONTINUOUS
 62
    7
 10
492.00000000004832
 20
-44.800541471740019
 11
118.30557488476475
 21
-44.800541471740019
  0
LINE
  8
_0-3_
  6
CONTINUOUS
 62
    7
 10
492.00000000004832
 20
-56.800541471740019
 11
118.30557488476475
 21
-56.800541471740019
  0
LINE
  8
_0-3_
  6
CONTINUOUS
 62
    7
 10
118.30557488476475
 20
-68.800541471740019
 11
118.30557488476475
 21
-32.800541471740019
  0
TEXT
  8
_0-3_
 62
    7
 10
307.90644669306869
 20
-39.060319445408652
 40
4
 41
1
 50
0
  1
品番
  0
TEXT
  8
_0-3_
 62
    7
 10
307.90644669306869
 20
-50.739042164100738
 40
4
 41
1
 50
0
  1
縮尺
  0
TEXT
  8
_0-3_
 62
    7
 10
-66.888093986564627
 20
-76.72518315284276
 40
5
 41
1
 50
0
  1
120718SH
  0
LINE
  8
_0-3_
  6
CONTINUOUS
 62
    7
 10
-67.999999999951683
 20
321.1994585282601
 11
-67.999999999951683
 21
-68.800541471740019
  0
LINE
  8
_0-3_
  6
CONTINUOUS
 62
    7
 10
-67.999999999951683
 20
-68.800541471740019
 11
492.00000000004832
 21
-68.800541471740075
  0
LINE
  8
_0-3_
  6
CONTINUOUS
 62
    7
 10
492.00000000004832
 20
-68.800541471740075
 11
492.00000000004832
 21
321.19945852826004
  0
LINE
  8
_0-3_
  6
CONTINUOUS
 62
    7
 10
492.00000000004832
 20
321.19945852826004
 11
-67.999999999951683
 21
321.1994585282601
  0
TEXT
  8
_0-3_
 62
    7
 10
135.16691074515126
 20
-41.881749615713943
 40
6.1081542968750009
 41
1
 50
0
  1
タオルバー
  0
TEXT
  8
_0-3_
 62
    7
 10
321.84362785127729
 20
-66.996859894418549
 40
6.2000000000000002
 41
1
 50
0
  1
大洋金物株式会社  ティーエフプラス事業部
  0
TEXT
  8
_0-3_
 62
    7
 10
322.25649152470066
 20
-54.000366323889125
 40
6.1081542968750009
 41
1
 50
0
  1
1/2
  0
LINE
  8
_0-1_1_5
  6
CONTINUOUS
 62
    7
 10
11.441842250386799
 20
225.675330338501
 11
11.441842250386799
 21
163.675330338501
  0
LINE
  8
_0-1_1_5
  6
CONTINUOUS
 62
    7
 10
8.4418422503867987
 20
225.675330338501
 11
8.4418422503867987
 21
163.675330338501
  0
LINE
  8
_0-1_1_5
  6
CONTINUOUS
 62
    7
 10
188.44184225038734
 20
225.675330338501
 11
188.44184225038734
 21
163.675330338501
  0
LINE
  8
_0-1_1_5
  6
CONTINUOUS
 62
    7
 10
185.44184225038734
 20
225.675330338501
 11
185.44184225038734
 21
163.675330338501
  0
LINE
  8
_0-1_1_5
  6
CONTINUOUS
 62
    7
 10
8.4418422503867987
 20
225.675330338501
 11
11.441842250386799
 21
225.675330338501
  0
LINE
  8
_0-1_1_5
  6
CONTINUOUS
 62
    7
 10
185.44184225038734
 20
225.675330338501
 11
188.44184225038734
 21
225.675330338501
  0
LINE
  8
_0-1_1_5
  6
CONTINUOUS
 62
    7
 10
21.441842250386799
 20
153.675330338501
 11
175.44184225038734
 21
153.675330338501
  0
ARC
  8
_0-1_1_5
  6
CONTINUOUS
 62
    7
 10
21.441842250386799
 20
163.675330338501
 40
10
 50
180
 51
270
  0
ARC
  8
_0-1_1_5
  6
CONTINUOUS
 62
    7
 10
21.441842250386799
 20
163.675330338501
 40
13
 50
180
 51
270
  0
ARC
  8
_0-1_1_5
  6
CONTINUOUS
 62
    7
 10
175.44184225038734
 20
163.675330338501
 40
10
 50
270
 51
0
  0
ARC
  8
_0-1_1_5
  6
CONTINUOUS
 62
    7
 10
175.44184225038734
 20
163.675330338501
 40
13
 50
270
 51
0
  0
LINE
  8
_0-1_1_5
  6
CONTINUOUS
 62
    7
 10
12.441842250386799
 20
225.675330338501
 11
12.441842250386799
 21
209.51533033850097
  0
LINE
  8
_0-1_1_5
  6
CONTINUOUS
 62
    7
 10
11.441842250386799
 20
209.51533033850097
 11
185.44184225038734
 21
209.51533033850097
  0
LINE
  8
_0-1_1_5
  6
CONTINUOUS
 62
    7
 10
184.44184225038734
 20
225.675330338501
 11
184.44184225038734
 21
209.51533033850097
  0
LINE
  8
_0-1_1_5
  6
CONTINUOUS
 62
    7
 10
11.441842250386799
 20
225.675330338501
 11
185.44184225038734
 21
225.675330338501
  0
LINE
  8
_0-1_1_5
  6
DASHED1
 62
    7
 10
52.521842250386811
 20
225.675330338501
 11
52.521842250386811
 21
209.51533033850097
  0
LINE
  8
_0-1_1_5
  6
DASHED1
 62
    7
 10
52.521842250386811
 20
209.51533033850097
 11
36.361842250386871
 21
209.51533033850097
  0
LINE
  8
_0-1_1_5
  6
DASHED1
 62
    7
 10
36.361842250386871
 20
209.51533033850097
 11
36.361842250386871
 21
225.675330338501
  0
LINE
  8
_0-1_1_5
  6
DASHED1
 62
    7
 10
160.52184225038681
 20
225.675330338501
 11
160.52184225038681
 21
209.51533033850097
  0
LINE
  8
_0-1_1_5
  6
DASHED1
 62
    7
 10
160.52184225038681
 20
209.51533033850097
 11
144.36184225038684
 21
209.51533033850097
  0
LINE
  8
_0-1_1_5
  6
DASHED1
 62
    7
 10
144.36184225038684
 20
209.51533033850097
 11
144.36184225038684
 21
225.675330338501
  0
LINE
  8
_0-1_1_5
  6
CONTINUOUS
 62
    7
 10
184.44184225038723
 20
26.584659480071792
 11
185.44184225038723
 21
26.584659480071792
  0
LINE
  8
_0-1_1_5
  6
CONTINUOUS
 62
    7
 10
185.44184225038723
 20
26.584659480071792
 11
185.44184225038723
 21
10.584659480071792
  0
LINE
  8
_0-1_1_5
  6
CONTINUOUS
 62
    7
 10
185.44184225038723
 20
10.584659480071792
 11
184.44184225038723
 21
10.584659480071792
  0
LINE
  8
_0-1_1_5
  6
CONTINUOUS
 62
    7
 10
184.44184225038723
 20
10.584659480071792
 11
184.44184225038723
 21
26.584659480071792
  0
LINE
  8
_0-1_1_5
  6
CONTINUOUS
 62
    7
 10
11.441842250386799
 20
26.584659480071792
 11
12.441842250386799
 21
26.584659480071792
  0
LINE
  8
_0-1_1_5
  6
CONTINUOUS
 62
    7
 10
12.441842250386799
 20
26.584659480071792
 11
12.441842250386799
 21
10.584659480071792
  0
LINE
  8
_0-1_1_5
  6
CONTINUOUS
 62
    7
 10
12.441842250386799
 20
10.584659480071792
 11
11.441842250386799
 21
10.584659480071792
  0
LINE
  8
_0-1_1_5
  6
CONTINUOUS
 62
    7
 10
11.441842250386799
 20
10.584659480071792
 11
11.441842250386799
 21
26.584659480071792
  0
LINE
  8
_0-1_1_5
  6
CONTINUOUS
 62
    7
 10
8.4418422503867987
 20
26.584659480071792
 11
11.441842250386799
 21
26.584659480071792
  0
LINE
  8
_0-1_1_5
  6
CONTINUOUS
 62
    7
 10
11.441842250386799
 20
26.584659480071792
 11
11.441842250386799
 21
10.584659480071792
  0
LINE
  8
_0-1_1_5
  6
CONTINUOUS
 62
    7
 10
11.441842250386799
 20
10.584659480071792
 11
8.4418422503867987
 21
10.584659480071792
  0
LINE
  8
_0-1_1_5
  6
CONTINUOUS
 62
    7
 10
8.4418422503867987
 20
10.584659480071792
 11
8.4418422503867987
 21
26.584659480071792
  0
LINE
  8
_0-1_1_5
  6
CONTINUOUS
 62
    7
 10
185.44184225038723
 20
26.584659480071792
 11
188.44184225038723
 21
26.584659480071792
  0
LINE
  8
_0-1_1_5
  6
CONTINUOUS
 62
    7
 10
188.44184225038723
 20
26.584659480071792
 11
188.44184225038723
 21
10.584659480071792
  0
LINE
  8
_0-1_1_5
  6
CONTINUOUS
 62
    7
 10
188.44184225038723
 20
10.584659480071792
 11
185.44184225038723
 21
10.584659480071792
  0
LINE
  8
_0-1_1_5
  6
CONTINUOUS
 62
    7
 10
185.44184225038723
 20
10.584659480071792
 11
185.44184225038723
 21
26.584659480071792
  0
LINE
  8
_0-1_1_5
  6
CONTINUOUS
 62
    7
 10
52.69184225038677
 20
26.584659480071792
 11
144.19184225038745
 21
26.584659480071792
  0
LINE
  8
_0-1_1_5
  6
CONTINUOUS
 62
    7
 10
36.361842250386871
 20
70.584659480072389
 11
52.361842250386843
 21
70.584659480072389
  0
LINE
  8
_0-1_1_5
  6
CONTINUOUS
 62
    7
 10
52.361842250386843
 20
70.584659480072389
 11
52.361842250386843
 21
18.584659480072361
  0
LINE
  8
_0-1_1_5
  6
CONTINUOUS
 62
    7
 10
52.361842250386843
 20
18.584659480072361
 11
36.361842250386871
 21
18.584659480072361
  0
LINE
  8
_0-1_1_5
  6
CONTINUOUS
 62
    7
 10
36.361842250386871
 20
18.584659480072361
 11
36.361842250386871
 21
70.584659480072389
  0
LINE
  8
_0-1_1_5
  6
CONTINUOUS
 62
    7
 10
144.36184225038684
 20
70.584659480072389
 11
160.36184225038684
 21
70.584659480072389
  0
LINE
  8
_0-1_1_5
  6
CONTINUOUS
 62
    7
 10
160.36184225038684
 20
70.584659480072389
 11
160.36184225038684
 21
18.584659480072361
  0
LINE
  8
_0-1_1_5
  6
CONTINUOUS
 62
    7
 10
144.36184225038684
 20
70.584659480072389
 11
144.36184225038684
 21
18.584659480072361
  0
LINE
  8
_0-1_1_5
  6
CONTINUOUS
 62
    7
 10
144.36184225038684
 20
18.584659480072361
 11
160.36184225038684
 21
18.584659480072361
  0
LINE
  8
_0-1_1_5
  6
CONTINUOUS
 62
    7
 10
160.36184225038684
 20
26.584659480071792
 11
184.44184225038723
 21
26.584659480071792
  0
LINE
  8
_0-1_1_5
  6
CONTINUOUS
 62
    7
 10
184.44184225038723
 20
26.584659480071792
 11
184.44184225038723
 21
10.584659480072474
  0
LINE
  8
_0-1_1_5
  6
CONTINUOUS
 62
    7
 10
184.44184225038723
 20
10.584659480072474
 11
12.441842250386799
 21
10.584659480072474
  0
LINE
  8
_0-1_1_5
  6
CONTINUOUS
 62
    7
 10
12.441842250386799
 20
10.584659480072474
 11
12.441842250386799
 21
26.584659480071792
  0
LINE
  8
_0-1_1_5
  6
CONTINUOUS
 62
    7
 10
12.441842250386799
 20
26.584659480071792
 11
36.361842250386871
 21
26.584659480071792
  0
LINE
  8
_0-1_1_5
  6
DASHED1
 62
    7
 10
52.69184225038677
 20
26.584659480071792
 11
52.361842250386843
 21
26.584659480071792
  0
LINE
  8
_0-1_1_5
  6
DASHED1
 62
    7
 10
36.361842250386871
 20
26.584659480071792
 11
52.361842250386843
 21
26.584659480071792
  0
LINE
  8
_0-1_1_5
  6
DASHED1
 62
    7
 10
144.19184225038745
 20
26.584659480071792
 11
144.36184225038684
 21
26.584659480071792
  0
LINE
  8
_0-1_1_5
  6
DASHED1
 62
    7
 10
144.36184225038684
 20
26.584659480071792
 11
160.36184225038684
 21
26.584659480071792
  0
LINE
  8
_0-1_1_5
  6
CONTINUOUS
 62
    7
 10
321.17229353405503
 20
225.73647815380951
 11
373.17229353405492
 21
225.73647815380951
  0
LINE
  8
_0-1_1_5
  6
CONTINUOUS
 62
    7
 10
373.17229353405492
 20
225.73647815380951
 11
373.17229353405492
 21
209.7364781538098
  0
LINE
  8
_0-1_1_5
  6
CONTINUOUS
 62
    7
 10
373.17229353405492
 20
209.7364781538098
 11
329.17229353405503
 21
209.7364781538098
  0
ARC
  8
_0-1_1_5
  6
CONTINUOUS
 62
    7
 10
321.17229353405503
 20
217.73647815380946
 40
8.0000000000000071
 50
0.0000000000000547
 51
90.000000000000043
  0
ARC
  8
_0-1_1_5
  6
CONTINUOUS
 62
    7
 10
321.17229353405503
 20
217.73647815380951
 40
7.9999999999999938
 50
89.999999999999943
 51
180.00000000000006
  0
LINE
  8
_0-1_1_5
  6
CONTINUOUS
 62
    7
 10
313.50784282398183
 20
150.73647815381014
 11
313.47229353405498
 21
150.73647815381014
  0
LINE
  8
_0-1_1_5
  6
CONTINUOUS
 62
    7
 10
313.17229353405503
 20
217.73647815380951
 11
313.17229353405503
 21
217.50602547891248
  0
LINE
  8
_0-1_1_5
  6
CONTINUOUS
 62
    7
 10
313.17229353405503
 20
217.50602547891248
 11
313.17229353405503
 21
153.73647815381003
  0
LINE
  8
_0-1_1_5
  6
CONTINUOUS
 62
    7
 10
313.17229353405503
 20
151.03647815381012
 11
313.17229353405503
 21
153.73647815381003
  0
ARC
  8
_0-1_1_5
  6
CONTINUOUS
 62
    7
 10
313.47229353405498
 20
151.03647815381012
 40
0.3
 50
180
 51
270
  0
LINE
  8
_0-1_1_5
  6
CONTINUOUS
 62
    7
 10
328.87229353405507
 20
150.73647815381014
 11
313.47229353405498
 21
150.73647815381014
  0
LINE
  8
_0-1_1_5
  6
CONTINUOUS
 62
    7
 10
329.17229353405503
 20
151.03647815381012
 11
329.17229353405503
 21
153.73647815381003
  0
ARC
  8
_0-1_1_5
  6
CONTINUOUS
 62
    7
 10
328.87229353405507
 20
151.03647815381012
 40
0.3
 50
270
 51
0
  0
LINE
  8
_0-1_1_5
  6
CONTINUOUS
 62
    7
 10
329.17229353405503
 20
217.50602547891248
 11
329.17229353405503
 21
217.73647815380951
  0
LINE
  8
_0-1_1_5
  6
CONTINUOUS
 62
    7
 10
329.17229353405503
 20
153.73647815381003
 11
329.17229353405503
 21
217.50602547891248
  0
ARC
  8
_0-1_1_5
  6
CONTINUOUS
 62
    7
 10
321.17229353405503
 20
217.73647815380946
 40
8.0000000000000071
 50
89.999999999999957
 51
179.99999999999994
  0
ARC
  8
_0-1_1_5
  6
CONTINUOUS
 62
    7
 10
321.17229353405503
 20
217.73647815380951
 40
7.9999999999999938
 50
359.99999999999994
 51
90.000000000000057
  0
ARC
  8
_0-1_1_5
  6
DASHED1
 62
    7
 10
321.17229353405503
 20
217.73647815380957
 40
8.0000000000000071
 50
269.99999999999994
 51
359.99999999999994
  0
ARC
  8
_0-1_1_5
  6
DASHED1
 62
    7
 10
321.17229353405503
 20
217.73647815380951
 40
7.9999999999999938
 50
179.99999999999994
 51
270.00000000000006
  0
LINE
  8
_0-1_1_5
  6
DASHED1
 62
    7
 10
313.17229353405503
 20
153.73647815381003
 11
329.17229353405503
 21
153.73647815381003
  0
POINT
  8
_0-2_ADD_LINE
 62
    7
 10
8.4418422503867987
 20
255.6522665210432
  0
POINT
  8
_0-2_ADD_LINE
 62
    7
 10
188.44184225038734
 20
255.6522665210432
  0
LINE
  8
_0-2_ADD_LINE
  6
CONTINUOUS
 62
    7
 10
8.4418422503867987
 20
255.6522665210432
 11
8.4418422503867987
 21
229.675330338501
  0
LINE
  8
_0-2_ADD_LINE
  6
CONTINUOUS
 62
    7
 10
188.44184225038734
 20
255.6522665210432
 11
188.44184225038734
 21
229.675330338501
  0
LINE
  8
_0-4_
  6
CONTINUOUS
 62
    7
 10
8.4418422503867987
 20
255.6522665210432
 11
188.44184225038734
 21
255.6522665210432
  0
TEXT
  8
_0-1_1_5
 62
    4
 10
94.691842250387054
 20
256.6522665210432
 40
5
 41
1
 50
0
  1
180
  0
POINT
  8
_0-2_ADD_LINE
 62
    7
 10
44.44184225038677
 20
245.73488310232216
  0
POINT
  8
_0-2_ADD_LINE
 62
    7
 10
152.44184225038677
 20
245.73488310232216
  0
LINE
  8
_0-2_ADD_LINE
  6
CONTINUOUS
 62
    7
 10
44.44184225038677
 20
245.73488310232216
 11
44.44184225038677
 21
229.675330338501
  0
LINE
  8
_0-4_
  6
CONTINUOUS
 62
    7
 10
44.44184225038677
 20
245.73488310232216
 11
152.44184225038677
 21
245.73488310232216
  0
TEXT
  8
_0-1_1_5
 62
    4
 10
94.69184225038677
 20
246.73488310232216
 40
5
 41
1
 50
0
  1
108
  0
LINE
  8
_0-2_ADD_LINE
  6
CONTINUOUS
 62
    7
 10
152.44184225038677
 20
245.73488310232216
 11
152.44184225038677
 21
229.675330338501
  0
POINT
  8
_0-2_ADD_LINE
 62
    7
 10
208.54407514110639
 20
225.675330338501
  0
POINT
  8
_0-2_ADD_LINE
 62
    7
 10
208.54407514110639
 20
150.675330338501
  0
LINE
  8
_0-2_ADD_LINE
  6
CONTINUOUS
 62
    7
 10
208.54407514110639
 20
225.675330338501
 11
192.44184225038734
 21
225.675330338501
  0
LINE
  8
_0-4_
  6
CONTINUOUS
 62
    7
 10
208.54407514110639
 20
225.675330338501
 11
208.54407514110639
 21
150.675330338501
  0
TEXT
  8
_0-1_1_5
 62
    4
 10
207.54407514110639
 20
185.675330338501
 40
5
 41
1
 50
90
  1
75
  0
LINE
  8
_0-2_ADD_LINE
  6
CONTINUOUS
 62
    7
 10
208.54407514110639
 20
150.675330338501
 11
179.44184225038734
 21
150.675330338501
  0
POINT
  8
_0-2_ADD_LINE
 62
    7
 10
313.17229353405503
 20
130.77084779669258
  0
POINT
  8
_0-2_ADD_LINE
 62
    7
 10
329.17229353405503
 20
130.77084779669258
  0
LINE
  8
_0-2_ADD_LINE
  6
CONTINUOUS
 62
    7
 10
313.17229353405503
 20
130.77084779669258
 11
313.17229353405503
 21
147.03647815381012
  0
LINE
  8
_0-2_ADD_LINE
  6
CONTINUOUS
 62
    7
 10
329.17229353405503
 20
130.77084779669258
 11
329.17229353405503
 21
147.03647815381012
  0
LINE
  8
_0-4_
  6
CONTINUOUS
 62
    7
 10
313.17229353405503
 20
130.77084779669258
 11
329.17229353405503
 21
130.77084779669258
  0
TEXT
  8
_0-1_1_5
 62
    4
 10
318.67229353405503
 20
131.77084779669258
 40
5
 41
1
 50
0
  1
16
  0
TEXT
  8
_0-2_ADD_LINE
 62
    7
 10
383.32401097313073
 20
181.07411631020233
 40
6
 41
1
 50
0
  1
タッピングビス
  0
LINE
  8
_0-4_
  6
CONTINUOUS
 62
    7
 10
208.16123837975417
 20
70.584659480072389
 11
208.16123837975417
 21
10.584659480071792
  0
TEXT
  8
_0-1_1_5
 62
    4
 10
207.16123837975417
 20
38.084659480072105
 40
5
 41
1
 50
90
  1
60
  0
LINE
  8
_0-2_ADD_LINE
  6
CONTINUOUS
 62
    7
 10
208.16123837975417
 20
70.584659480072389
 11
164.19184225038745
 21
70.584659480072389
  0
POINT
  8
_0-2_ADD_LINE
 62
    7
 10
208.16123837975417
 20
70.584659480072389
  0
POINT
  8
_0-2_ADD_LINE
 62
    7
 10
208.16123837975417
 20
10.584659480071792
  0
LINE
  8
_0-2_ADD_LINE
  6
CONTINUOUS
 62
    7
 10
208.16123837975417
 20
10.584659480071792
 11
192.44184225038723
 21
10.584659480071792
  0
LINE
  8
_0-1_1_5
  6
CONTINUOUS
 62
    7
 10
45.994933991638703
 20
90.471379729008163
 11
42.49513000304691
 21
91.877612418737897
  0
LINE
  8
_0-1_1_5
  6
STYLE_01
 62
    7
 10
45.994933991638703
 20
69.38412207279174
 11
42.49513000304691
 21
70.790354762521304
  0
LINE
  8
_0-1_1_5
  6
STYLE_01
 62
    7
 10
45.994933991638703
 20
67.984122072791877
 11
42.49513000304691
 21
69.39035476252144
  0
LINE
  8
_0-1_1_5
  6
STYLE_01
 62
    7
 10
45.994933991638703
 20
66.584122072791729
 11
42.49513000304691
 21
67.990354762521463
  0
LINE
  8
_0-1_1_5
  6
STYLE_01
 62
    7
 10
45.994933991638703
 20
65.184122072791865
 11
42.49513000304691
 21
66.590354762521599
  0
LINE
  8
_0-1_1_5
  6
STYLE_01
 62
    7
 10
45.994933991638703
 20
63.784122072792002
 11
42.49513000304691
 21
65.190354762521451
  0
LINE
  8
_0-1_1_5
  6
STYLE_01
 62
    7
 10
45.994933991638703
 20
62.384122072791854
 11
42.49513000304691
 21
63.790354762521588
  0
LINE
  8
_0-1_1_5
  6
STYLE_01
 62
    7
 10
45.994933991638703
 20
60.984122072791877
 11
42.49513000304691
 21
62.390354762521724
  0
LINE
  8
_0-1_1_5
  6
STYLE_01
 62
    7
 10
44.12676748439614
 20
60.33475748577672
 11
42.49513000304691
 21
60.990354762521463
  0
LINE
  8
_0-1_1_5
  6
STYLE_01
 62
    7
 10
40.861842250386644
 20
58.584659480072673
 11
42.611940256090833
 21
60.33475748577672
  0
LINE
  8
_0-1_1_5
  6
STYLE_01
 62
    7
 10
47.861842250386616
 20
58.584659480072673
 11
46.111744244682626
 21
60.334757485776606
  0
LINE
  8
_0-1_1_5
  6
CONTINUOUS
 62
    7
 10
44.361842250386729
 20
104.53370662630567
 11
42.611940256090833
 21
98.908775867386396
  0
LINE
  8
_0-1_1_5
  6
CONTINUOUS
 62
    7
 10
44.361842250386729
 20
104.53370662630567
 11
46.111744244682626
 21
98.908775867386396
  0
LINE
  8
_0-1_1_5
  6
CONTINUOUS
 62
    7
 10
46.111744244682626
 20
60.334757485776606
 11
46.111744244682626
 21
98.908775867386396
  0
LINE
  8
_0-1_1_5
  6
CONTINUOUS
 62
    7
 10
42.611940256090833
 20
60.371579762703391
 11
42.611940256090833
 21
98.90822193873862
  0
LINE
  8
_0-1_1_5
  6
STYLE_01
 62
    7
 10
42.611940256090833
 20
60.33475748577672
 11
46.111744244682626
 21
60.33475748577672
  0
LINE
  8
_0-1_1_5
  6
CONTINUOUS
 62
    7
 10
45.994933991638703
 20
70.784122072791718
 11
42.49513000304691
 21
72.190354762521167
  0
LINE
  8
_0-1_1_5
  6
CONTINUOUS
 62
    7
 10
45.994933991638703
 20
72.190354762521167
 11
42.49513000304691
 21
73.596587452251356
  0
LINE
  8
_0-1_1_5
  6
CONTINUOUS
 62
    7
 10
45.994933991638703
 20
73.596587452251356
 11
42.49513000304691
 21
75.002820141980806
  0
LINE
  8
_0-1_1_5
  6
CONTINUOUS
 62
    7
 10
45.994933991638703
 20
75.002820141980806
 11
42.49513000304691
 21
76.409052831710653
  0
LINE
  8
_0-1_1_5
  6
CONTINUOUS
 62
    7
 10
45.994933991638703
 20
76.409052831710653
 11
42.49513000304691
 21
77.815285521440103
  0
LINE
  8
_0-1_1_5
  6
CONTINUOUS
 62
    7
 10
45.994933991638703
 20
77.815285521440103
 11
42.49513000304691
 21
79.221518211170292
  0
LINE
  8
_0-1_1_5
  6
CONTINUOUS
 62
    7
 10
45.994933991638703
 20
83.440216280359607
 11
42.49513000304691
 21
84.846448970089227
  0
LINE
  8
_0-1_1_5
  6
CONTINUOUS
 62
    7
 10
45.994933991638703
 20
82.033983590629589
 11
42.49513000304691
 21
83.440216280359607
  0
LINE
  8
_0-1_1_5
  6
CONTINUOUS
 62
    7
 10
45.994933991638703
 20
84.846448970089227
 11
42.49513000304691
 21
86.252681659818961
  0
LINE
  8
_0-1_1_5
  6
CONTINUOUS
 62
    7
 10
45.994933991638703
 20
86.252681659818961
 11
42.49513000304691
 21
87.658914349548525
  0
LINE
  8
_0-1_1_5
  6
CONTINUOUS
 62
    7
 10
45.994933991638703
 20
87.658914349548525
 11
42.49513000304691
 21
89.065147039278315
  0
LINE
  8
_0-1_1_5
  6
CONTINUOUS
 62
    7
 10
45.994933991638703
 20
89.065147039278315
 11
42.49513000304691
 21
90.471379729008163
  0
LINE
  8
_0-1_1_5
  6
CONTINUOUS
 62
    7
 10
45.994933991638703
 20
91.877612418737897
 11
42.49513000304691
 21
93.28384510846746
  0
LINE
  8
_0-1_1_5
  6
CONTINUOUS
 62
    7
 10
45.994933991638703
 20
79.221518211170292
 11
42.49513000304691
 21
80.627750900899741
  0
LINE
  8
_0-1_1_5
  6
CONTINUOUS
 62
    7
 10
45.994933991638703
 20
93.28384510846746
 11
42.49513000304691
 21
94.690077798197478
  0
LINE
  8
_0-1_1_5
  6
CONTINUOUS
 62
    7
 10
45.994933991638703
 20
96.096310487927099
 11
42.49513000304691
 21
97.502543177656946
  0
LINE
  8
_0-1_1_5
  6
CONTINUOUS
 62
    7
 10
45.994933991638703
 20
97.502543177656946
 11
42.49513000304691
 21
98.908775867386396
  0
LINE
  8
_0-1_1_5
  6
CONTINUOUS
 62
    7
 10
45.994933991638703
 20
94.690077798197478
 11
42.49513000304691
 21
96.096310487927099
  0
LINE
  8
_0-1_1_5
  6
CONTINUOUS
 62
    7
 10
45.994933991638703
 20
80.627750900899741
 11
42.49513000304691
 21
82.033983590629589
  0
LINE
  8
_0-1_1_5
  6
STYLE_01
 62
    7
 10
39.361842250386758
 20
66.084659480072673
 11
39.361842250386758
 21
70.584659480072389
  0
LINE
  8
_0-1_1_5
  6
STYLE_01
 62
    7
 10
39.361842250386758
 20
70.584659480072389
 11
49.361842250386729
 21
70.584659480072389
  0
LINE
  8
_0-1_1_5
  6
STYLE_01
 62
    7
 10
49.361842250386729
 20
70.584659480072389
 11
49.361842250386729
 21
66.084659480072673
  0
LINE
  8
_0-1_1_5
  6
STYLE_01
 62
    7
 10
49.361842250386729
 20
63.084659480072389
 11
49.361842250386729
 21
58.584659480072673
  0
LINE
  8
_0-1_1_5
  6
STYLE_01
 62
    7
 10
49.361842250386729
 20
58.584659480072673
 11
39.361842250386758
 21
58.584659480072673
  0
LINE
  8
_0-1_1_5
  6
STYLE_01
 62
    7
 10
39.361842250386758
 20
58.584659480072673
 11
39.361842250386758
 21
63.084659480072389
  0
LINE
  8
_0-1_1_5
  6
STYLE_01
 62
    7
 10
49.361842250386729
 20
63.084659480072389
 11
47.861842250386729
 21
64.584659480072503
  0
LINE
  8
_0-1_1_5
  6
STYLE_01
 62
    7
 10
49.361842250386729
 20
66.084659480072673
 11
47.861842250386729
 21
64.584659480072503
  0
LINE
  8
_0-1_1_5
  6
STYLE_01
 62
    7
 10
39.361842250386758
 20
63.084659480072389
 11
40.861842250386644
 21
64.584659480072503
  0
LINE
  8
_0-1_1_5
  6
STYLE_01
 62
    7
 10
39.361842250386758
 20
66.084659480072673
 11
40.861842250386644
 21
64.584659480072503
  0
LINE
  8
_0-1_1_5
  6
STYLE_01
 62
    7
 10
39.361842250386758
 20
63.084659480072389
 11
49.361842250386729
 21
63.084659480072389
  0
LINE
  8
_0-1_1_5
  6
STYLE_01
 62
    7
 10
49.361842250386729
 20
66.084659480072673
 11
39.361842250386758
 21
66.084659480072673
  0
LINE
  8
_0-1_1_5
  6
STYLE_01
 62
    7
 10
153.9949339916387
 20
69.38412207279174
 11
150.49513000304691
 21
70.790354762521304
  0
LINE
  8
_0-1_1_5
  6
STYLE_01
 62
    7
 10
153.9949339916387
 20
67.984122072791877
 11
150.49513000304691
 21
69.39035476252144
  0
LINE
  8
_0-1_1_5
  6
STYLE_01
 62
    7
 10
153.9949339916387
 20
66.584122072791729
 11
150.49513000304691
 21
67.990354762521463
  0
LINE
  8
_0-1_1_5
  6
STYLE_01
 62
    7
 10
153.9949339916387
 20
65.184122072791865
 11
150.49513000304691
 21
66.590354762521599
  0
LINE
  8
_0-1_1_5
  6
STYLE_01
 62
    7
 10
153.9949339916387
 20
63.784122072792002
 11
150.49513000304691
 21
65.190354762521451
  0
LINE
  8
_0-1_1_5
  6
STYLE_01
 62
    7
 10
153.9949339916387
 20
62.384122072791854
 11
150.49513000304691
 21
63.790354762521588
  0
LINE
  8
_0-1_1_5
  6
STYLE_01
 62
    7
 10
153.9949339916387
 20
60.984122072791877
 11
150.49513000304691
 21
62.390354762521724
  0
LINE
  8
_0-1_1_5
  6
STYLE_01
 62
    7
 10
152.12676748439614
 20
60.33475748577672
 11
150.49513000304691
 21
60.990354762521463
  0
LINE
  8
_0-1_1_5
  6
STYLE_01
 62
    7
 10
148.86184225038662
 20
58.584659480072673
 11
150.61194025609083
 21
60.33475748577672
  0
LINE
  8
_0-1_1_5
  6
STYLE_01
 62
    7
 10
155.86184225038662
 20
58.584659480072673
 11
154.11174424468263
 21
60.334757485776606
  0
LINE
  8
_0-1_1_5
  6
CONTINUOUS
 62
    7
 10
152.36184225038673
 20
104.53370662630567
 11
150.61194025609083
 21
98.908775867386396
  0
LINE
  8
_0-1_1_5
  6
CONTINUOUS
 62
    7
 10
152.36184225038673
 20
104.53370662630567
 11
154.11174424468263
 21
98.908775867386396
  0
LINE
  8
_0-1_1_5
  6
CONTINUOUS
 62
    7
 10
154.11174424468263
 20
60.334757485776606
 11
154.11174424468263
 21
98.908775867386396
  0
LINE
  8
_0-1_1_5
  6
CONTINUOUS
 62
    7
 10
150.61194025609083
 20
60.371579762703391
 11
150.61194025609083
 21
98.90822193873862
  0
LINE
  8
_0-1_1_5
  6
STYLE_01
 62
    7
 10
150.61194025609083
 20
60.33475748577672
 11
154.11174424468263
 21
60.33475748577672
  0
LINE
  8
_0-1_1_5
  6
CONTINUOUS
 62
    7
 10
153.9949339916387
 20
70.784122072791718
 11
150.49513000304691
 21
72.190354762521167
  0
LINE
  8
_0-1_1_5
  6
CONTINUOUS
 62
    7
 10
153.9949339916387
 20
72.190354762521167
 11
150.49513000304691
 21
73.596587452251356
  0
LINE
  8
_0-1_1_5
  6
CONTINUOUS
 62
    7
 10
153.9949339916387
 20
73.596587452251356
 11
150.49513000304691
 21
75.002820141980806
  0
LINE
  8
_0-1_1_5
  6
CONTINUOUS
 62
    7
 10
153.9949339916387
 20
75.002820141980806
 11
150.49513000304691
 21
76.409052831710653
  0
LINE
  8
_0-1_1_5
  6
CONTINUOUS
 62
    7
 10
153.9949339916387
 20
76.409052831710653
 11
150.49513000304691
 21
77.815285521440103
  0
LINE
  8
_0-1_1_5
  6
CONTINUOUS
 62
    7
 10
153.9949339916387
 20
77.815285521440103
 11
150.49513000304691
 21
79.221518211170292
  0
LINE
  8
_0-1_1_5
  6
CONTINUOUS
 62
    7
 10
153.9949339916387
 20
83.440216280359607
 11
150.49513000304691
 21
84.846448970089227
  0
LINE
  8
_0-1_1_5
  6
CONTINUOUS
 62
    7
 10
153.9949339916387
 20
82.033983590629589
 11
150.49513000304691
 21
83.440216280359607
  0
LINE
  8
_0-1_1_5
  6
CONTINUOUS
 62
    7
 10
153.9949339916387
 20
84.846448970089227
 11
150.49513000304691
 21
86.252681659818961
  0
LINE
  8
_0-1_1_5
  6
CONTINUOUS
 62
    7
 10
153.9949339916387
 20
86.252681659818961
 11
150.49513000304691
 21
87.658914349548525
  0
LINE
  8
_0-1_1_5
  6
CONTINUOUS
 62
    7
 10
153.9949339916387
 20
87.658914349548525
 11
150.49513000304691
 21
89.065147039278315
  0
LINE
  8
_0-1_1_5
  6
CONTINUOUS
 62
    7
 10
153.9949339916387
 20
89.065147039278315
 11
150.49513000304691
 21
90.471379729008163
  0
LINE
  8
_0-1_1_5
  6
CONTINUOUS
 62
    7
 10
153.9949339916387
 20
90.471379729008163
 11
150.49513000304691
 21
91.877612418737897
  0
LINE
  8
_0-1_1_5
  6
CONTINUOUS
 62
    7
 10
153.9949339916387
 20
91.877612418737897
 11
150.49513000304691
 21
93.28384510846746
  0
LINE
  8
_0-1_1_5
  6
CONTINUOUS
 62
    7
 10
153.9949339916387
 20
79.221518211170292
 11
150.49513000304691
 21
80.627750900899741
  0
LINE
  8
_0-1_1_5
  6
CONTINUOUS
 62
    7
 10
153.9949339916387
 20
93.28384510846746
 11
150.49513000304691
 21
94.690077798197478
  0
LINE
  8
_0-1_1_5
  6
CONTINUOUS
 62
    7
 10
153.9949339916387
 20
96.096310487927099
 11
150.49513000304691
 21
97.502543177656946
  0
LINE
  8
_0-1_1_5
  6
CONTINUOUS
 62
    7
 10
153.9949339916387
 20
97.502543177656946
 11
150.49513000304691
 21
98.908775867386396
  0
LINE
  8
_0-1_1_5
  6
CONTINUOUS
 62
    7
 10
153.9949339916387
 20
94.690077798197478
 11
150.49513000304691
 21
96.096310487927099
  0
LINE
  8
_0-1_1_5
  6
CONTINUOUS
 62
    7
 10
153.9949339916387
 20
80.627750900899741
 11
150.49513000304691
 21
82.033983590629589
  0
LINE
  8
_0-1_1_5
  6
STYLE_01
 62
    7
 10
147.36184225038673
 20
66.084659480072673
 11
147.36184225038673
 21
70.584659480072389
  0
LINE
  8
_0-1_1_5
  6
STYLE_01
 62
    7
 10
147.36184225038673
 20
70.584659480072389
 11
157.36184225038673
 21
70.584659480072389
  0
LINE
  8
_0-1_1_5
  6
STYLE_01
 62
    7
 10
157.36184225038673
 20
70.584659480072389
 11
157.36184225038673
 21
66.084659480072673
  0
LINE
  8
_0-1_1_5
  6
STYLE_01
 62
    7
 10
157.36184225038673
 20
63.084659480072389
 11
157.36184225038673
 21
58.584659480072673
  0
LINE
  8
_0-1_1_5
  6
STYLE_01
 62
    7
 10
157.36184225038673
 20
58.584659480072673
 11
147.36184225038673
 21
58.584659480072673
  0
LINE
  8
_0-1_1_5
  6
STYLE_01
 62
    7
 10
147.36184225038673
 20
58.584659480072673
 11
147.36184225038673
 21
63.084659480072389
  0
LINE
  8
_0-1_1_5
  6
STYLE_01
 62
    7
 10
157.36184225038673
 20
63.084659480072389
 11
155.86184225038673
 21
64.584659480072503
  0
LINE
  8
_0-1_1_5
  6
STYLE_01
 62
    7
 10
157.36184225038673
 20
66.084659480072673
 11
155.86184225038673
 21
64.584659480072503
  0
LINE
  8
_0-1_1_5
  6
STYLE_01
 62
    7
 10
147.36184225038673
 20
63.084659480072389
 11
148.86184225038662
 21
64.584659480072503
  0
LINE
  8
_0-1_1_5
  6
STYLE_01
 62
    7
 10
147.36184225038673
 20
66.084659480072673
 11
148.86184225038662
 21
64.584659480072503
  0
LINE
  8
_0-1_1_5
  6
STYLE_01
 62
    7
 10
147.36184225038673
 20
63.084659480072389
 11
157.36184225038673
 21
63.084659480072389
  0
LINE
  8
_0-1_1_5
  6
STYLE_01
 62
    7
 10
157.36184225038673
 20
66.084659480072673
 11
147.36184225038673
 21
66.084659480072673
  0
LINE
  8
_0-1_1_5
  6
STYLE_01
 62
    7
 10
371.97175612677427
 20
216.10338641255765
 11
373.37798881650383
 21
219.60319040114945
  0
LINE
  8
_0-1_1_5
  6
STYLE_01
 62
    7
 10
370.5717561267744
 20
216.10338641255765
 11
371.97798881650397
 21
219.60319040114945
  0
LINE
  8
_0-1_1_5
  6
STYLE_01
 62
    7
 10
369.17175612677431
 20
216.10338641255765
 11
370.57798881650399
 21
219.60319040114945
  0
LINE
  8
_0-1_1_5
  6
STYLE_01
 62
    7
 10
367.77175612677445
 20
216.10338641255765
 11
369.17798881650413
 21
219.60319040114945
  0
LINE
  8
_0-1_1_5
  6
STYLE_01
 62
    7
 10
366.37175612677459
 20
216.10338641255765
 11
367.77798881650403
 21
219.60319040114945
  0
LINE
  8
_0-1_1_5
  6
STYLE_01
 62
    7
 10
364.97175612677438
 20
216.10338641255765
 11
366.37798881650417
 21
219.60319040114945
  0
LINE
  8
_0-1_1_5
  6
STYLE_01
 62
    7
 10
363.5717561267744
 20
216.10338641255765
 11
364.97798881650431
 21
219.60319040114945
  0
LINE
  8
_0-1_1_5
  6
STYLE_01
 62
    7
 10
362.92239153975925
 20
217.97155291980022
 11
363.57798881650399
 21
219.60319040114945
  0
LINE
  8
_0-1_1_5
  6
STYLE_01
 62
    7
 10
361.17229353405526
 20
221.23647815380974
 11
362.92239153975925
 21
219.48638014810552
  0
LINE
  8
_0-1_1_5
  6
STYLE_01
 62
    7
 10
361.17229353405526
 20
214.23647815380974
 11
362.92239153975913
 21
215.98657615951373
  0
LINE
  8
_0-1_1_5
  6
CONTINUOUS
 62
    7
 10
407.1213406802882
 20
217.73647815380963
 11
401.49640992136892
 21
219.48638014810552
  0
LINE
  8
_0-1_1_5
  6
CONTINUOUS
 62
    7
 10
407.1213406802882
 20
217.73647815380963
 11
401.49640992136892
 21
215.98657615951373
  0
LINE
  8
_0-1_1_5
  6
CONTINUOUS
 62
    7
 10
362.92239153975913
 20
215.98657615951373
 11
401.49640992136892
 21
215.98657615951373
  0
LINE
  8
_0-1_1_5
  6
CONTINUOUS
 62
    7
 10
362.95921381668597
 20
219.48638014810552
 11
401.4958559927212
 21
219.48638014810552
  0
LINE
  8
_0-1_1_5
  6
STYLE_01
 62
    7
 10
362.92239153975925
 20
219.48638014810552
 11
362.92239153975925
 21
215.98657615951373
  0
LINE
  8
_0-1_1_5
  6
CONTINUOUS
 62
    7
 10
373.37175612677424
 20
216.10338641255765
 11
374.77798881650369
 21
219.60319040114945
  0
LINE
  8
_0-1_1_5
  6
CONTINUOUS
 62
    7
 10
374.77798881650369
 20
216.10338641255765
 11
376.18422150623394
 21
219.60319040114945
  0
LINE
  8
_0-1_1_5
  6
CONTINUOUS
 62
    7
 10
376.18422150623394
 20
216.10338641255765
 11
377.59045419596339
 21
219.60319040114945
  0
LINE
  8
_0-1_1_5
  6
CONTINUOUS
 62
    7
 10
377.59045419596339
 20
216.10338641255765
 11
378.99668688569318
 21
219.60319040114945
  0
LINE
  8
_0-1_1_5
  6
CONTINUOUS
 62
    7
 10
378.99668688569318
 20
216.10338641255765
 11
380.40291957542263
 21
219.60319040114945
  0
LINE
  8
_0-1_1_5
  6
CONTINUOUS
 62
    7
 10
380.40291957542263
 20
216.10338641255765
 11
381.80915226515287
 21
219.60319040114945
  0
LINE
  8
_0-1_1_5
  6
CONTINUOUS
 62
    7
 10
386.02785033434213
 20
216.10338641255765
 11
387.43408302407181
 21
219.60319040114945
  0
LINE
  8
_0-1_1_5
  6
CONTINUOUS
 62
    7
 10
384.62161764461212
 20
216.10338641255765
 11
386.02785033434213
 21
219.60319040114945
  0
LINE
  8
_0-1_1_5
  6
CONTINUOUS
 62
    7
 10
387.43408302407181
 20
216.10338641255765
 11
388.84031571380149
 21
219.60319040114945
  0
LINE
  8
_0-1_1_5
  6
CONTINUOUS
 62
    7
 10
388.84031571380149
 20
216.10338641255765
 11
390.24654840353105
 21
219.60319040114945
  0
LINE
  8
_0-1_1_5
  6
CONTINUOUS
 62
    7
 10
390.24654840353105
 20
216.10338641255765
 11
391.65278109326084
 21
219.60319040114945
  0
LINE
  8
_0-1_1_5
  6
CONTINUOUS
 62
    7
 10
391.65278109326084
 20
216.10338641255765
 11
393.05901378299075
 21
219.60319040114945
  0
LINE
  8
_0-1_1_5
  6
CONTINUOUS
 62
    7
 10
393.05901378299075
 20
216.10338641255765
 11
394.46524647272042
 21
219.60319040114945
  0
LINE
  8
_0-1_1_5
  6
CONTINUOUS
 62
    7
 10
394.46524647272042
 20
216.10338641255765
 11
395.87147916244999
 21
219.60319040114945
  0
LINE
  8
_0-1_1_5
  6
CONTINUOUS
 62
    7
 10
381.80915226515287
 20
216.10338641255765
 11
383.21538495488232
 21
219.60319040114945
  0
LINE
  8
_0-1_1_5
  6
CONTINUOUS
 62
    7
 10
395.87147916244999
 20
216.10338641255765
 11
397.27771185218
 21
219.60319040114945
  0
LINE
  8
_0-1_1_5
  6
CONTINUOUS
 62
    7
 10
398.68394454190968
 20
216.10338641255765
 11
400.09017723163947
 21
219.60319040114945
  0
LINE
  8
_0-1_1_5
  6
CONTINUOUS
 62
    7
 10
400.09017723163947
 20
216.10338641255765
 11
401.49640992136892
 21
219.60319040114945
  0
LINE
  8
_0-1_1_5
  6
CONTINUOUS
 62
    7
 10
397.27771185218
 20
216.10338641255765
 11
398.68394454190968
 21
219.60319040114945
  0
LINE
  8
_0-1_1_5
  6
CONTINUOUS
 62
    7
 10
383.21538495488232
 20
216.10338641255765
 11
384.62161764461212
 21
219.60319040114945
  0
LINE
  8
_0-1_1_5
  6
STYLE_01
 62
    7
 10
368.67229353405526
 20
222.73647815380963
 11
373.17229353405492
 21
222.73647815380963
  0
LINE
  8
_0-1_1_5
  6
STYLE_01
 62
    7
 10
373.17229353405492
 20
212.73647815380963
 11
368.67229353405526
 21
212.73647815380963
  0
LINE
  8
_0-1_1_5
  6
STYLE_01
 62
    7
 10
365.67229353405492
 20
212.73647815380963
 11
361.17229353405526
 21
212.73647815380963
  0
LINE
  8
_0-1_1_5
  6
STYLE_01
 62
    7
 10
361.17229353405526
 20
212.73647815380963
 11
361.17229353405526
 21
222.73647815380963
  0
LINE
  8
_0-1_1_5
  6
STYLE_01
 62
    7
 10
361.17229353405526
 20
222.73647815380963
 11
365.67229353405492
 21
222.73647815380963
  0
LINE
  8
_0-1_1_5
  6
STYLE_01
 62
    7
 10
365.67229353405492
 20
212.73647815380963
 11
367.17229353405503
 21
214.23647815380963
  0
LINE
  8
_0-1_1_5
  6
STYLE_01
 62
    7
 10
368.67229353405526
 20
212.73647815380963
 11
367.17229353405503
 21
214.23647815380963
  0
LINE
  8
_0-1_1_5
  6
STYLE_01
 62
    7
 10
365.67229353405492
 20
222.73647815380963
 11
367.17229353405503
 21
221.23647815380974
  0
LINE
  8
_0-1_1_5
  6
STYLE_01
 62
    7
 10
368.67229353405526
 20
222.73647815380963
 11
367.17229353405503
 21
221.23647815380974
  0
LINE
  8
_0-1_1_5
  6
STYLE_01
 62
    7
 10
365.67229353405492
 20
222.73647815380963
 11
365.67229353405492
 21
212.73647815380963
  0
LINE
  8
_0-1_1_5
  6
STYLE_01
 62
    7
 10
368.67229353405526
 20
212.73647815380963
 11
368.67229353405526
 21
222.73647815380963
  0
LINE
  8
_0-2_ADD_LINE
  6
CONTINUOUS
 62
    7
 10
386.17229353405492
 20
217.3893583755293
 11
386.17229353405492
 21
189.96130230147264
  0
TEXT
  8
_0-3_
 62
    7
 10
135.16691074515126
 20
-54.188953352434794
 40
6.1081542968750009
 41
1
 50
0
  1
ポリッシュ
  0
LINE
  8
_0-1_1_5
  6
CONTINUOUS
 62
    7
 10
21.441842250386799
 20
150.675330338501
 11
175.44184225038734
 21
150.675330338501
  0
LINE
  8
_0-1_1_5
  6
CENTER2
 62
    7
 10
152.44184225038677
 20
212.675330338501
 11
152.44184225038677
 21
222.675330338501
  0
LINE
  8
_0-1_1_5
  6
CENTER2
 62
    7
 10
147.4418422503868
 20
217.675330338501
 11
157.44184225038677
 21
217.675330338501
  0
LINE
  8
_0-4_
  6
CONTINUOUS
 62
    7
 10
36.361842250386871
 20
115.52759441302287
 11
52.361842250386843
 21
115.52759441302287
  0
TEXT
  8
_0-2_ADD_LINE
 62
    4
 10
41.861842250386871
 20
116.52759441302287
 40
5
 41
1
 50
0
  1
16
  0
POINT
  8
_0-2_ADD_LINE
 62
    7
 10
52.361842250386843
 20
115.52759441302287
  0
POINT
  8
_0-2_ADD_LINE
 62
    7
 10
36.361842250386871
 20
115.52759441302287
  0
LINE
  8
_0-2_ADD_LINE
  6
CONTINUOUS
 62
    7
 10
36.361842250386871
 20
115.52759441302287
 11
36.361842250386871
 21
74.584659480072389
  0
LINE
  8
_0-2_ADD_LINE
  6
CONTINUOUS
 62
    7
 10
52.361842250386843
 20
115.52759441302287
 11
52.361842250386843
 21
74.584659480072389
  0
POINT
  8
_0-2_ADD_LINE
 62
    7
 10
313.17229353405503
 20
255.6522665210432
  0
POINT
  8
_0-2_ADD_LINE
 62
    7
 10
373.17229353405492
 20
255.6522665210432
  0
LINE
  8
_0-4_
  6
CONTINUOUS
 62
    7
 10
313.17229353405503
 20
255.6522665210432
 11
373.17229353405492
 21
255.6522665210432
  0
TEXT
  8
_0-2_ADD_LINE
 62
    4
 10
340.67229353405492
 20
256.6522665210432
 40
5
 41
1
 50
0
  1
60
  0
LINE
  8
_0-2_ADD_LINE
  6
CONTINUOUS
 62
    7
 10
313.17229353405503
 20
255.6522665210432
 11
313.17229353405503
 21
221.73647815380954
  0
LINE
  8
_0-2_ADD_LINE
  6
CONTINUOUS
 62
    7
 10
373.17229353405492
 20
255.6522665210432
 11
373.17229353405492
 21
229.73647815380951
  0
LINE
  8
_0-3_
  6
CONTINUOUS
 62
    7
 10
373.17229353405492
 20
245.73488310232216
 11
373.17229353405492
 21
227.73647815380951
  0
TEXT
  8
_0-2_ADD_LINE
 62
    7
 10
384.07235604276411
 20
173.5628643877665
 40
6
 41
1
 50
0
  1
3.5×40
  0
POINT
  8
_0-2_ADD_LINE
 62
    7
 10
321.17229353405492
 20
245.73488310232216
  0
POINT
  8
_0-2_ADD_LINE
 62
    7
 10
373.17229353405492
 20
245.73488310232216
  0
LINE
  8
_0-3_
  6
CONTINUOUS
 62
    7
 10
321.17229353405492
 20
245.73488310232216
 11
373.17229353405492
 21
245.73488310232216
  0
TEXT
  8
_0-3_
 62
    4
 10
344.67229353405492
 20
246.73488310232216
 40
5
 41
1
 50
0
  1
52
  0
LINE
  8
_0-2_ADD_LINE
  6
CONTINUOUS
 62
    7
 10
321.17229353405492
 20
245.73488310232216
 11
321.17229353405492
 21
227.73647815380951
  0
POINT
  8
_0-2_ADD_LINE
 62
    7
 10
417.48208822936863
 20
225.73647815380949
  0
POINT
  8
_0-2_ADD_LINE
 62
    7
 10
417.48208822936863
 20
209.73647815380977
  0
LINE
  8
_0-3_
  6
CONTINUOUS
 62
    7
 10
417.48208822936863
 20
225.73647815380949
 11
417.48208822936863
 21
209.73647815380977
  0
TEXT
  8
_0-3_
 62
    4
 10
416.48208822936863
 20
215.23647815380963
 40
5
 41
1
 50
90
  1
16
  0
LINE
  8
_0-2_ADD_LINE
  6
CONTINUOUS
 62
    7
 10
417.48208822936863
 20
225.73647815380949
 11
375.17229353405492
 21
225.73647815380949
  0
LINE
  8
_0-2_ADD_LINE
  6
CONTINUOUS
 62
    7
 10
417.48208822936863
 20
209.73647815380977
 11
375.17229353405492
 21
209.73647815380977
  0
POINT
  8
_0-2_ADD_LINE
 62
    7
 10
129.78861922702424
 20
26.584659480071792
  0
POINT
  8
_0-2_ADD_LINE
 62
    7
 10
129.78861922702424
 20
10.584659480072474
  0
LINE
  8
_0-3_
  6
CONTINUOUS
 62
    7
 10
129.78861922702424
 20
26.584659480071792
 11
129.78861922702424
 21
10.584659480072474
  0
TEXT
  8
_0-3_
 62
    4
 10
129.13130770471753
 20
31.977256754925094
 40
5
 41
1
 50
90
  1
16
  0
TEXT
  8
_0-2_ADD_LINE
 62
    7
 10
129.54918328207469
 20
26.895177456219585
 40
6.1081542968750009
 41
1
 50
90
  1
φ
  0
LINE
  8
_0-2_ADD_LINE
  6
CONTINUOUS
 62
    7
 10
129.78861922702424
 20
26.584659480071792
 11
129.78861922702424
 21
36.997727694750921
  0
POINT
  8
_0-2_ADD_LINE
 62
    7
 10
129.78861922702424
 20
153.675330338501
  0
POINT
  8
_0-2_ADD_LINE
 62
    7
 10
129.78861922702424
 20
150.675330338501
  0
LINE
  8
_0-3_
  6
CONTINUOUS
 62
    7
 10
129.78861922702424
 20
153.675330338501
 11
129.78861922702424
 21
150.675330338501
  0
TEXT
  8
_0-3_
 62
    4
 10
128.97453683101659
 20
158.48745629621362
 40
5
 41
1
 50
90
  1
3
  0
TEXT
  8
_0-2_ADD_LINE
 62
    7
 10
129.42680482879862
 20
155.12432271883685
 40
6.1081542968750009
 41
1
 50
90
  1
t
  0
LINE
  8
_0-2_ADD_LINE
  6
CONTINUOUS
 62
    7
 10
129.78861922702424
 20
153.675330338501
 11
129.78861922702424
 21
161.36562108822895
  0
POINT
  8
_0-2_ADD_LINE
 62
    7
 10
-11.558157749613201
 20
150.675330338501
  0
POINT
  8
_0-2_ADD_LINE
 62
    7
 10
-11.558157749613201
 20
217.675330338501
  0
LINE
  8
_0-3_
  6
CONTINUOUS
 62
    7
 10
-11.558157749613201
 20
150.675330338501
 11
-11.558157749613201
 21
217.675330338501
  0
TEXT
  8
_0-3_
 62
    4
 10
-12.558157749613201
 20
181.675330338501
 40
5
 41
1
 50
90
  1
67
  0
LINE
  8
_0-2_ADD_LINE
  6
CONTINUOUS
 62
    7
 10
-11.558157749613201
 20
217.675330338501
 11
6.4418422503867987
 21
217.67533033850097
  0
LINE
  8
_0-2_ADD_LINE
  6
CONTINUOUS
 62
    7
 10
-11.558157749613201
 20
150.675330338501
 11
19.441842250386799
 21
150.675330338501
  0
ENDSEC
  0
EOF
