  0
SECTION
  2
HEADER
  9
$ACADVER
  1
AC1009
  9
$INSBASE
 10
0
 20
0
 30
0
  9
$EXTMIN
 10
0
 20
0
  9
$EXTMAX
 10
594
 20
420
  9
$LIMMIN
 10
0
 20
0
  9
$LIMMAX
 10
594
 20
420
  9
$LTSCALE
 40
2
  0
ENDSEC
  0
SECTION
  2
TABLES
  0
TABLE
  2
LTYPE
 70
     9
  0
LTYPE
  2
CONTINUOUS
 70
    64
  3
実線
 72
    65
 73
     0
 40
0.0
  0
LTYPE
  2
DASHED1
 70
    64
  3
--  --  --  --  --  --  --  --  
 72
    65
 73
     2
 40
2.5
 49
1.25
 49
-1.25
  0
LTYPE
  2
DASHED2
 70
    64
  3
----    ----    ----    ----    
 72
    65
 73
     2
 40
5.0
 49
2.5
 49
-2.5
  0
LTYPE
  2
DASHED3
 70
    64
  3
------  ------  ------  ------  
 72
    65
 73
     2
 40
5.0
 49
3.75
 49
-1.25
  0
LTYPE
  2
CENTER1
 70
    64
  3
----- - ----- - ----- - ----- - 
 72
    65
 73
     4
 40
10.0
 49
6.25
 49
-1.25
 49
1.25
 49
-1.25
  0
LTYPE
  2
CENTER2
 70
    64
  3
----------  --  ----------  --  
 72
    65
 73
     4
 40
20.0
 49
12.5
 49
-2.5
 49
2.5
 49
-2.5
  0
LTYPE
  2
PHANTOM1
 70
    64
  3
--- - - --- - - --- - - --- - - 
 72
    65
 73
     6
 40
10.0
 49
3.25
 49
-1.25
 49
1.25
 49
-1.25
 49
1.25
 49
-1.25
  0
LTYPE
  2
PHANTOM2
 70
    64
  3
--------  -  -  --------  -  -  
 72
    65
 73
     6
 40
20.0
 49
10.0
 49
-2.5
 49
1.25
 49
-2.5
 49
1.25
 49
-2.5
  0
LTYPE
  2
DOT
 70
    64
  3
-   -   -   -   -   -   -   -   
 72
    65
 73
     2
 40
2.5
 49
0.625
 49
-1.875
  0
LTYPE
  2
DUMMY
 70
    64
  3
ダミー
 72
    65
 73
     0
 40
0.0
  0
LTYPE
  2
RAND1
 70
    64
  3
ランダム線1
 72
    65
 73
     4
 40
10.0
 49
1.0
 49
-2.0
 49
3.0
 49
-4.0
  0
LTYPE
  2
RAND2
 70
    64
  3
ランダム線2
 72
    65
 73
     4
 40
14.0
 49
2.0
 49
-3.0
 49
4.0
 49
-5.0
  0
LTYPE
  2
RAND3
 70
    64
  3
ランダム線3
 72
    65
 73
     4
 40
18.0
 49
3.0
 49
-4.0
 49
5.0
 49
-6.0
  0
LTYPE
  2
RAND4
 70
    64
  3
ランダム線4
 72
    65
 73
     4
 40
22.0
 49
4.0
 49
-5.0
 49
6.0
 49
-7.0
  0
LTYPE
  2
RAND5
 70
    64
  3
ランダム線5
 72
    65
 73
     4
 40
26.0
 49
5.0
 49
-6.0
 49
7.0
 49
-8.0
  0
LTYPE
  2
LONG1
 70
    64
  3
----------  --  ----------  --  
 72
    65
 73
     4
 40
40.0
 49
32.5
 49
-2.5
 49
2.5
 49
-2.5
  0
LTYPE
  2
LONG2
 70
    64
  3
--------  -  -  --------  -  -  
 72
    65
 73
     6
 40
40.0
 49
30.0
 49
-2.5
 49
1.25
 49
-2.5
 49
1.25
 49
-2.5
  0
LTYPE
  2
LONG3
 70
    64
  3
+++++++++++++++..+++++++++++++++
 72
    65
 73
     2
 40
40.0
 49
37.5
 49
-2.5
  0
LTYPE
  2
LONG4
 70
    64
  3
+++++++++++++++..+++++++++++++++
 72
    65
 73
     2
 40
80.0
 49
75.0
 49
-5.0
  0
LTYPE
  2
LONG5
 70
    64
  3
----------  --  ----------  --  
 72
    65
 73
     4
 40
60.0
 49
37.5
 49
-7.5
 49
7.5
 49
-7.5
  0
LTYPE
  2
dashed
 70
   64
  3
-------   -------------   ------
 72
   65
 73
    2
 40
7.5
 49
6
 49
-1.5
  0
LTYPE
  2
dashed_spaced
 70
   64
  3
----        --------        ----
 72
   65
 73
    2
 40
12
 49
6
 49
-6
  0
LTYPE
  2
long_dashed_dotted
 70
   64
  3
------------- --- --------------
 72
   65
 73
    4
 40
15.25
 49
12
 49
-1.5
 49
0.25
 49
-1.5
  0
LTYPE
  2
long_dashed_double-dotted
 70
   64
  3
----------- --- --- ------------
 72
   65
 73
    6
 40
17
 49
12
 49
-1.5
 49
0.25
 49
-1.5
 49
0.25
 49
-1.5
  0
LTYPE
  2
long_dashed_triplicate-dotted
 70
   64
  3
--------- --- --- --- ----------
 72
   65
 73
    8
 40
18.75
 49
12
 49
-1.5
 49
0.25
 49
-1.5
 49
0.25
 49
-1.5
 49
0.25
 49
-1.5
  0
LTYPE
  2
dotted
 70
   64
  3
   -       -       -       -    
 72
   65
 73
    2
 40
1.75
 49
0.25
 49
-1.5
  0
LTYPE
  2
chain
 70
   64
  3
-------------- -- --------------
 72
   65
 73
    4
 40
18.5
 49
12
 49
-1.5
 49
3.5
 49
-1.5
  0
LTYPE
  2
chain_double_dash
 70
   64
  3
------------ -- -- -------------
 72
   65
 73
    6
 40
23.5
 49
12
 49
-1.5
 49
3.5
 49
-1.5
 49
3.5
 49
-1.5
  0
LTYPE
  2
dashed_dotted
 70
   64
  3
-----------     -     ----------
 72
   65
 73
    4
 40
9.25
 49
6
 49
-1.5
 49
0.25
 49
-1.5
  0
LTYPE
  2
double-dashed_dotted
 70
   64
  3
------   -----------   -   -----
 72
   65
 73
    6
 40
16.75
 49
6
 49
-1.5
 49
6
 49
-1.5
 49
0.25
 49
-1.5
  0
LTYPE
  2
dashed_double-dotted
 70
   64
  3
---------    -    -    ---------
 72
   65
 73
    6
 40
11
 49
6
 49
-1.5
 49
0.25
 49
-1.5
 49
0.25
 49
-1.5
  0
LTYPE
  2
double-dashed_double-dotted
 70
   64
  3
-----   ---------   -   -   ----
 72
   65
 73
    8
 40
18.5
 49
6
 49
-1.5
 49
6
 49
-1.5
 49
0.25
 49
-1.5
 49
0.25
 49
-1.5
  0
LTYPE
  2
dashed_triplicate-dotted
 70
   64
  3
-------    -    -    -    ------
 72
   65
 73
    8
 40
12.75
 49
6
 49
-1.5
 49
0.25
 49
-1.5
 49
0.25
 49
-1.5
 49
0.25
 49
-1.5
  0
LTYPE
  2
double-dashed_triplicate-dotted
 70
   64
  3
-----  ---------  -  -  -  -----
 72
   65
 73
   10
 40
20.25
 49
6
 49
-1.5
 49
6
 49
-1.5
 49
0.25
 49
-1.5
 49
0.25
 49
-1.5
 49
0.25
 49
-1.5
  0
LTYPE
  2
undefined
 70
   64
  3
--------------------------------
 72
   65
 73
    0
 40
0
  0
LTYPE
  2
STYLE_01
 70
   64
  3
----        --------        ----
 72
   65
 73
    2
 40
0.4166399999999997
 49
0.2082799999999999
 49
-0.2083599999999999
  0
LTYPE
  2
STYLE_02
 70
   64
  3
------     -----------     -----
 72
   65
 73
    2
 40
0.694425
 49
0.48607
 49
-0.2083550000000001
  0
LTYPE
  2
STYLE_03
 70
   64
  3
-------   -------------   ------
 72
   65
 73
    2
 40
1.25
 49
1.0416400000000001
 49
-0.2083599999999999
  0
LTYPE
  2
STYLE_04
 70
   64
  3
-------  --------------  -------
 72
   65
 73
    2
 40
1.5277099999999999
 49
1.3194249999999998
 49
-0.208285
  0
LTYPE
  2
STYLE_05
 70
   64
  3
---           -----           --
 72
   65
 73
    2
 40
0.20828
 49
0.069425
 49
-0.138855
  0
LTYPE
  2
STYLE_06
 70
   64
  3
----------      --    ----------
 72
   65
 73
    4
 40
1.0416399999999999
 49
0.625
 49
-0.2082799999999999
 49
0.06943
 49
-0.13893
  0
LTYPE
  2
STYLE_07
 70
   64
  3
-----    -----------    -  -----
 72
   65
 73
    6
 40
1.8749999999999998
 49
0.625
 49
-0.2082799999999999
 49
0.6250000000000001
 49
-0.2083599999999999
 49
0.06943
 49
-0.1389299999999998
  0
LTYPE
  2
STYLE_08
 70
   64
  3
--------     --    --    -------
 72
   65
 73
    6
 40
1.2499999999999996
 49
0.625
 49
-0.2082799999999999
 49
0.06943
 49
-0.13893
 49
0.0694299999999997
 49
-0.13893
  0
LTYPE
  2
STYLE_09
 70
   64
  3
------------  ----  ------------
 72
   65
 73
    4
 40
5
 49
3.75
 49
-0.2777849999999997
 49
0.6944300000000003
 49
-0.2777849999999997
  0
LTYPE
  2
STYLE_10
 70
   64
  3
----------- ---- ---  ----------
 72
   65
 73
    6
 40
5.9375
 49
3.75
 49
-0.2777849999999997
 49
0.6944300000000003
 49
-0.2777849999999997
 49
0.625
 49
-0.3125
  0
ENDTAB
  0
TABLE
  2
STYLE
  5
3
100
AcDbSymbolTable
 70
     1
  0
STYLE
  5
10
100
AcDbSymbolTableRecord
100
AcDbTextStyleTableRecord
  2
STANDARD
 70
     0
 40
0.0
 41
1.0
 50
0.0
 71
     0
 42
0.2
  3
txt
  4
bigfont.shx
  0
STYLE
  5
26
100
AcDbSymbolTableRecord
100
AcDbTextStyleTableRecord
  2
TATEGAKI
 70
    68
 40
0.0
 41
1.0
 50
0.0
 71
     0
 42
1.0
  3
txt
  4
bigfont.shx
  0
ENDTAB
  0
TABLE
  2
LAYER
 70
    5
  0
LAYER
  2
_0-0_0
 70
   64
 62
    7
  6
CONTINUOUS
  0
LAYER
  2
_0-1_1_5
 70
   64
 62
    7
  6
CONTINUOUS
  0
LAYER
  2
_0-2_ADD_LINE
 70
   64
 62
    7
  6
CONTINUOUS
  0
LAYER
  2
_0-3_
 70
   64
 62
    7
  6
CONTINUOUS
  0
LAYER
  2
ADD_LINE
 70
   64
 62
    7
  6
CONTINUOUS
  0
ENDTAB
  0
ENDSEC
  0
SECTION
  2
BLOCKS
  0
ENDSEC
  0
SECTION
  2
ENTITIES
  0
TEXT
  8
_0-3_
 62
    7
 10
135.16691074515126
 20
-66.290244160930513
 40
6.1081542968750009
 41
1
 50
0
  1
ステンレススチール
  0
LINE
  8
_0-0_0
  6
CONTINUOUS
 62
    7
 10
-87.019906738806753
 20
335.75937008357874
 11
-87.019906738806753
 21
-84.240629916421256
  0
LINE
  8
_0-0_0
  6
CONTINUOUS
 62
    7
 10
-87.019906738806753
 20
-84.240629916421256
 11
506.98009326119325
 21
-84.240629916421312
  0
LINE
  8
_0-0_0
  6
CONTINUOUS
 62
    7
 10
506.98009326119325
 20
-84.240629916421312
 11
506.98009326119325
 21
335.75937008357869
  0
LINE
  8
_0-0_0
  6
CONTINUOUS
 62
    7
 10
506.98009326119325
 20
335.75937008357869
 11
-87.019906738806753
 21
335.75937008357874
  0
TEXT
  8
_0-3_
 62
    7
 10
121.25741447433936
 20
-62.900519036372998
 40
4
 41
1
 50
0
  1
材質
  0
TEXT
  8
_0-3_
 62
    7
 10
121.25741447433936
 20
-50.417785461709059
 40
4
 41
1
 50
0
  1
仕上げ
  0
TEXT
  8
_0-3_
 62
    7
 10
121.25741447433936
 20
-38.559188565778356
 40
4
 41
1
 50
0
  1
品名
  0
LINE
  8
_0-3_
  6
CONTINUOUS
 62
    7
 10
305.33333332004827
 20
-68.800541471740075
 11
305.33333332004827
 21
-32.800541471740019
  0
LINE
  8
_0-3_
  6
CONTINUOUS
 62
    7
 10
492.00000000004832
 20
-32.800541471740019
 11
118.30557488476475
 21
-32.800541471740019
  0
LINE
  8
_0-3_
  6
CONTINUOUS
 62
    7
 10
492.00000000004832
 20
-44.800541471740019
 11
118.30557488476475
 21
-44.800541471740019
  0
LINE
  8
_0-3_
  6
CONTINUOUS
 62
    7
 10
492.00000000004832
 20
-56.800541471740019
 11
118.30557488476475
 21
-56.800541471740019
  0
LINE
  8
_0-3_
  6
CONTINUOUS
 62
    7
 10
118.30557488476475
 20
-68.800541471740019
 11
118.30557488476475
 21
-32.800541471740019
  0
TEXT
  8
_0-3_
 62
    7
 10
307.90644669306869
 20
-39.060319445408652
 40
4
 41
1
 50
0
  1
品番
  0
TEXT
  8
_0-3_
 62
    7
 10
307.90644669306869
 20
-50.739042164100738
 40
4
 41
1
 50
0
  1
縮尺
  0
TEXT
  8
_0-3_
 62
    7
 10
-66.888093986564627
 20
-76.72518315284276
 40
5
 41
1
 50
0
  1
120718SH
  0
LINE
  8
_0-3_
  6
CONTINUOUS
 62
    7
 10
-67.999999999951683
 20
321.1994585282601
 11
-67.999999999951683
 21
-68.800541471740019
  0
LINE
  8
_0-3_
  6
CONTINUOUS
 62
    7
 10
-67.999999999951683
 20
-68.800541471740019
 11
492.00000000004832
 21
-68.800541471740075
  0
LINE
  8
_0-3_
  6
CONTINUOUS
 62
    7
 10
492.00000000004832
 20
-68.800541471740075
 11
492.00000000004832
 21
321.19945852826004
  0
LINE
  8
_0-3_
  6
CONTINUOUS
 62
    7
 10
492.00000000004832
 20
321.19945852826004
 11
-67.999999999951683
 21
321.1994585282601
  0
TEXT
  8
_0-3_
 62
    7
 10
321.84362785127729
 20
-66.996859894418549
 40
6.2000000000000002
 41
1
 50
0
  1
大洋金物株式会社  ティーエフプラス事業部
  0
TEXT
  8
_0-3_
 62
    7
 10
322.25649152470066
 20
-54.000366323889125
 40
6.1081542968750009
 41
1
 50
0
  1
1/2
  0
TEXT
  8
_0-2_ADD_LINE
 62
    4
 10
367.22494299604847
 20
179.90584064815391
 40
5
 41
1
 50
0
  1
3.5x40
  0
TEXT
  8
_0-2_ADD_LINE
 62
    4
 10
367.22494299604847
 20
187.52371599266382
 40
5
 41
1
 50
0
  1
タッピングビス
  0
CIRCLE
  8
_0-1_1_5
  6
CONTINUOUS
 62
    7
 10
72.07320348726148
 20
222.46447770684085
 40
8
  0
LINE
  8
_0-1_1_5
  6
CONTINUOUS
 62
    7
 10
59.57320348726148
 20
226.46447770684085
 11
65.145000256986009
 21
226.46447770684085
  0
LINE
  8
_0-1_1_5
  6
CONTINUOUS
 62
    7
 10
59.57320348726148
 20
218.46447770684085
 11
65.145000256986009
 21
218.46447770684085
  0
LINE
  8
_0-1_1_5
  6
CONTINUOUS
 62
    7
 10
39.07320348726148
 20
205.96447770684082
 11
39.07320348726148
 21
170.96447770684082
  0
LINE
  8
_0-1_1_5
  6
CONTINUOUS
 62
    7
 10
47.07320348726148
 20
205.96447770684082
 11
47.07320348726148
 21
170.96447770684082
  0
ARC
  8
_0-1_1_5
  6
CONTINUOUS
 62
    7
 10
59.57320348726148
 20
205.96447770684082
 40
12.500000000000014
 50
90
 51
180
  0
ARC
  8
_0-1_1_5
  6
CONTINUOUS
 62
    7
 10
59.57320348726148
 20
170.96447770684082
 40
12.5
 50
180
 51
270
  0
ARC
  8
_0-1_1_5
  6
CONTINUOUS
 62
    7
 10
59.57320348726148
 20
205.96447770684082
 40
20.500000000000014
 50
90
 51
180
  0
ARC
  8
_0-1_1_5
  6
CONTINUOUS
 62
    7
 10
59.57320348726148
 20
170.96447770684082
 40
20.5
 50
180
 51
270
  0
CIRCLE
  8
_0-1_1_5
  6
CONTINUOUS
 62
    7
 10
152.07320348726148
 20
222.46447770684085
 40
8
  0
LINE
  8
_0-1_1_5
  6
CONTINUOUS
 62
    7
 10
189.97291048924455
 20
166.48570640578311
 11
189.97291048924455
 21
166.48570640578311
  0
LINE
  8
_0-1_1_5
  6
CONTINUOUS
 62
    7
 10
189.97291048924455
 20
166.48570640578311
 11
190.05455749911479
 21
166.61347571753038
  0
LINE
  8
_0-1_1_5
  6
CONTINUOUS
 62
    7
 10
190.05455749911479
 20
166.61347571753038
 11
190.06612323945919
 21
166.83836607345458
  0
LINE
  8
_0-1_1_5
  6
CONTINUOUS
 62
    7
 10
190.06612323945919
 20
166.83836607345458
 11
190.00725629110991
 21
167.15354429389095
  0
LINE
  8
_0-1_1_5
  6
CONTINUOUS
 62
    7
 10
190.00725629110991
 20
167.15354429389095
 11
189.87974529650447
 21
167.5494338480994
  0
LINE
  8
_0-1_1_5
  6
CONTINUOUS
 62
    7
 10
189.87974529650447
 20
167.5494338480994
 11
189.68746461269023
 21
168.01400583230512
  0
LINE
  8
_0-1_1_5
  6
CONTINUOUS
 62
    7
 10
189.68746461269023
 20
168.01400583230512
 11
189.43625659094621
 21
168.53314446185274
  0
LINE
  8
_0-1_1_5
  6
CONTINUOUS
 62
    7
 10
189.43625659094621
 20
168.53314446185274
 11
189.13375405989569
 21
169.09107597218031
  0
LINE
  8
_0-1_1_5
  6
CONTINUOUS
 62
    7
 10
189.13375405989569
 20
169.09107597218031
 11
188.78914840587095
 21
169.67084789667348
  0
LINE
  8
_0-1_1_5
  6
CONTINUOUS
 62
    7
 10
188.78914840587095
 20
169.67084789667348
 11
188.41291029729069
 21
170.25484415878529
  0
LINE
  8
_0-1_1_5
  6
CONTINUOUS
 62
    7
 10
188.41291029729069
 20
170.25484415878529
 11
188.01647153869845
 21
170.82532032760781
  0
LINE
  8
_0-1_1_5
  6
CONTINUOUS
 62
    7
 10
188.01647153869845
 20
170.82532032760781
 11
187.61187772116634
 21
171.36494277342626
  0
LINE
  8
_0-1_1_5
  6
CONTINUOUS
 62
    7
 10
187.61187772116634
 20
171.36494277342626
 11
187.21142222310576
 21
171.85731534128658
  0
LINE
  8
_0-1_1_5
  6
CONTINUOUS
 62
    7
 10
187.21142222310576
 20
171.85731534128658
 11
186.827272682185
 21
172.28747753986687
  0
LINE
  8
_0-1_1_5
  6
CONTINUOUS
 62
    7
 10
186.827272682185
 20
172.28747753986687
 11
186.47110128781586
 21
172.64235910843584
  0
LINE
  8
_0-1_1_5
  6
CONTINUOUS
 62
    7
 10
186.47110128781586
 20
172.64235910843584
 11
186.15373012758488
 21
172.91117715011129
  0
LINE
  8
_0-1_1_5
  6
CONTINUOUS
 62
    7
 10
186.15373012758488
 20
172.91117715011129
 11
185.88480236359808
 21
173.08576376472536
  0
LINE
  8
_0-1_1_5
  6
CONTINUOUS
 62
    7
 10
185.88480236359808
 20
173.08576376472536
 11
185.6724892298802
 21
173.16081422633809
  0
LINE
  8
_0-1_1_5
  6
CONTINUOUS
 62
    7
 10
185.6724892298802
 20
173.16081422633809
 11
185.52324175356364
 21
173.13404816465078
  0
LINE
  8
_0-1_1_5
  6
CONTINUOUS
 62
    7
 10
185.52324175356364
 20
173.13404816465078
 11
185.52318510166856
 21
173.1340102306236
  0
LINE
  8
_0-1_1_5
  6
CONTINUOUS
 62
    7
 10
171.28663089253598
 20
153.94324244508246
 11
189.97291048924455
 21
166.48570640578305
  0
LINE
  8
_0-1_1_5
  6
CONTINUOUS
 62
    7
 10
159.86176545946103
 20
150.46447770684082
 11
59.57320348726148
 21
150.46447770684082
  0
ARC
  8
_0-1_1_5
  6
CONTINUOUS
 62
    7
 10
159.86176545946103
 20
170.96447770684082
 40
20.5
 50
270
 51
303.87000481671606
  0
LINE
  8
_0-1_1_5
  6
CONTINUOUS
 62
    7
 10
166.82832727088021
 20
160.5857004647701
 11
185.52318124899932
 21
173.13401598676384
  0
LINE
  8
_0-1_1_5
  6
CONTINUOUS
 62
    7
 10
159.86190904057878
 20
158.46447770684082
 11
59.57320348726148
 21
158.46447770684082
  0
ARC
  8
_0-1_1_5
  6
CONTINUOUS
 62
    7
 10
159.86190904057878
 20
170.96447770684082
 40
12.5
 50
270
 51
303.87020834904297
  0
LINE
  8
_0-1_1_5
  6
CONTINUOUS
 62
    7
 10
310.07044157400276
 20
170.14553590106044
 11
310.07044157400276
 21
170.14553590106044
  0
LINE
  8
_0-1_1_5
  6
CONTINUOUS
 62
    7
 10
310.07044157400276
 20
170.14553590106044
 11
310.00967258605158
 21
170.66648043406124
  0
LINE
  8
_0-1_1_5
  6
CONTINUOUS
 62
    7
 10
310.00967258605158
 20
170.66648043406124
 11
309.82921205714638
 21
171.17159633103745
  0
LINE
  8
_0-1_1_5
  6
CONTINUOUS
 62
    7
 10
309.82921205714638
 20
171.17159633103745
 11
309.53454318914049
 21
171.64553590106044
  0
LINE
  8
_0-1_1_5
  6
CONTINUOUS
 62
    7
 10
309.53454318914049
 20
171.64553590106044
 11
309.13461934647864
 21
172.07389873012005
  0
LINE
  8
_0-1_1_5
  6
CONTINUOUS
 62
    7
 10
309.13461934647864
 20
172.07389873012005
 11
308.6415920127489
 21
172.44366923041738
  0
LINE
  8
_0-1_1_5
  6
CONTINUOUS
 62
    7
 10
308.6415920127489
 20
172.44366923041738
 11
308.07044157400276
 21
172.74361211241376
  0
LINE
  8
_0-1_1_5
  6
CONTINUOUS
 62
    7
 10
308.07044157400276
 20
172.74361211241376
 11
307.43852214730543
 21
172.96461376341816
  0
LINE
  8
_0-1_1_5
  6
CONTINUOUS
 62
    7
 10
307.43852214730543
 20
172.96461376341816
 11
306.76503428467049
 21
173.09995916009706
  0
LINE
  8
_0-1_1_5
  6
CONTINUOUS
 62
    7
 10
306.76503428467049
 20
173.09995916009706
 11
306.07044157400276
 21
173.14553590106044
  0
LINE
  8
_0-1_1_5
  6
CONTINUOUS
 62
    7
 10
306.07044157400276
 20
173.14553590106044
 11
305.37584886333502
 21
173.09995916009706
  0
LINE
  8
_0-1_1_5
  6
CONTINUOUS
 62
    7
 10
305.37584886333502
 20
173.09995916009706
 11
304.70236100070008
 21
172.96461376341816
  0
LINE
  8
_0-1_1_5
  6
CONTINUOUS
 62
    7
 10
304.70236100070008
 20
172.96461376341816
 11
304.07044157400276
 21
172.74361211241376
  0
LINE
  8
_0-1_1_5
  6
CONTINUOUS
 62
    7
 10
304.07044157400276
 20
172.74361211241376
 11
303.49929113525661
 21
172.44366923041738
  0
LINE
  8
_0-1_1_5
  6
CONTINUOUS
 62
    7
 10
303.49929113525661
 20
172.44366923041738
 11
303.00626380152687
 21
172.07389873012005
  0
LINE
  8
_0-1_1_5
  6
CONTINUOUS
 62
    7
 10
303.00626380152687
 20
172.07389873012005
 11
302.60633995886502
 21
171.64553590106044
  0
LINE
  8
_0-1_1_5
  6
CONTINUOUS
 62
    7
 10
302.60633995886502
 20
171.64553590106044
 11
302.31167109085914
 21
171.17159633103745
  0
LINE
  8
_0-1_1_5
  6
CONTINUOUS
 62
    7
 10
302.31167109085914
 20
171.17159633103745
 11
302.13121056195394
 21
170.66648043406124
  0
LINE
  8
_0-1_1_5
  6
CONTINUOUS
 62
    7
 10
302.13121056195394
 20
170.66648043406124
 11
302.07044157400276
 21
170.14553590106044
  0
LINE
  8
_0-1_1_5
  6
CONTINUOUS
 62
    7
 10
302.07044157400276
 20
170.14553590106044
 11
302.13121056195394
 21
169.62459136805967
  0
LINE
  8
_0-1_1_5
  6
CONTINUOUS
 62
    7
 10
302.13121056195394
 20
169.62459136805967
 11
302.31167109085914
 21
169.11947547108343
  0
LINE
  8
_0-1_1_5
  6
CONTINUOUS
 62
    7
 10
302.31167109085914
 20
169.11947547108343
 11
302.60633995886502
 21
168.64553590106044
  0
LINE
  8
_0-1_1_5
  6
CONTINUOUS
 62
    7
 10
302.60633995886502
 20
168.64553590106044
 11
303.00626380152681
 21
168.21717307200083
  0
LINE
  8
_0-1_1_5
  6
CONTINUOUS
 62
    7
 10
303.00626380152681
 20
168.21717307200083
 11
303.49929113525661
 21
167.8474025717035
  0
LINE
  8
_0-1_1_5
  6
CONTINUOUS
 62
    7
 10
303.49929113525661
 20
167.8474025717035
 11
304.07044157400276
 21
167.54745968970713
  0
LINE
  8
_0-1_1_5
  6
CONTINUOUS
 62
    7
 10
304.07044157400276
 20
167.54745968970713
 11
304.70236100070008
 21
167.32645803870273
  0
LINE
  8
_0-1_1_5
  6
CONTINUOUS
 62
    7
 10
304.70236100070008
 20
167.32645803870273
 11
305.37584886333502
 21
167.19111264202382
  0
LINE
  8
_0-1_1_5
  6
CONTINUOUS
 62
    7
 10
305.37584886333502
 20
167.19111264202382
 11
306.07044157400276
 21
167.14553590106044
  0
LINE
  8
_0-1_1_5
  6
CONTINUOUS
 62
    7
 10
306.07044157400276
 20
167.14553590106044
 11
306.76503428467049
 21
167.19111264202382
  0
LINE
  8
_0-1_1_5
  6
CONTINUOUS
 62
    7
 10
306.76503428467049
 20
167.19111264202382
 11
307.43852214730543
 21
167.32645803870273
  0
LINE
  8
_0-1_1_5
  6
CONTINUOUS
 62
    7
 10
307.43852214730543
 20
167.32645803870273
 11
308.07044157400276
 21
167.54745968970713
  0
LINE
  8
_0-1_1_5
  6
CONTINUOUS
 62
    7
 10
308.07044157400276
 20
167.54745968970713
 11
308.6415920127489
 21
167.8474025717035
  0
LINE
  8
_0-1_1_5
  6
CONTINUOUS
 62
    7
 10
308.6415920127489
 20
167.8474025717035
 11
309.13461934647864
 21
168.2171730720008
  0
LINE
  8
_0-1_1_5
  6
CONTINUOUS
 62
    7
 10
309.13461934647864
 20
168.2171730720008
 11
309.53454318914049
 21
168.64553590106044
  0
LINE
  8
_0-1_1_5
  6
CONTINUOUS
 62
    7
 10
309.53454318914049
 20
168.64553590106044
 11
309.82921205714638
 21
169.11947547108343
  0
LINE
  8
_0-1_1_5
  6
CONTINUOUS
 62
    7
 10
309.82921205714638
 20
169.11947547108343
 11
310.00967258605158
 21
169.62459136805964
  0
LINE
  8
_0-1_1_5
  6
CONTINUOUS
 62
    7
 10
310.00967258605158
 20
169.62459136805964
 11
310.07044157400276
 21
170.14553590106044
  0
LINE
  8
_0-1_1_5
  6
CONTINUOUS
 62
    7
 10
310.07044157400276
 20
170.14553590106044
 11
310.07044157400276
 21
170.14553590106044
  0
LINE
  8
_0-1_1_5
  6
CONTINUOUS
 62
    7
 10
302.07044157400276
 20
214.46447770684085
 11
302.07044157400276
 21
154.46447770684082
  0
LINE
  8
_0-1_1_5
  6
CONTINUOUS
 62
    7
 10
297.07044157400276
 20
230.46447770684085
 11
357.07044157400298
 21
230.46447770684085
  0
LINE
  8
_0-1_1_5
  6
CONTINUOUS
 62
    7
 10
357.07044157400298
 20
230.46447770684085
 11
357.07044157400298
 21
214.46447770684085
  0
LINE
  8
_0-1_1_5
  6
CONTINUOUS
 62
    7
 10
357.07044157400298
 20
214.46447770684085
 11
297.07044157400276
 21
214.46447770684085
  0
LINE
  8
_0-1_1_5
  6
CONTINUOUS
 62
    7
 10
297.07044157400276
 20
214.46447770684085
 11
297.07044157400276
 21
230.46447770684085
  0
LINE
  8
_0-1_1_5
  6
CONTINUOUS
 62
    7
 10
310.07044157400276
 20
214.46447770684085
 11
310.07044157400276
 21
154.46447770684082
  0
ARC
  8
_0-1_1_5
  6
CONTINUOUS
 62
    7
 10
306.07044157400276
 20
154.46447770684082
 40
4
 50
180
 51
0
  0
ARC
  8
_0-1_1_5
  6
DASHED1
 62
    7
 10
306.07044157400276
 20
154.46447770684082
 40
4
 50
0
 51
180
  0
LINE
  8
_0-1_1_5
  6
CENTER2
 62
    7
 10
68.07320348726148
 20
222.46447770684085
 11
76.07320348726148
 21
222.46447770684085
  0
LINE
  8
_0-1_1_5
  6
CENTER2
 62
    7
 10
68.07320348726148
 20
222.46447770684085
 11
76.07320348726148
 21
222.46447770684085
  0
LINE
  8
_0-1_1_5
  6
CENTER2
 62
    7
 10
72.07320348726148
 20
226.46447770684085
 11
72.07320348726148
 21
218.42438606328327
  0
LINE
  8
_0-1_1_5
  6
CENTER2
 62
    7
 10
152.07320348726148
 20
226.46447770684085
 11
152.07320348726148
 21
218.42438606328327
  0
LINE
  8
_0-1_1_5
  6
CENTER2
 62
    7
 10
148.07320348726148
 20
222.46447770684085
 11
156.07320348726148
 21
222.46447770684085
  0
LINE
  8
_0-1_1_5
  6
CENTER2
 62
    7
 10
148.07320348726148
 20
222.46447770684085
 11
156.07320348726148
 21
222.46447770684085
  0
LINE
  8
_0-1_1_5
  6
CONTINUOUS
 62
    7
 10
79.001406717537066
 20
226.46447770684085
 11
145.14500025698595
 21
226.46447770684085
  0
LINE
  8
_0-1_1_5
  6
CONTINUOUS
 62
    7
 10
79.001406717537066
 20
218.46447770684085
 11
145.14500025698595
 21
218.46447770684085
  0
LINE
  8
_0-1_1_5
  6
CONTINUOUS
 62
    7
 10
378.9218477721318
 20
224.21437970113678
 11
384.54733245969885
 21
222.46447770684085
  0
LINE
  8
_0-1_1_5
  6
CONTINUOUS
 62
    7
 10
356.07044157400287
 20
220.71457571254504
 11
378.92240170077957
 21
220.71457571254504
  0
LINE
  8
_0-1_1_5
  6
CONTINUOUS
 62
    7
 10
356.07044157400287
 20
224.21437970113678
 11
378.9218477721318
 21
224.21437970113678
  0
LINE
  8
_0-1_1_5
  6
CONTINUOUS
 62
    7
 10
360.64137673429298
 20
220.83138596558888
 11
362.04760942402277
 21
224.3311899541807
  0
LINE
  8
_0-1_1_5
  6
CONTINUOUS
 62
    7
 10
374.70370363159066
 20
220.83138596558888
 11
376.10993632132028
 21
224.3311899541807
  0
LINE
  8
_0-1_1_5
  6
CONTINUOUS
 62
    7
 10
377.51616901105012
 20
220.83138596558888
 11
378.92240170077957
 21
224.3311899541807
  0
LINE
  8
_0-1_1_5
  6
CONTINUOUS
 62
    7
 10
376.10993632132028
 20
220.83138596558888
 11
377.51616901105012
 21
224.3311899541807
  0
LINE
  8
_0-1_1_5
  6
CONTINUOUS
 62
    7
 10
373.29747094186064
 20
220.83138596558888
 11
374.70370363159066
 21
224.3311899541807
  0
LINE
  8
_0-1_1_5
  6
CONTINUOUS
 62
    7
 10
359.23514404456353
 20
220.83138596558888
 11
360.64137673429298
 21
224.3311899541807
  0
LINE
  8
_0-1_1_5
  6
CONTINUOUS
 62
    7
 10
371.89123825213096
 20
220.83138596558888
 11
373.29747094186064
 21
224.3311899541807
  0
LINE
  8
_0-1_1_5
  6
CONTINUOUS
 62
    7
 10
370.4850055624014
 20
220.83138596558888
 11
371.89123825213096
 21
224.3311899541807
  0
LINE
  8
_0-1_1_5
  6
CONTINUOUS
 62
    7
 10
369.07877287267149
 20
220.83138596558888
 11
370.4850055624014
 21
224.3311899541807
  0
LINE
  8
_0-1_1_5
  6
CONTINUOUS
 62
    7
 10
367.6725401829417
 20
220.83138596558888
 11
369.07877287267149
 21
224.3311899541807
  0
LINE
  8
_0-1_1_5
  6
CONTINUOUS
 62
    7
 10
366.26630749321203
 20
220.83138596558888
 11
367.6725401829417
 21
224.3311899541807
  0
LINE
  8
_0-1_1_5
  6
CONTINUOUS
 62
    7
 10
364.86007480348246
 20
220.83138596558888
 11
366.26630749321203
 21
224.3311899541807
  0
LINE
  8
_0-1_1_5
  6
CONTINUOUS
 62
    7
 10
362.04760942402277
 20
220.83138596558888
 11
363.45384211375278
 21
224.3311899541807
  0
LINE
  8
_0-1_1_5
  6
CONTINUOUS
 62
    7
 10
363.45384211375278
 20
220.83138596558888
 11
364.86007480348246
 21
224.3311899541807
  0
LINE
  8
_0-1_1_5
  6
CONTINUOUS
 62
    7
 10
357.82891135483328
 20
220.83138596558888
 11
359.23514404456353
 21
224.3311899541807
  0
LINE
  8
_0-1_1_5
  6
CONTINUOUS
 62
    7
 10
356.42267866510383
 20
220.83138596558888
 11
357.82891135483328
 21
224.3311899541807
  0
LINE
  8
_0-1_1_5
  6
CONTINUOUS
 62
    7
 10
384.54733245969885
 20
222.46447770684085
 11
378.92240170077957
 21
220.71457571254504
  0
CIRCLE
  8
_0-1_1_5
  6
DASHED1
 62
    7
 10
306.07044157400276
 20
222.46447770684085
 40
4
  0
LINE
  8
_0-1_1_5
  6
DASHED1
 62
    7
 10
302.07044157400276
 20
214.46447770684085
 11
302.07044157400276
 21
222.46447770684085
  0
LINE
  8
_0-1_1_5
  6
DASHED1
 62
    7
 10
310.07044157400276
 20
214.46447770684085
 11
310.07044157400276
 21
222.46447770684085
  0
LINE
  8
_0-1_1_5
  6
DASHED1
 62
    7
 10
357.07044157400287
 20
228.34202235539937
 11
352.3204415740031
 21
228.34202235539937
  0
LINE
  8
_0-1_1_5
  6
DASHED1
 62
    7
 10
352.3204415740031
 20
228.34202235539937
 11
352.3204415740031
 21
227.34202235539928
  0
LINE
  8
_0-1_1_5
  6
DASHED1
 62
    7
 10
352.3204415740031
 20
227.34202235539928
 11
347.82044157400298
 21
227.34202235539928
  0
LINE
  8
_0-1_1_5
  6
DASHED1
 62
    7
 10
347.82044157400298
 20
227.34202235539928
 11
347.82044157400298
 21
228.34202235539937
  0
LINE
  8
_0-1_1_5
  6
DASHED1
 62
    7
 10
347.82044157400298
 20
228.34202235539937
 11
342.07044157400287
 21
228.34202235539937
  0
LINE
  8
_0-1_1_5
  6
DASHED1
 62
    7
 10
342.07044157400287
 20
228.34202235539937
 11
342.07044157400287
 21
227.34202235539928
  0
LINE
  8
_0-1_1_5
  6
DASHED1
 62
    7
 10
342.07044157400287
 20
227.34202235539928
 11
344.57044157400287
 21
224.84202235539928
  0
LINE
  8
_0-1_1_5
  6
DASHED1
 62
    7
 10
344.57044157400287
 20
224.84202235539928
 11
357.0704415740031
 21
224.84202235539928
  0
LINE
  8
_0-1_1_5
  6
DASHED1
 62
    7
 10
357.07044157400298
 20
224.84202235539928
 11
357.07044157400298
 21
219.84202235539928
  0
LINE
  8
_0-1_1_5
  6
DASHED1
 62
    7
 10
344.57044157400287
 20
219.84202235539928
 11
357.0704415740031
 21
219.84202235539928
  0
LINE
  8
_0-1_1_5
  6
DASHED1
 62
    7
 10
342.07044157400287
 20
217.34202235539928
 11
344.57044157400287
 21
219.84202235539928
  0
LINE
  8
_0-1_1_5
  6
DASHED1
 62
    7
 10
342.07044157400287
 20
216.34202235539934
 11
342.07044157400287
 21
217.34202235539928
  0
LINE
  8
_0-1_1_5
  6
DASHED1
 62
    7
 10
347.82044157400298
 20
216.34202235539934
 11
342.07044157400287
 21
216.34202235539934
  0
LINE
  8
_0-1_1_5
  6
DASHED1
 62
    7
 10
347.82044157400298
 20
217.34202235539928
 11
347.82044157400298
 21
216.34202235539934
  0
LINE
  8
_0-1_1_5
  6
DASHED1
 62
    7
 10
352.3204415740031
 20
217.34202235539928
 11
347.82044157400298
 21
217.34202235539928
  0
LINE
  8
_0-1_1_5
  6
DASHED1
 62
    7
 10
352.3204415740031
 20
216.34202235539934
 11
352.3204415740031
 21
217.34202235539928
  0
LINE
  8
_0-1_1_5
  6
DASHED1
 62
    7
 10
357.07044157400287
 20
216.34202235539934
 11
352.3204415740031
 21
216.34202235539934
  0
LINE
  8
_0-1_1_5
  6
DASHED1
 62
    7
 10
342.59828531346579
 20
225.96447770684094
 11
344.34838331917001
 21
224.21437970113678
  0
LINE
  8
_0-1_1_5
  6
DASHED1
 62
    7
 10
344.34838331917001
 20
224.21437970113678
 11
344.34838331917001
 21
220.71457571254504
  0
LINE
  8
_0-1_1_5
  6
DASHED1
 62
    7
 10
344.34838331917001
 20
222.69955247283141
 11
345.00398059591453
 21
224.3311899541807
  0
LINE
  8
_0-1_1_5
  6
DASHED1
 62
    7
 10
344.99774790618494
 20
220.83138596558888
 11
346.40398059591485
 21
224.3311899541807
  0
LINE
  8
_0-1_1_5
  6
DASHED1
 62
    7
 10
346.39774790618492
 20
220.83138596558888
 11
347.80398059591471
 21
224.3311899541807
  0
LINE
  8
_0-1_1_5
  6
DASHED1
 62
    7
 10
349.19774790618499
 20
220.83138596558888
 11
350.60398059591455
 21
224.3311899541807
  0
LINE
  8
_0-1_1_5
  6
DASHED1
 62
    7
 10
350.59774790618485
 20
220.83138596558888
 11
352.00398059591441
 21
224.3311899541807
  0
LINE
  8
_0-1_1_5
  6
DASHED1
 62
    7
 10
351.99774790618483
 20
220.83138596558888
 11
353.40398059591473
 21
224.3311899541807
  0
LINE
  8
_0-1_1_5
  6
DASHED1
 62
    7
 10
353.39774790618469
 20
220.83138596558888
 11
354.8039805959146
 21
224.3311899541807
  0
LINE
  8
_0-1_1_5
  6
DASHED1
 62
    7
 10
354.79774790618501
 20
220.83138596558888
 11
356.20398059591446
 21
224.3311899541807
  0
LINE
  8
_0-1_1_5
  6
DASHED1
 62
    7
 10
342.59828531346579
 20
218.96447770684097
 11
344.34838331916956
 21
220.71457571254504
  0
LINE
  8
_0-1_1_5
  6
DASHED1
 62
    7
 10
342.07044157400287
 20
217.34202235539928
 11
342.07044157400287
 21
227.34202235539928
  0
LINE
  8
_0-1_1_5
  6
DASHED1
 62
    7
 10
344.34838331917001
 20
224.21437970113678
 11
360.07044157400298
 21
224.21437970113678
  0
LINE
  8
_0-1_1_5
  6
DASHED1
 62
    7
 10
347.79774790618512
 20
220.83138596558888
 11
349.20398059591457
 21
224.3311899541807
  0
LINE
  8
_0-1_1_5
  6
DASHED1
 62
    7
 10
344.34838331917001
 20
220.71457571254533
 11
360.07044157400298
 21
220.71457571254504
  0
LINE
  8
_0-1_1_5
  6
CONTINUOUS
 62
    7
 10
64.07320348726148
 20
35.572549711655768
 11
64.07320348726148
 21
35.572549711655768
  0
LINE
  8
_0-1_1_5
  6
CONTINUOUS
 62
    7
 10
64.07320348726148
 20
35.572549711655768
 11
64.260743519141769
 21
35.633318699606932
  0
LINE
  8
_0-1_1_5
  6
CONTINUOUS
 62
    7
 10
64.260743519141769
 20
35.633318699606932
 11
64.442585242053198
 21
35.813779228512132
  0
LINE
  8
_0-1_1_5
  6
CONTINUOUS
 62
    7
 10
64.442585242053198
 20
35.813779228512132
 11
64.613203487261487
 21
36.108448096518011
  0
LINE
  8
_0-1_1_5
  6
CONTINUOUS
 62
    7
 10
64.613203487261487
 20
36.108448096518011
 11
64.767414105722949
 21
36.508371939179852
  0
LINE
  8
_0-1_1_5
  6
CONTINUOUS
 62
    7
 10
64.767414105722949
 20
36.508371939179852
 11
64.900531485829973
 21
37.001399272909609
  0
LINE
  8
_0-1_1_5
  6
CONTINUOUS
 62
    7
 10
64.900531485829973
 20
37.001399272909609
 11
65.00851092334868
 21
37.572549711655768
  0
LINE
  8
_0-1_1_5
  6
CONTINUOUS
 62
    7
 10
65.00851092334868
 20
37.572549711655768
 11
65.088071517710262
 21
38.20446913835309
  0
LINE
  8
_0-1_1_5
  6
CONTINUOUS
 62
    7
 10
65.088071517710262
 20
38.20446913835309
 11
65.136795860514667
 21
38.877957000988047
  0
LINE
  8
_0-1_1_5
  6
CONTINUOUS
 62
    7
 10
65.136795860514667
 20
38.877957000988047
 11
65.153203487261479
 21
39.572549711655768
  0
LINE
  8
_0-1_1_5
  6
CONTINUOUS
 62
    7
 10
65.153203487261479
 20
39.572549711655768
 11
65.136795860514667
 21
40.267142422323488
  0
LINE
  8
_0-1_1_5
  6
CONTINUOUS
 62
    7
 10
65.136795860514667
 20
40.267142422323488
 11
65.088071517710262
 21
40.940630284958438
  0
LINE
  8
_0-1_1_5
  6
CONTINUOUS
 62
    7
 10
65.088071517710262
 20
40.940630284958438
 11
65.00851092334868
 21
41.572549711655768
  0
LINE
  8
_0-1_1_5
  6
CONTINUOUS
 62
    7
 10
65.00851092334868
 20
41.572549711655768
 11
64.900531485829973
 21
42.143700150401919
  0
LINE
  8
_0-1_1_5
  6
CONTINUOUS
 62
    7
 10
64.900531485829973
 20
42.143700150401919
 11
64.767414105722949
 21
42.636727484131676
  0
LINE
  8
_0-1_1_5
  6
CONTINUOUS
 62
    7
 10
64.767414105722949
 20
42.636727484131676
 11
64.613203487261487
 21
43.036651326793518
  0
LINE
  8
_0-1_1_5
  6
CONTINUOUS
 62
    7
 10
64.613203487261487
 20
43.036651326793518
 11
64.442585242053198
 21
43.331320194799396
  0
LINE
  8
_0-1_1_5
  6
CONTINUOUS
 62
    7
 10
64.442585242053198
 20
43.331320194799396
 11
64.260743519141769
 21
43.511780723704597
  0
LINE
  8
_0-1_1_5
  6
CONTINUOUS
 62
    7
 10
64.260743519141769
 20
43.511780723704597
 11
64.088592234232351
 21
43.572143632172597
  0
LINE
  8
_0-1_1_5
  6
CONTINUOUS
 62
    7
 10
80.073203487261253
 20
43.572143632172612
 11
144.07320348726125
 21
43.572143632172612
  0
LINE
  8
_0-1_1_5
  6
CONTINUOUS
 62
    7
 10
80.073203487261253
 20
35.572143632172612
 11
144.07320348726125
 21
35.572143632172612
  0
LINE
  8
_0-1_1_5
  6
CONTINUOUS
 62
    7
 10
70.323301492965584
 20
112.42395590978458
 11
72.07320348726148
 21
118.04944059735163
  0
LINE
  8
_0-1_1_5
  6
CONTINUOUS
 62
    7
 10
73.823105481557377
 20
89.572549711655654
 11
73.823105481557377
 21
112.42450983843236
  0
LINE
  8
_0-1_1_5
  6
CONTINUOUS
 62
    7
 10
70.323301492965584
 20
89.572549711655654
 11
70.323301492965584
 21
112.42395590978458
  0
LINE
  8
_0-1_1_5
  6
CONTINUOUS
 62
    7
 10
73.706295228513454
 20
94.143484871945759
 11
70.206491239921661
 21
95.54971756167555
  0
LINE
  8
_0-1_1_5
  6
CONTINUOUS
 62
    7
 10
73.706295228513454
 20
108.20581176924344
 11
70.206491239921661
 21
109.61204445897306
  0
LINE
  8
_0-1_1_5
  6
CONTINUOUS
 62
    7
 10
73.706295228513454
 20
111.01827714870291
 11
70.206491239921661
 21
112.42450983843236
  0
LINE
  8
_0-1_1_5
  6
CONTINUOUS
 62
    7
 10
73.706295228513454
 20
109.61204445897306
 11
70.206491239921661
 21
111.01827714870291
  0
LINE
  8
_0-1_1_5
  6
CONTINUOUS
 62
    7
 10
73.706295228513454
 20
106.79957907951342
 11
70.206491239921661
 21
108.20581176924344
  0
LINE
  8
_0-1_1_5
  6
CONTINUOUS
 62
    7
 10
73.706295228513454
 20
92.737252182216309
 11
70.206491239921661
 21
94.143484871945759
  0
LINE
  8
_0-1_1_5
  6
CONTINUOUS
 62
    7
 10
73.706295228513454
 20
105.39334638978374
 11
70.206491239921661
 21
106.79957907951342
  0
LINE
  8
_0-1_1_5
  6
CONTINUOUS
 62
    7
 10
73.706295228513454
 20
103.98711370005418
 11
70.206491239921661
 21
105.39334638978374
  0
LINE
  8
_0-1_1_5
  6
CONTINUOUS
 62
    7
 10
73.706295228513454
 20
102.58088101032428
 11
70.206491239921661
 21
103.98711370005418
  0
LINE
  8
_0-1_1_5
  6
CONTINUOUS
 62
    7
 10
73.706295228513454
 20
101.17464832059449
 11
70.206491239921661
 21
102.58088101032428
  0
LINE
  8
_0-1_1_5
  6
CONTINUOUS
 62
    7
 10
73.706295228513454
 20
99.768415630864808
 11
70.206491239921661
 21
101.17464832059449
  0
LINE
  8
_0-1_1_5
  6
CONTINUOUS
 62
    7
 10
73.706295228513454
 20
98.362182941135245
 11
70.206491239921661
 21
99.768415630864808
  0
LINE
  8
_0-1_1_5
  6
CONTINUOUS
 62
    7
 10
73.706295228513454
 20
95.54971756167555
 11
70.206491239921661
 21
96.955950251405568
  0
LINE
  8
_0-1_1_5
  6
CONTINUOUS
 62
    7
 10
73.706295228513454
 20
96.955950251405568
 11
70.206491239921661
 21
98.362182941135245
  0
LINE
  8
_0-1_1_5
  6
CONTINUOUS
 62
    7
 10
73.706295228513454
 20
91.331019492486064
 11
70.206491239921661
 21
92.737252182216309
  0
LINE
  8
_0-1_1_5
  6
CONTINUOUS
 62
    7
 10
72.07320348726148
 20
118.04944059735163
 11
73.823105481557377
 21
112.42450983843236
  0
LINE
  8
_0-1_1_5
  6
CONTINUOUS
 62
    7
 10
150.32330149296558
 20
112.42395590978458
 11
152.07320348726148
 21
118.04944059735163
  0
LINE
  8
_0-1_1_5
  6
CONTINUOUS
 62
    7
 10
153.70629522851345
 20
94.143484871945759
 11
150.20649123992166
 21
95.54971756167555
  0
LINE
  8
_0-1_1_5
  6
CONTINUOUS
 62
    7
 10
153.70629522851345
 20
108.20581176924344
 11
150.20649123992166
 21
109.61204445897306
  0
LINE
  8
_0-1_1_5
  6
CONTINUOUS
 62
    7
 10
153.70629522851345
 20
111.01827714870291
 11
150.20649123992166
 21
112.42450983843236
  0
LINE
  8
_0-1_1_5
  6
CONTINUOUS
 62
    7
 10
153.70629522851345
 20
109.61204445897306
 11
150.20649123992166
 21
111.01827714870291
  0
LINE
  8
_0-1_1_5
  6
CONTINUOUS
 62
    7
 10
153.70629522851345
 20
106.79957907951342
 11
150.20649123992166
 21
108.20581176924344
  0
LINE
  8
_0-1_1_5
  6
CONTINUOUS
 62
    7
 10
153.70629522851345
 20
92.737252182216309
 11
150.20649123992166
 21
94.143484871945759
  0
LINE
  8
_0-1_1_5
  6
CONTINUOUS
 62
    7
 10
153.70629522851345
 20
105.39334638978374
 11
150.20649123992166
 21
106.79957907951342
  0
LINE
  8
_0-1_1_5
  6
CONTINUOUS
 62
    7
 10
153.70629522851345
 20
103.98711370005418
 11
150.20649123992166
 21
105.39334638978374
  0
LINE
  8
_0-1_1_5
  6
CONTINUOUS
 62
    7
 10
153.70629522851345
 20
102.58088101032428
 11
150.20649123992166
 21
103.98711370005418
  0
LINE
  8
_0-1_1_5
  6
CONTINUOUS
 62
    7
 10
153.70629522851345
 20
101.17464832059449
 11
150.20649123992166
 21
102.58088101032428
  0
LINE
  8
_0-1_1_5
  6
CONTINUOUS
 62
    7
 10
153.70629522851345
 20
99.768415630864808
 11
150.20649123992166
 21
101.17464832059449
  0
LINE
  8
_0-1_1_5
  6
CONTINUOUS
 62
    7
 10
153.70629522851345
 20
98.362182941135245
 11
150.20649123992166
 21
99.768415630864808
  0
LINE
  8
_0-1_1_5
  6
CONTINUOUS
 62
    7
 10
153.70629522851345
 20
95.54971756167555
 11
150.20649123992166
 21
96.955950251405568
  0
LINE
  8
_0-1_1_5
  6
CONTINUOUS
 62
    7
 10
153.70629522851345
 20
96.955950251405568
 11
150.20649123992166
 21
98.362182941135245
  0
LINE
  8
_0-1_1_5
  6
CONTINUOUS
 62
    7
 10
153.70629522851345
 20
91.331019492486064
 11
150.20649123992166
 21
92.737252182216309
  0
LINE
  8
_0-1_1_5
  6
CONTINUOUS
 62
    7
 10
153.70629522851345
 20
89.924786802756614
 11
150.20649123992166
 21
91.331019492486064
  0
LINE
  8
_0-1_1_5
  6
CONTINUOUS
 62
    7
 10
152.07320348726148
 20
118.04944059735163
 11
153.82310548155738
 21
112.42450983843236
  0
LINE
  8
_0-1_1_5
  6
CONTINUOUS
 62
    7
 10
80.073203487261253
 20
43.571737552689456
 11
80.073203487261253
 21
43.571737552689456
  0
LINE
  8
_0-1_1_5
  6
CONTINUOUS
 62
    7
 10
80.073203487261253
 20
43.571737552689456
 11
79.885663455380964
 21
43.510968564738292
  0
LINE
  8
_0-1_1_5
  6
CONTINUOUS
 62
    7
 10
79.885663455380964
 20
43.510968564738292
 11
79.703821732469535
 21
43.330508035833091
  0
LINE
  8
_0-1_1_5
  6
CONTINUOUS
 62
    7
 10
79.703821732469535
 20
43.330508035833091
 11
79.533203487261247
 21
43.035839167827213
  0
LINE
  8
_0-1_1_5
  6
CONTINUOUS
 62
    7
 10
79.533203487261247
 20
43.035839167827213
 11
79.378992868799784
 21
42.635915325165371
  0
LINE
  8
_0-1_1_5
  6
CONTINUOUS
 62
    7
 10
79.378992868799784
 20
42.635915325165371
 11
79.245875488692761
 21
42.142887991435614
  0
LINE
  8
_0-1_1_5
  6
CONTINUOUS
 62
    7
 10
79.245875488692761
 20
42.142887991435614
 11
79.137896051174053
 21
41.571737552689456
  0
LINE
  8
_0-1_1_5
  6
CONTINUOUS
 62
    7
 10
79.137896051174053
 20
41.571737552689456
 11
79.058335456812472
 21
40.939818125992133
  0
LINE
  8
_0-1_1_5
  6
CONTINUOUS
 62
    7
 10
79.058335456812472
 20
40.939818125992133
 11
79.009611114008067
 21
40.266330263357176
  0
LINE
  8
_0-1_1_5
  6
CONTINUOUS
 62
    7
 10
79.009611114008067
 20
40.266330263357176
 11
78.993203487261255
 21
39.571737552689456
  0
LINE
  8
_0-1_1_5
  6
CONTINUOUS
 62
    7
 10
78.993203487261255
 20
39.571737552689456
 11
79.009611114008067
 21
38.877144842021735
  0
LINE
  8
_0-1_1_5
  6
CONTINUOUS
 62
    7
 10
79.009611114008067
 20
38.877144842021735
 11
79.058335456812472
 21
38.203656979386786
  0
LINE
  8
_0-1_1_5
  6
CONTINUOUS
 62
    7
 10
79.058335456812472
 20
38.203656979386786
 11
79.137896051174053
 21
37.571737552689456
  0
LINE
  8
_0-1_1_5
  6
CONTINUOUS
 62
    7
 10
79.137896051174053
 20
37.571737552689456
 11
79.245875488692761
 21
37.000587113943304
  0
LINE
  8
_0-1_1_5
  6
CONTINUOUS
 62
    7
 10
79.245875488692761
 20
37.000587113943304
 11
79.378992868799784
 21
36.507559780213548
  0
LINE
  8
_0-1_1_5
  6
CONTINUOUS
 62
    7
 10
79.378992868799784
 20
36.507559780213548
 11
79.533203487261247
 21
36.107635937551706
  0
LINE
  8
_0-1_1_5
  6
CONTINUOUS
 62
    7
 10
79.533203487261247
 20
36.107635937551706
 11
79.703821732469535
 21
35.812967069545827
  0
LINE
  8
_0-1_1_5
  6
CONTINUOUS
 62
    7
 10
79.703821732469535
 20
35.812967069545827
 11
79.885663455380964
 21
35.632506540640627
  0
LINE
  8
_0-1_1_5
  6
CONTINUOUS
 62
    7
 10
79.885663455380964
 20
35.632506540640627
 11
80.057814740290382
 21
35.572143632172626
  0
LINE
  8
_0-1_1_5
  6
CONTINUOUS
 62
    7
 10
64.07320348726148
 20
90.572549711655753
 11
64.07320348726148
 21
43.572549711655711
  0
LINE
  8
_0-1_1_5
  6
CONTINUOUS
 62
    7
 10
80.073203487261253
 20
90.572549711655753
 11
64.07320348726148
 21
90.572549711655753
  0
LINE
  8
_0-1_1_5
  6
CONTINUOUS
 62
    7
 10
80.073203487261253
 20
43.572143632172612
 11
80.073203487261253
 21
90.572549711655753
  0
LINE
  8
_0-1_1_5
  6
CONTINUOUS
 62
    7
 10
64.07320348726148
 20
35.596766413239834
 11
64.07320348726148
 21
30.572549711655768
  0
LINE
  8
_0-1_1_5
  6
CONTINUOUS
 62
    7
 10
64.07320348726148
 20
30.572549711655768
 11
80.073203487261253
 21
30.572549711655768
  0
LINE
  8
_0-1_1_5
  6
CONTINUOUS
 62
    7
 10
80.073203487261253
 20
30.572549711655768
 11
80.073203487261253
 21
35.572143632172612
  0
LINE
  8
_0-1_1_5
  6
CONTINUOUS
 62
    7
 10
160.07320348726125
 20
90.572549711655753
 11
160.07320348726125
 21
43.572549711655711
  0
LINE
  8
_0-1_1_5
  6
CONTINUOUS
 62
    7
 10
144.07320348726125
 20
90.572549711655753
 11
160.07320348726125
 21
90.572549711655753
  0
LINE
  8
_0-1_1_5
  6
CONTINUOUS
 62
    7
 10
144.07320348726125
 20
43.572143632172612
 11
144.07320348726125
 21
90.572549711655753
  0
LINE
  8
_0-1_1_5
  6
CONTINUOUS
 62
    7
 10
187.79819429446502
 20
43.572549711655739
 11
187.79819429446502
 21
43.572549711655739
  0
LINE
  8
_0-1_1_5
  6
CONTINUOUS
 62
    7
 10
187.79819429446502
 20
43.572549711655739
 11
187.40227644938443
 21
43.511780723704568
  0
LINE
  8
_0-1_1_5
  6
CONTINUOUS
 62
    7
 10
187.40227644938443
 20
43.511780723704568
 11
187.01838836768249
 21
43.331320194799375
  0
LINE
  8
_0-1_1_5
  6
CONTINUOUS
 62
    7
 10
187.01838836768249
 20
43.331320194799375
 11
186.65819429446503
 21
43.036651326793496
  0
LINE
  8
_0-1_1_5
  6
CONTINUOUS
 62
    7
 10
186.65819429446503
 20
43.036651326793496
 11
186.33263854437971
 21
42.636727484131654
  0
LINE
  8
_0-1_1_5
  6
CONTINUOUS
 62
    7
 10
186.33263854437971
 20
42.636727484131654
 11
186.05161296415375
 21
42.143700150401898
  0
LINE
  8
_0-1_1_5
  6
CONTINUOUS
 62
    7
 10
186.05161296415375
 20
42.143700150401898
 11
185.82365637383651
 21
41.572549711655739
  0
LINE
  8
_0-1_1_5
  6
CONTINUOUS
 62
    7
 10
185.82365637383651
 20
41.572549711655739
 11
185.65569511907316
 21
40.940630284958416
  0
LINE
  8
_0-1_1_5
  6
CONTINUOUS
 62
    7
 10
185.65569511907316
 20
40.940630284958416
 11
185.55283261759718
 21
40.26714242232346
  0
LINE
  8
_0-1_1_5
  6
CONTINUOUS
 62
    7
 10
185.55283261759718
 20
40.26714242232346
 11
185.51819429446502
 21
39.572549711655739
  0
LINE
  8
_0-1_1_5
  6
CONTINUOUS
 62
    7
 10
185.51819429446502
 20
39.572549711655739
 11
185.55283261759718
 21
38.877957000988019
  0
LINE
  8
_0-1_1_5
  6
CONTINUOUS
 62
    7
 10
185.55283261759718
 20
38.877957000988019
 11
185.65569511907316
 21
38.204469138353062
  0
LINE
  8
_0-1_1_5
  6
CONTINUOUS
 62
    7
 10
185.65569511907316
 20
38.204469138353062
 11
185.82365637383651
 21
37.572549711655739
  0
LINE
  8
_0-1_1_5
  6
CONTINUOUS
 62
    7
 10
185.82365637383651
 20
37.572549711655739
 11
186.05161296415375
 21
37.00139927290958
  0
LINE
  8
_0-1_1_5
  6
CONTINUOUS
 62
    7
 10
186.05161296415375
 20
37.00139927290958
 11
186.33263854437971
 21
36.508371939179831
  0
LINE
  8
_0-1_1_5
  6
CONTINUOUS
 62
    7
 10
186.33263854437971
 20
36.508371939179831
 11
186.65819429446501
 21
36.108448096517989
  0
LINE
  8
_0-1_1_5
  6
CONTINUOUS
 62
    7
 10
186.65819429446501
 20
36.108448096517989
 11
187.01838836768249
 21
35.813779228512104
  0
LINE
  8
_0-1_1_5
  6
CONTINUOUS
 62
    7
 10
187.01838836768249
 20
35.813779228512104
 11
187.4022764493844
 21
35.63331869960691
  0
LINE
  8
_0-1_1_5
  6
CONTINUOUS
 62
    7
 10
187.4022764493844
 20
35.63331869960691
 11
187.79819429446502
 21
35.572549711655739
  0
LINE
  8
_0-1_1_5
  6
CONTINUOUS
 62
    7
 10
187.79819429446502
 20
35.572549711655739
 11
188.19411213954561
 21
35.633318699606903
  0
LINE
  8
_0-1_1_5
  6
CONTINUOUS
 62
    7
 10
188.19411213954561
 20
35.633318699606903
 11
188.57800022124755
 21
35.813779228512104
  0
LINE
  8
_0-1_1_5
  6
CONTINUOUS
 62
    7
 10
188.57800022124755
 20
35.813779228512104
 11
188.93819429446501
 21
36.108448096517982
  0
LINE
  8
_0-1_1_5
  6
CONTINUOUS
 62
    7
 10
188.93819429446501
 20
36.108448096517982
 11
189.26375004455033
 21
36.508371939179824
  0
LINE
  8
_0-1_1_5
  6
CONTINUOUS
 62
    7
 10
189.26375004455033
 20
36.508371939179824
 11
189.54477562477629
 21
37.001399272909573
  0
LINE
  8
_0-1_1_5
  6
CONTINUOUS
 62
    7
 10
189.54477562477629
 20
37.001399272909573
 11
189.77273221509353
 21
37.572549711655732
  0
LINE
  8
_0-1_1_5
  6
CONTINUOUS
 62
    7
 10
189.77273221509353
 20
37.572549711655732
 11
189.94069346985688
 21
38.204469138353055
  0
LINE
  8
_0-1_1_5
  6
CONTINUOUS
 62
    7
 10
189.94069346985688
 20
38.204469138353055
 11
190.04355597133286
 21
38.877957000988005
  0
LINE
  8
_0-1_1_5
  6
CONTINUOUS
 62
    7
 10
190.04355597133286
 20
38.877957000988005
 11
190.07819429446502
 21
39.572549711655725
  0
LINE
  8
_0-1_1_5
  6
CONTINUOUS
 62
    7
 10
190.07819429446502
 20
39.572549711655725
 11
190.04355597133286
 21
40.267142422323445
  0
LINE
  8
_0-1_1_5
  6
CONTINUOUS
 62
    7
 10
190.04355597133286
 20
40.267142422323445
 11
189.94069346985688
 21
40.940630284958402
  0
LINE
  8
_0-1_1_5
  6
CONTINUOUS
 62
    7
 10
189.94069346985688
 20
40.940630284958402
 11
189.77273221509355
 21
41.572549711655725
  0
LINE
  8
_0-1_1_5
  6
CONTINUOUS
 62
    7
 10
189.77273221509355
 20
41.572549711655725
 11
189.54477562477629
 21
42.143700150401884
  0
LINE
  8
_0-1_1_5
  6
CONTINUOUS
 62
    7
 10
189.54477562477629
 20
42.143700150401884
 11
189.26375004455033
 21
42.63672748413164
  0
LINE
  8
_0-1_1_5
  6
CONTINUOUS
 62
    7
 10
189.26375004455033
 20
42.63672748413164
 11
188.93819429446503
 21
43.036651326793489
  0
LINE
  8
_0-1_1_5
  6
CONTINUOUS
 62
    7
 10
188.93819429446503
 20
43.036651326793489
 11
188.57800022124755
 21
43.331320194799368
  0
LINE
  8
_0-1_1_5
  6
CONTINUOUS
 62
    7
 10
188.57800022124755
 20
43.331320194799368
 11
188.19411213954564
 21
43.511780723704568
  0
LINE
  8
_0-1_1_5
  6
CONTINUOUS
 62
    7
 10
188.19411213954564
 20
43.511780723704568
 11
187.79819429446502
 21
43.572549711655739
  0
LINE
  8
_0-1_1_5
  6
CONTINUOUS
 62
    7
 10
187.79819429446502
 20
43.572549711655739
 11
187.79819429446502
 21
43.572549711655739
  0
LINE
  8
_0-1_1_5
  6
CONTINUOUS
 62
    7
 10
187.79819429446502
 20
43.572549711655711
 11
160.07320348726125
 21
43.572549711655711
  0
LINE
  8
_0-1_1_5
  6
CONTINUOUS
 62
    7
 10
187.79819429446502
 20
35.572549711655768
 11
160.07320348726125
 21
35.572549711655768
  0
LINE
  8
_0-1_1_5
  6
CONTINUOUS
 62
    7
 10
144.05781317786818
 20
35.572549711655768
 11
144.05781317786818
 21
35.572549711655768
  0
LINE
  8
_0-1_1_5
  6
CONTINUOUS
 62
    7
 10
144.05781317786818
 20
35.572549711655768
 11
144.24535320974846
 21
35.633318699606932
  0
LINE
  8
_0-1_1_5
  6
CONTINUOUS
 62
    7
 10
144.24535320974846
 20
35.633318699606932
 11
144.42719493265992
 21
35.813779228512132
  0
LINE
  8
_0-1_1_5
  6
CONTINUOUS
 62
    7
 10
144.42719493265992
 20
35.813779228512132
 11
144.59781317786818
 21
36.108448096518011
  0
LINE
  8
_0-1_1_5
  6
CONTINUOUS
 62
    7
 10
144.59781317786818
 20
36.108448096518011
 11
144.75202379632964
 21
36.508371939179852
  0
LINE
  8
_0-1_1_5
  6
CONTINUOUS
 62
    7
 10
144.75202379632964
 20
36.508371939179852
 11
144.88514117643669
 21
37.001399272909609
  0
LINE
  8
_0-1_1_5
  6
CONTINUOUS
 62
    7
 10
144.88514117643669
 20
37.001399272909609
 11
144.99312061395537
 21
37.572549711655768
  0
LINE
  8
_0-1_1_5
  6
CONTINUOUS
 62
    7
 10
144.99312061395537
 20
37.572549711655768
 11
145.07268120831696
 21
38.20446913835309
  0
LINE
  8
_0-1_1_5
  6
CONTINUOUS
 62
    7
 10
145.07268120831696
 20
38.20446913835309
 11
145.12140555112137
 21
38.877957000988047
  0
LINE
  8
_0-1_1_5
  6
CONTINUOUS
 62
    7
 10
145.12140555112137
 20
38.877957000988047
 11
145.1378131778682
 21
39.572549711655768
  0
LINE
  8
_0-1_1_5
  6
CONTINUOUS
 62
    7
 10
145.1378131778682
 20
39.572549711655768
 11
145.12140555112137
 21
40.267142422323488
  0
LINE
  8
_0-1_1_5
  6
CONTINUOUS
 62
    7
 10
145.12140555112137
 20
40.267142422323488
 11
145.07268120831696
 21
40.940630284958438
  0
LINE
  8
_0-1_1_5
  6
CONTINUOUS
 62
    7
 10
145.07268120831696
 20
40.940630284958438
 11
144.99312061395537
 21
41.572549711655768
  0
LINE
  8
_0-1_1_5
  6
CONTINUOUS
 62
    7
 10
144.99312061395537
 20
41.572549711655768
 11
144.88514117643669
 21
42.143700150401919
  0
LINE
  8
_0-1_1_5
  6
CONTINUOUS
 62
    7
 10
144.88514117643669
 20
42.143700150401919
 11
144.75202379632964
 21
42.636727484131676
  0
LINE
  8
_0-1_1_5
  6
CONTINUOUS
 62
    7
 10
144.75202379632964
 20
42.636727484131676
 11
144.59781317786818
 21
43.036651326793518
  0
LINE
  8
_0-1_1_5
  6
CONTINUOUS
 62
    7
 10
144.59781317786818
 20
43.036651326793518
 11
144.42719493265992
 21
43.331320194799396
  0
LINE
  8
_0-1_1_5
  6
CONTINUOUS
 62
    7
 10
144.42719493265992
 20
43.331320194799396
 11
144.24535320974846
 21
43.511780723704597
  0
LINE
  8
_0-1_1_5
  6
CONTINUOUS
 62
    7
 10
144.24535320974846
 20
43.511780723704597
 11
144.07320192483905
 21
43.572143632172597
  0
LINE
  8
_0-1_1_5
  6
CONTINUOUS
 62
    7
 10
160.07320348726125
 20
35.572549711655768
 11
160.07320348726125
 21
30.572549711655768
  0
LINE
  8
_0-1_1_5
  6
CONTINUOUS
 62
    7
 10
160.07320348726125
 20
30.572549711655768
 11
144.07320348726125
 21
30.572549711655768
  0
LINE
  8
_0-1_1_5
  6
CONTINUOUS
 62
    7
 10
144.07320348726125
 20
30.572549711655768
 11
144.07320348726125
 21
35.572143632172612
  0
LINE
  8
_0-1_1_5
  6
CONTINUOUS
 62
    7
 10
160.07320348726125
 20
35.572549711655768
 11
160.07320348726125
 21
43.572549711655711
  0
LINE
  8
_0-1_1_5
  6
CENTER2
 62
    7
 10
73.706295228513454
 20
89.924786802756614
 11
70.206491239921661
 21
91.331019492486064
  0
LINE
  8
_0-1_1_5
  6
DASHED1
 62
    7
 10
146.19565883870291
 20
90.572549711655654
 11
146.19565883870291
 21
85.822549711655881
  0
LINE
  8
_0-1_1_5
  6
DASHED1
 62
    7
 10
146.19565883870291
 20
85.822549711655881
 11
147.19565883870314
 21
85.822549711655881
  0
LINE
  8
_0-1_1_5
  6
DASHED1
 62
    7
 10
147.19565883870314
 20
85.822549711655881
 11
147.19565883870314
 21
81.322549711655768
  0
LINE
  8
_0-1_1_5
  6
DASHED1
 62
    7
 10
147.19565883870314
 20
81.322549711655768
 11
146.19565883870291
 21
81.322549711655768
  0
LINE
  8
_0-1_1_5
  6
DASHED1
 62
    7
 10
146.19565883870291
 20
81.322549711655768
 11
146.19565883870291
 21
75.572549711655654
  0
LINE
  8
_0-1_1_5
  6
DASHED1
 62
    7
 10
146.19565883870291
 20
75.572549711655654
 11
147.19565883870314
 21
75.572549711655654
  0
LINE
  8
_0-1_1_5
  6
DASHED1
 62
    7
 10
147.19565883870314
 20
75.572549711655654
 11
149.69565883870303
 21
78.072549711655654
  0
LINE
  8
_0-1_1_5
  6
DASHED1
 62
    7
 10
149.69565883870303
 20
78.072549711655654
 11
149.69565883870314
 21
90.572549711655881
  0
LINE
  8
_0-1_1_5
  6
DASHED1
 62
    7
 10
149.69565883870314
 20
90.572549711655768
 11
154.69565883870314
 21
90.572549711655768
  0
LINE
  8
_0-1_1_5
  6
DASHED1
 62
    7
 10
154.69565883870303
 20
78.072549711655654
 11
154.69565883870314
 21
90.572549711655881
  0
LINE
  8
_0-1_1_5
  6
DASHED1
 62
    7
 10
157.19565883870303
 20
75.572549711655654
 11
154.69565883870303
 21
78.072549711655654
  0
LINE
  8
_0-1_1_5
  6
DASHED1
 62
    7
 10
158.19565883870291
 20
75.572549711655654
 11
157.19565883870303
 21
75.572549711655654
  0
LINE
  8
_0-1_1_5
  6
DASHED1
 62
    7
 10
158.19565883870291
 20
81.322549711655768
 11
158.19565883870291
 21
75.572549711655654
  0
LINE
  8
_0-1_1_5
  6
DASHED1
 62
    7
 10
157.19565883870303
 20
81.322549711655768
 11
158.19565883870291
 21
81.322549711655768
  0
LINE
  8
_0-1_1_5
  6
DASHED1
 62
    7
 10
157.19565883870314
 20
85.822549711655881
 11
157.19565883870303
 21
81.322549711655768
  0
LINE
  8
_0-1_1_5
  6
DASHED1
 62
    7
 10
158.19565883870291
 20
85.822549711655881
 11
157.19565883870314
 21
85.822549711655881
  0
LINE
  8
_0-1_1_5
  6
DASHED1
 62
    7
 10
158.19565883870291
 20
90.572549711655654
 11
158.19565883870291
 21
85.822549711655881
  0
LINE
  8
_0-1_1_5
  6
DASHED1
 62
    7
 10
148.57320348726137
 20
76.100393451118578
 11
150.32330149296558
 21
77.850491456822795
  0
LINE
  8
_0-1_1_5
  6
DASHED1
 62
    7
 10
150.32330149296558
 20
77.850491456822795
 11
153.82310548155726
 21
77.850491456822795
  0
LINE
  8
_0-1_1_5
  6
DASHED1
 62
    7
 10
151.83812872127089
 20
77.850491456822795
 11
150.20649123992166
 21
78.50608873356731
  0
LINE
  8
_0-1_1_5
  6
DASHED1
 62
    7
 10
153.70629522851345
 20
78.499856043837724
 11
150.20649123992166
 21
79.906088733567628
  0
LINE
  8
_0-1_1_5
  6
DASHED1
 62
    7
 10
153.70629522851345
 20
79.899856043837701
 11
150.20649123992166
 21
81.306088733567492
  0
LINE
  8
_0-1_1_5
  6
DASHED1
 62
    7
 10
153.70629522851345
 20
81.299856043837906
 11
150.20649123992166
 21
82.706088733567356
  0
LINE
  8
_0-1_1_5
  6
DASHED1
 62
    7
 10
153.70629522851345
 20
82.699856043837769
 11
150.20649123992166
 21
84.106088733567333
  0
LINE
  8
_0-1_1_5
  6
DASHED1
 62
    7
 10
153.70629522851345
 20
84.099856043837633
 11
150.20649123992166
 21
85.506088733567196
  0
LINE
  8
_0-1_1_5
  6
DASHED1
 62
    7
 10
153.70629522851345
 20
85.49985604383761
 11
150.20649123992166
 21
86.906088733567515
  0
LINE
  8
_0-1_1_5
  6
DASHED1
 62
    7
 10
153.70629522851345
 20
86.899856043837474
 11
150.20649123992166
 21
88.306088733567378
  0
LINE
  8
_0-1_1_5
  6
DASHED1
 62
    7
 10
153.70629522851345
 20
88.299856043837792
 11
150.20649123992166
 21
89.706088733567242
  0
LINE
  8
_0-1_1_5
  6
DASHED1
 62
    7
 10
155.57320348726137
 20
76.100393451118578
 11
153.82310548155726
 21
77.85049145682234
  0
LINE
  8
_0-1_1_5
  6
DASHED1
 62
    7
 10
157.19565883870303
 20
75.572549711655654
 11
147.19565883870314
 21
75.572549711655654
  0
LINE
  8
_0-1_1_5
  6
CONTINUOUS
 62
    7
 10
150.32330149296558
 20
90.572549711655753
 11
150.32330149296558
 21
112.42395590978458
  0
LINE
  8
_0-1_1_5
  6
CONTINUOUS
 62
    7
 10
153.82310548155738
 20
90.572549711655753
 11
153.82310548155738
 21
112.42450983843236
  0
LINE
  8
_0-1_1_5
  6
DASHED1
 62
    7
 10
150.32330149296558
 20
77.850491456822795
 11
150.32330149296558
 21
90.572549711655753
  0
LINE
  8
_0-1_1_5
  6
DASHED1
 62
    7
 10
153.82310548155692
 20
77.850491456822795
 11
153.82310548155729
 21
90.572549711655753
  0
LINE
  8
_0-1_1_5
  6
DASHED1
 62
    7
 10
66.195658838702911
 20
90.572549711655654
 11
66.195658838702911
 21
85.822549711655881
  0
LINE
  8
_0-1_1_5
  6
DASHED1
 62
    7
 10
66.195658838702911
 20
85.822549711655881
 11
67.195658838703139
 21
85.822549711655881
  0
LINE
  8
_0-1_1_5
  6
DASHED1
 62
    7
 10
67.195658838703139
 20
85.822549711655881
 11
67.195658838703139
 21
81.322549711655768
  0
LINE
  8
_0-1_1_5
  6
DASHED1
 62
    7
 10
67.195658838703139
 20
81.322549711655768
 11
66.195658838702911
 21
81.322549711655768
  0
LINE
  8
_0-1_1_5
  6
DASHED1
 62
    7
 10
66.195658838702911
 20
81.322549711655768
 11
66.195658838702911
 21
75.572549711655654
  0
LINE
  8
_0-1_1_5
  6
DASHED1
 62
    7
 10
66.195658838702911
 20
75.572549711655654
 11
67.195658838703139
 21
75.572549711655654
  0
LINE
  8
_0-1_1_5
  6
DASHED1
 62
    7
 10
67.195658838703139
 20
75.572549711655654
 11
69.695658838703025
 21
78.072549711655654
  0
LINE
  8
_0-1_1_5
  6
DASHED1
 62
    7
 10
69.695658838703025
 20
78.072549711655654
 11
69.695658838703139
 21
90.572549711655881
  0
LINE
  8
_0-1_1_5
  6
DASHED1
 62
    7
 10
74.695658838703025
 20
78.072549711655654
 11
74.695658838703139
 21
90.572549711655881
  0
LINE
  8
_0-1_1_5
  6
DASHED1
 62
    7
 10
77.195658838703025
 20
75.572549711655654
 11
74.695658838703025
 21
78.072549711655654
  0
LINE
  8
_0-1_1_5
  6
DASHED1
 62
    7
 10
78.195658838702911
 20
75.572549711655654
 11
77.195658838703025
 21
75.572549711655654
  0
LINE
  8
_0-1_1_5
  6
DASHED1
 62
    7
 10
78.195658838702911
 20
81.322549711655768
 11
78.195658838702911
 21
75.572549711655654
  0
LINE
  8
_0-1_1_5
  6
DASHED1
 62
    7
 10
77.195658838703025
 20
81.322549711655768
 11
78.195658838702911
 21
81.322549711655768
  0
LINE
  8
_0-1_1_5
  6
DASHED1
 62
    7
 10
77.195658838703139
 20
85.822549711655881
 11
77.195658838703025
 21
81.322549711655768
  0
LINE
  8
_0-1_1_5
  6
DASHED1
 62
    7
 10
78.195658838702911
 20
85.822549711655881
 11
77.195658838703139
 21
85.822549711655881
  0
LINE
  8
_0-1_1_5
  6
DASHED1
 62
    7
 10
78.195658838702911
 20
90.572549711655654
 11
78.195658838702911
 21
85.822549711655881
  0
LINE
  8
_0-1_1_5
  6
DASHED1
 62
    7
 10
71.838128721270891
 20
77.850491456822795
 11
70.206491239921661
 21
78.50608873356731
  0
LINE
  8
_0-1_1_5
  6
DASHED1
 62
    7
 10
73.706295228513454
 20
78.499856043837724
 11
70.206491239921661
 21
79.906088733567628
  0
LINE
  8
_0-1_1_5
  6
DASHED1
 62
    7
 10
73.706295228513454
 20
79.899856043837701
 11
70.206491239921661
 21
81.306088733567492
  0
LINE
  8
_0-1_1_5
  6
DASHED1
 62
    7
 10
73.706295228513454
 20
81.299856043837906
 11
70.206491239921661
 21
82.706088733567356
  0
LINE
  8
_0-1_1_5
  6
DASHED1
 62
    7
 10
73.706295228513454
 20
82.699856043837769
 11
70.206491239921661
 21
84.106088733567333
  0
LINE
  8
_0-1_1_5
  6
DASHED1
 62
    7
 10
73.706295228513454
 20
84.099856043837633
 11
70.206491239921661
 21
85.506088733567196
  0
LINE
  8
_0-1_1_5
  6
DASHED1
 62
    7
 10
73.706295228513454
 20
85.49985604383761
 11
70.206491239921661
 21
86.906088733567515
  0
LINE
  8
_0-1_1_5
  6
DASHED1
 62
    7
 10
73.706295228513454
 20
86.899856043837474
 11
70.206491239921661
 21
88.306088733567378
  0
LINE
  8
_0-1_1_5
  6
DASHED1
 62
    7
 10
73.706295228513454
 20
88.299856043837792
 11
70.206491239921661
 21
89.706088733567242
  0
LINE
  8
_0-1_1_5
  6
DASHED1
 62
    7
 10
75.573203487261367
 20
76.100393451118578
 11
73.823105481557263
 21
77.85049145682234
  0
LINE
  8
_0-1_1_5
  6
DASHED1
 62
    7
 10
77.195658838703025
 20
75.572549711655654
 11
67.195658838703139
 21
75.572549711655654
  0
LINE
  8
_0-1_1_5
  6
DASHED1
 62
    7
 10
70.323301492965584
 20
77.850491456822795
 11
70.323301492965584
 21
90.572549711655753
  0
LINE
  8
_0-1_1_5
  6
DASHED1
 62
    7
 10
68.573203487261367
 20
76.100393451118578
 11
70.323301492965584
 21
77.850491456822795
  0
LINE
  8
_0-1_1_5
  6
DASHED1
 62
    7
 10
73.823105481556922
 20
77.850491456822795
 11
73.823105481557292
 21
90.572549711655753
  0
LINE
  8
_0-1_1_5
  6
DASHED1
 62
    7
 10
70.323301492965584
 20
77.850491456822795
 11
73.823105481557263
 21
77.850491456822795
  0
POINT
  8
_0-2_ADD_LINE
 62
    7
 10
152.07320348726148
 20
250.46447770684085
  0
POINT
  8
_0-2_ADD_LINE
 62
    7
 10
72.07320348726148
 20
250.46447770684085
  0
LINE
  8
_0-1_1_5
  6
CONTINUOUS
 62
    7
 10
152.07320348726148
 20
250.46447770684085
 11
72.07320348726148
 21
250.46447770684085
  0
TEXT
  8
_0-1_1_5
 62
    4
 10
109.57320348726148
 20
251.46447770684085
 40
5
 41
1
 50
0
  1
80
  0
POINT
  8
_0-2_ADD_LINE
 62
    7
 10
72.07320348726148
 20
250.46447770684085
  0
POINT
  8
_0-2_ADD_LINE
 62
    7
 10
39.07320348726148
 20
250.46447770684085
  0
LINE
  8
_0-1_1_5
  6
CONTINUOUS
 62
    7
 10
72.07320348726148
 20
250.46447770684085
 11
39.07320348726148
 21
250.46447770684085
  0
TEXT
  8
_0-1_1_5
 62
    4
 10
53.07320348726148
 20
251.46447770684085
 40
5
 41
1
 50
0
  1
33
  0
LINE
  8
_0-2_ADD_LINE
  6
CONTINUOUS
 62
    7
 10
39.07320348726148
 20
250.46447770684085
 11
39.07320348726148
 21
209.96447770684082
  0
LINE
  8
_0-2_ADD_LINE
  6
CONTINUOUS
 62
    7
 10
152.07320348726148
 20
250.46447770684085
 11
152.07320348726148
 21
234.46447770684085
  0
POINT
  8
_0-2_ADD_LINE
 62
    7
 10
357.07044157400298
 20
250.46447770684085
  0
LINE
  8
_0-2_ADD_LINE
  6
CONTINUOUS
 62
    7
 10
357.07044157400298
 20
250.46447770684085
 11
357.07044157400298
 21
234.46447770684085
  0
LINE
  8
_0-2_ADD_LINE
  6
CONTINUOUS
 62
    7
 10
370.64233121840607
 20
222.32474474411021
 11
370.64233121840607
 21
195.71434452407104
  0
LINE
  8
_0-1_1_5
  6
CONTINUOUS
 62
    7
 10
39.07320348726148
 20
130.46447770684082
 11
190.07320348726148
 21
130.46447770684082
  0
TEXT
  8
_0-1_1_5
 62
    4
 10
110.82320348726148
 20
131.46447770684082
 40
5
 41
1
 50
0
  1
151
  0
LINE
  8
_0-2_ADD_LINE
  6
CONTINUOUS
 62
    7
 10
190.07320348726148
 20
130.46447770684082
 11
190.07320348726148
 21
162.78930217167289
  0
LINE
  8
_0-2_ADD_LINE
  6
CONTINUOUS
 62
    7
 10
39.07320348726148
 20
130.46447770684082
 11
39.07320348726148
 21
166.96447770684082
  0
POINT
  8
_0-2_ADD_LINE
 62
    7
 10
39.07320348726148
 20
130.46447770684082
  0
POINT
  8
_0-2_ADD_LINE
 62
    7
 10
190.07320348726148
 20
130.46447770684082
  0
TEXT
  8
_0-3_
 62
    7
 10
135.16691074515126
 20
-41.881749615713943
 40
6.1081542968750009
 41
1
 50
0
  1
へーパーホルダー
  0
LINE
  8
_0-2_ADD_LINE
  6
CONTINUOUS
 62
    7
 10
72.07320348726148
 20
250.46447770684085
 11
72.07320348726148
 21
234.46447770684085
  0
LINE
  8
_0-2_ADD_LINE
  6
CONTINUOUS
 62
    7
 10
72.07320348726148
 20
250.46447770684085
 11
72.07320348726148
 21
234.46447770684085
  0
LINE
  8
_0-3_
  6
CONTINUOUS
 62
    7
 10
19.07320348726148
 20
226.46447770684085
 11
19.07320348726148
 21
150.46447770684082
  0
TEXT
  8
_0-3_
 62
    4
 10
18.07320348726148
 20
185.96447770684082
 40
5
 41
1
 50
90
  1
76
  0
POINT
  8
_0-2_ADD_LINE
 62
    7
 10
19.07320348726148
 20
150.46447770684082
  0
POINT
  8
_0-2_ADD_LINE
 62
    7
 10
19.07320348726148
 20
226.46447770684085
  0
LINE
  8
_0-2_ADD_LINE
  6
CONTINUOUS
 62
    7
 10
19.07320348726148
 20
150.46447770684082
 11
55.57320348726148
 21
150.46447770684082
  0
LINE
  8
_0-2_ADD_LINE
  6
CONTINUOUS
 62
    7
 10
19.07320348726148
 20
226.46447770684085
 11
55.57320348726148
 21
226.46447770684082
  0
POINT
  8
_0-2_ADD_LINE
 62
    7
 10
306.07044157400276
 20
250.46447770684085
  0
LINE
  8
_0-2_ADD_LINE
  6
CONTINUOUS
 62
    7
 10
306.07044157400276
 20
250.46447770684085
 11
306.07044157400276
 21
234.46447770684085
  0
LINE
  8
_0-1_1_5
  6
CONTINUOUS
 62
    7
 10
306.07044157400276
 20
250.46447770684085
 11
357.07044157400298
 21
250.46447770684085
  0
TEXT
  8
_0-2_ADD_LINE
 62
    4
 10
329.07044157400287
 20
251.46447770684085
 40
5
 41
1
 50
0
  1
51
  0
POINT
  8
_0-2_ADD_LINE
 62
    7
 10
210.23559575560108
 20
43.572549711655711
  0
POINT
  8
_0-2_ADD_LINE
 62
    7
 10
210.23559575560108
 20
35.572549711655768
  0
LINE
  8
_0-3_
  6
CONTINUOUS
 62
    7
 10
210.23559575560108
 20
43.572549711655711
 11
210.23559575560108
 21
35.572549711655768
  0
TEXT
  8
_0-3_
 62
    4
 10
209.43327087769461
 20
49.396423700934349
 40
5
 41
1
 50
90
  1
8
  0
LINE
  8
_0-2_ADD_LINE
  6
CONTINUOUS
 62
    7
 10
210.23559575560108
 20
43.572549711655711
 11
210.23559575560108
 21
51.842074785998904
  0
LINE
  8
_0-2_ADD_LINE
  6
CONTINUOUS
 62
    7
 10
210.23559575560108
 20
43.572549711655711
 11
189.79819429446502
 21
43.572549711655711
  0
LINE
  8
_0-2_ADD_LINE
  6
CONTINUOUS
 62
    7
 10
210.23559575560108
 20
35.572549711655768
 11
189.79819429446502
 21
35.572549711655768
  0
TEXT
  8
_0-2_ADD_LINE
 62
    7
 10
209.66691930340056
 20
44.20087142419959
 40
6.1081542968750009
 41
1
 50
90
  1
φ
  0
POINT
  8
_0-2_ADD_LINE
 62
    7
 10
144.07320348726125
 20
10.572549711655768
  0
POINT
  8
_0-2_ADD_LINE
 62
    7
 10
160.07320348726125
 20
10.572549711655768
  0
LINE
  8
_0-2_ADD_LINE
  6
CONTINUOUS
 62
    7
 10
144.07320348726125
 20
10.572549711655768
 11
144.07320348726125
 21
28.572549711655768
  0
LINE
  8
_0-2_ADD_LINE
  6
CONTINUOUS
 62
    7
 10
160.07320348726125
 20
10.572549711655768
 11
160.07320348726125
 21
28.572549711655768
  0
LINE
  8
_0-3_
  6
CONTINUOUS
 62
    7
 10
144.07320348726125
 20
10.572549711655768
 11
160.07320348726125
 21
10.572549711655768
  0
TEXT
  8
_0-3_
 62
    4
 10
152.29909102597196
 20
11.625417961051738
 40
5
 41
1
 50
0
  1
16
  0
TEXT
  8
_0-2_ADD_LINE
 62
    7
 10
146.89862367923263
 20
11.343258412953901
 40
6.1081542968750009
 41
1
 50
0
  1
φ
  0
POINT
  8
_0-2_ADD_LINE
 62
    7
 10
209.97291048924455
 20
150.46447770684082
  0
POINT
  8
_0-2_ADD_LINE
 62
    7
 10
209.97291048924455
 20
230.46447770684085
  0
LINE
  8
_0-3_
  6
CONTINUOUS
 62
    7
 10
209.97291048924455
 20
150.46447770684082
 11
209.97291048924455
 21
230.46447770684085
  0
TEXT
  8
_0-3_
 62
    4
 10
208.97291048924455
 20
187.96447770684082
 40
5
 41
1
 50
90
  1
80
  0
LINE
  8
_0-2_ADD_LINE
  6
CONTINUOUS
 62
    7
 10
209.97291048924455
 20
230.46447770684085
 11
158.07320348726148
 21
230.46447770684085
  0
LINE
  8
_0-2_ADD_LINE
  6
CONTINUOUS
 62
    7
 10
209.97291048924455
 20
150.46447770684082
 11
165.6201160749539
 21
150.46447770684082
  0
POINT
  8
_0-2_ADD_LINE
 62
    7
 10
297.07044157400276
 20
260.46447770684085
  0
POINT
  8
_0-2_ADD_LINE
 62
    7
 10
357.07044157400298
 20
260.46447770684085
  0
LINE
  8
_0-2_ADD_LINE
  6
CONTINUOUS
 62
    7
 10
297.07044157400276
 20
260.46447770684085
 11
297.07044157400276
 21
232.46447770684085
  0
LINE
  8
_0-2_ADD_LINE
  6
CONTINUOUS
 62
    7
 10
357.07044157400298
 20
260.46447770684085
 11
357.07044157400298
 21
232.46447770684085
  0
LINE
  8
_0-2_ADD_LINE
  6
CONTINUOUS
 62
    7
 10
297.07044157400276
 20
260.46447770684085
 11
357.07044157400298
 21
260.46447770684085
  0
TEXT
  8
_0-2_ADD_LINE
 62
    4
 10
324.57044157400287
 20
261.46447770684085
 40
5
 41
1
 50
0
  1
60
  0
TEXT
  8
_0-3_
 62
    7
 10
135.16691074515126
 20
-54.188953352434794
 40
6.1081542968750009
 41
1
 50
0
  1
ポリッシュ
  0
TEXT
  8
_0-3_
 62
    7
 10
321.93216695212038
 20
-41.80563917926429
 40
6.1081542968750009
 41
1
 50
0
  1
TFP43-A100-003
  0
ARC
  8
_0-1_1_5
  6
CONTINUOUS
 62
    7
 10
43.07320348726148
 20
39.572549711655768
 40
3.9999999999999858
 50
90
 51
270
  0
ARC
  8
_0-1_1_5
  6
DASHED1
 62
    7
 10
43.07320348726148
 20
39.572549711655768
 40
3.9999999999999858
 50
270
 51
90
  0
LINE
  8
_0-1_1_5
  6
CONTINUOUS
 62
    7
 10
43.07320348726148
 20
43.572549711655711
 11
64.08859379665455
 21
43.572549711655711
  0
LINE
  8
_0-1_1_5
  6
CONTINUOUS
 62
    7
 10
43.07320348726148
 20
35.572549711655768
 11
64.184909375320331
 21
35.572549711655768
  0
ENDSEC
  0
EOF
