  0
SECTION
  2
HEADER
  9
$ACADVER
  1
AC1009
  9
$INSBASE
 10
0
 20
0
 30
0
  9
$EXTMIN
 10
0
 20
0
  9
$EXTMAX
 10
594
 20
420
  9
$LIMMIN
 10
0
 20
0
  9
$LIMMAX
 10
594
 20
420
  9
$LTSCALE
 40
2
  0
ENDSEC
  0
SECTION
  2
TABLES
  0
TABLE
  2
LTYPE
 70
     9
  0
LTYPE
  2
CONTINUOUS
 70
    64
  3
実線
 72
    65
 73
     0
 40
0.0
  0
LTYPE
  2
DASHED1
 70
    64
  3
--  --  --  --  --  --  --  --  
 72
    65
 73
     2
 40
2.5
 49
1.25
 49
-1.25
  0
LTYPE
  2
DASHED2
 70
    64
  3
----    ----    ----    ----    
 72
    65
 73
     2
 40
5.0
 49
2.5
 49
-2.5
  0
LTYPE
  2
DASHED3
 70
    64
  3
------  ------  ------  ------  
 72
    65
 73
     2
 40
5.0
 49
3.75
 49
-1.25
  0
LTYPE
  2
CENTER1
 70
    64
  3
----- - ----- - ----- - ----- - 
 72
    65
 73
     4
 40
10.0
 49
6.25
 49
-1.25
 49
1.25
 49
-1.25
  0
LTYPE
  2
CENTER2
 70
    64
  3
----------  --  ----------  --  
 72
    65
 73
     4
 40
20.0
 49
12.5
 49
-2.5
 49
2.5
 49
-2.5
  0
LTYPE
  2
PHANTOM1
 70
    64
  3
--- - - --- - - --- - - --- - - 
 72
    65
 73
     6
 40
10.0
 49
3.25
 49
-1.25
 49
1.25
 49
-1.25
 49
1.25
 49
-1.25
  0
LTYPE
  2
PHANTOM2
 70
    64
  3
--------  -  -  --------  -  -  
 72
    65
 73
     6
 40
20.0
 49
10.0
 49
-2.5
 49
1.25
 49
-2.5
 49
1.25
 49
-2.5
  0
LTYPE
  2
DOT
 70
    64
  3
-   -   -   -   -   -   -   -   
 72
    65
 73
     2
 40
2.5
 49
0.625
 49
-1.875
  0
LTYPE
  2
DUMMY
 70
    64
  3
ダミー
 72
    65
 73
     0
 40
0.0
  0
LTYPE
  2
RAND1
 70
    64
  3
ランダム線1
 72
    65
 73
     4
 40
10.0
 49
1.0
 49
-2.0
 49
3.0
 49
-4.0
  0
LTYPE
  2
RAND2
 70
    64
  3
ランダム線2
 72
    65
 73
     4
 40
14.0
 49
2.0
 49
-3.0
 49
4.0
 49
-5.0
  0
LTYPE
  2
RAND3
 70
    64
  3
ランダム線3
 72
    65
 73
     4
 40
18.0
 49
3.0
 49
-4.0
 49
5.0
 49
-6.0
  0
LTYPE
  2
RAND4
 70
    64
  3
ランダム線4
 72
    65
 73
     4
 40
22.0
 49
4.0
 49
-5.0
 49
6.0
 49
-7.0
  0
LTYPE
  2
RAND5
 70
    64
  3
ランダム線5
 72
    65
 73
     4
 40
26.0
 49
5.0
 49
-6.0
 49
7.0
 49
-8.0
  0
LTYPE
  2
LONG1
 70
    64
  3
----------  --  ----------  --  
 72
    65
 73
     4
 40
40.0
 49
32.5
 49
-2.5
 49
2.5
 49
-2.5
  0
LTYPE
  2
LONG2
 70
    64
  3
--------  -  -  --------  -  -  
 72
    65
 73
     6
 40
40.0
 49
30.0
 49
-2.5
 49
1.25
 49
-2.5
 49
1.25
 49
-2.5
  0
LTYPE
  2
LONG3
 70
    64
  3
+++++++++++++++..+++++++++++++++
 72
    65
 73
     2
 40
40.0
 49
37.5
 49
-2.5
  0
LTYPE
  2
LONG4
 70
    64
  3
+++++++++++++++..+++++++++++++++
 72
    65
 73
     2
 40
80.0
 49
75.0
 49
-5.0
  0
LTYPE
  2
LONG5
 70
    64
  3
----------  --  ----------  --  
 72
    65
 73
     4
 40
60.0
 49
37.5
 49
-7.5
 49
7.5
 49
-7.5
  0
LTYPE
  2
dashed
 70
   64
  3
-------   -------------   ------
 72
   65
 73
    2
 40
7.5
 49
6
 49
-1.5
  0
LTYPE
  2
dashed_spaced
 70
   64
  3
----        --------        ----
 72
   65
 73
    2
 40
12
 49
6
 49
-6
  0
LTYPE
  2
long_dashed_dotted
 70
   64
  3
------------- --- --------------
 72
   65
 73
    4
 40
15.25
 49
12
 49
-1.5
 49
0.25
 49
-1.5
  0
LTYPE
  2
long_dashed_double-dotted
 70
   64
  3
----------- --- --- ------------
 72
   65
 73
    6
 40
17
 49
12
 49
-1.5
 49
0.25
 49
-1.5
 49
0.25
 49
-1.5
  0
LTYPE
  2
long_dashed_triplicate-dotted
 70
   64
  3
--------- --- --- --- ----------
 72
   65
 73
    8
 40
18.75
 49
12
 49
-1.5
 49
0.25
 49
-1.5
 49
0.25
 49
-1.5
 49
0.25
 49
-1.5
  0
LTYPE
  2
dotted
 70
   64
  3
   -       -       -       -    
 72
   65
 73
    2
 40
1.75
 49
0.25
 49
-1.5
  0
LTYPE
  2
chain
 70
   64
  3
-------------- -- --------------
 72
   65
 73
    4
 40
18.5
 49
12
 49
-1.5
 49
3.5
 49
-1.5
  0
LTYPE
  2
chain_double_dash
 70
   64
  3
------------ -- -- -------------
 72
   65
 73
    6
 40
23.5
 49
12
 49
-1.5
 49
3.5
 49
-1.5
 49
3.5
 49
-1.5
  0
LTYPE
  2
dashed_dotted
 70
   64
  3
-----------     -     ----------
 72
   65
 73
    4
 40
9.25
 49
6
 49
-1.5
 49
0.25
 49
-1.5
  0
LTYPE
  2
double-dashed_dotted
 70
   64
  3
------   -----------   -   -----
 72
   65
 73
    6
 40
16.75
 49
6
 49
-1.5
 49
6
 49
-1.5
 49
0.25
 49
-1.5
  0
LTYPE
  2
dashed_double-dotted
 70
   64
  3
---------    -    -    ---------
 72
   65
 73
    6
 40
11
 49
6
 49
-1.5
 49
0.25
 49
-1.5
 49
0.25
 49
-1.5
  0
LTYPE
  2
double-dashed_double-dotted
 70
   64
  3
-----   ---------   -   -   ----
 72
   65
 73
    8
 40
18.5
 49
6
 49
-1.5
 49
6
 49
-1.5
 49
0.25
 49
-1.5
 49
0.25
 49
-1.5
  0
LTYPE
  2
dashed_triplicate-dotted
 70
   64
  3
-------    -    -    -    ------
 72
   65
 73
    8
 40
12.75
 49
6
 49
-1.5
 49
0.25
 49
-1.5
 49
0.25
 49
-1.5
 49
0.25
 49
-1.5
  0
LTYPE
  2
double-dashed_triplicate-dotted
 70
   64
  3
-----  ---------  -  -  -  -----
 72
   65
 73
   10
 40
20.25
 49
6
 49
-1.5
 49
6
 49
-1.5
 49
0.25
 49
-1.5
 49
0.25
 49
-1.5
 49
0.25
 49
-1.5
  0
LTYPE
  2
undefined
 70
   64
  3
--------------------------------
 72
   65
 73
    0
 40
0
  0
LTYPE
  2
STYLE_01
 70
   64
  3
----        --------        ----
 72
   65
 73
    2
 40
0.4166399999999997
 49
0.2082799999999999
 49
-0.2083599999999999
  0
LTYPE
  2
STYLE_02
 70
   64
  3
------     -----------     -----
 72
   65
 73
    2
 40
0.694425
 49
0.48607
 49
-0.2083550000000001
  0
LTYPE
  2
STYLE_03
 70
   64
  3
-------   -------------   ------
 72
   65
 73
    2
 40
1.25
 49
1.0416400000000001
 49
-0.2083599999999999
  0
LTYPE
  2
STYLE_04
 70
   64
  3
-------  --------------  -------
 72
   65
 73
    2
 40
1.5277099999999999
 49
1.3194249999999998
 49
-0.208285
  0
LTYPE
  2
STYLE_05
 70
   64
  3
---           -----           --
 72
   65
 73
    2
 40
0.20828
 49
0.069425
 49
-0.138855
  0
LTYPE
  2
STYLE_06
 70
   64
  3
----------      --    ----------
 72
   65
 73
    4
 40
1.0416399999999999
 49
0.625
 49
-0.2082799999999999
 49
0.06943
 49
-0.13893
  0
LTYPE
  2
STYLE_07
 70
   64
  3
-----    -----------    -  -----
 72
   65
 73
    6
 40
1.8749999999999998
 49
0.625
 49
-0.2082799999999999
 49
0.6250000000000001
 49
-0.2083599999999999
 49
0.06943
 49
-0.1389299999999998
  0
LTYPE
  2
STYLE_08
 70
   64
  3
--------     --    --    -------
 72
   65
 73
    6
 40
1.2499999999999996
 49
0.625
 49
-0.2082799999999999
 49
0.06943
 49
-0.13893
 49
0.0694299999999997
 49
-0.13893
  0
LTYPE
  2
STYLE_09
 70
   64
  3
------------  ----  ------------
 72
   65
 73
    4
 40
5
 49
3.75
 49
-0.2777849999999997
 49
0.6944300000000003
 49
-0.2777849999999997
  0
LTYPE
  2
STYLE_10
 70
   64
  3
----------- ---- ---  ----------
 72
   65
 73
    6
 40
5.9375
 49
3.75
 49
-0.2777849999999997
 49
0.6944300000000003
 49
-0.2777849999999997
 49
0.625
 49
-0.3125
  0
ENDTAB
  0
TABLE
  2
STYLE
  5
3
100
AcDbSymbolTable
 70
     1
  0
STYLE
  5
10
100
AcDbSymbolTableRecord
100
AcDbTextStyleTableRecord
  2
STANDARD
 70
     0
 40
0.0
 41
1.0
 50
0.0
 71
     0
 42
0.2
  3
txt
  4
bigfont.shx
  0
STYLE
  5
26
100
AcDbSymbolTableRecord
100
AcDbTextStyleTableRecord
  2
TATEGAKI
 70
    68
 40
0.0
 41
1.0
 50
0.0
 71
     0
 42
1.0
  3
txt
  4
bigfont.shx
  0
ENDTAB
  0
TABLE
  2
LAYER
 70
    6
  0
LAYER
  2
_0-0_0
 70
   64
 62
    7
  6
CONTINUOUS
  0
LAYER
  2
_0-1_1_5
 70
   64
 62
    7
  6
CONTINUOUS
  0
LAYER
  2
_0-2_ADD_LINE
 70
   64
 62
    7
  6
CONTINUOUS
  0
LAYER
  2
_0-3_
 70
   64
 62
    7
  6
CONTINUOUS
  0
LAYER
  2
_0-4_
 70
   64
 62
    7
  6
CONTINUOUS
  0
LAYER
  2
ADD_LINE
 70
   64
 62
    7
  6
CONTINUOUS
  0
ENDTAB
  0
ENDSEC
  0
SECTION
  2
BLOCKS
  0
ENDSEC
  0
SECTION
  2
ENTITIES
  0
TEXT
  8
_0-3_
 62
    7
 10
321.93216695212038
 20
-41.80563917926429
 40
6.1081542968750009
 41
1
 50
0
  1
TFP43-B100-002
  0
TEXT
  8
_0-3_
 62
    7
 10
135.16691074515126
 20
-66.290244160930513
 40
6.1081542968750009
 41
1
 50
0
  1
ステンレススチール
  0
LINE
  8
_0-0_0
  6
CONTINUOUS
 62
    7
 10
-87.019906738806753
 20
335.75937008357874
 11
-87.019906738806753
 21
-84.240629916421256
  0
LINE
  8
_0-0_0
  6
CONTINUOUS
 62
    7
 10
-87.019906738806753
 20
-84.240629916421256
 11
506.98009326119325
 21
-84.240629916421312
  0
LINE
  8
_0-0_0
  6
CONTINUOUS
 62
    7
 10
506.98009326119325
 20
-84.240629916421312
 11
506.98009326119325
 21
335.75937008357869
  0
LINE
  8
_0-0_0
  6
CONTINUOUS
 62
    7
 10
506.98009326119325
 20
335.75937008357869
 11
-87.019906738806753
 21
335.75937008357874
  0
TEXT
  8
_0-3_
 62
    7
 10
121.25741447433936
 20
-62.900519036372998
 40
4
 41
1
 50
0
  1
材質
  0
TEXT
  8
_0-3_
 62
    7
 10
121.25741447433936
 20
-50.417785461709059
 40
4
 41
1
 50
0
  1
仕上げ
  0
TEXT
  8
_0-3_
 62
    7
 10
121.25741447433936
 20
-38.559188565778356
 40
4
 41
1
 50
0
  1
品名
  0
LINE
  8
_0-3_
  6
CONTINUOUS
 62
    7
 10
305.33333332004827
 20
-68.800541471740075
 11
305.33333332004827
 21
-32.800541471740019
  0
LINE
  8
_0-3_
  6
CONTINUOUS
 62
    7
 10
492.00000000004832
 20
-32.800541471740019
 11
118.30557488476475
 21
-32.800541471740019
  0
LINE
  8
_0-3_
  6
CONTINUOUS
 62
    7
 10
492.00000000004832
 20
-44.800541471740019
 11
118.30557488476475
 21
-44.800541471740019
  0
LINE
  8
_0-3_
  6
CONTINUOUS
 62
    7
 10
492.00000000004832
 20
-56.800541471740019
 11
118.30557488476475
 21
-56.800541471740019
  0
LINE
  8
_0-3_
  6
CONTINUOUS
 62
    7
 10
118.30557488476475
 20
-68.800541471740019
 11
118.30557488476475
 21
-32.800541471740019
  0
TEXT
  8
_0-3_
 62
    7
 10
307.90644669306869
 20
-39.060319445408652
 40
4
 41
1
 50
0
  1
品番
  0
TEXT
  8
_0-3_
 62
    7
 10
307.90644669306869
 20
-50.739042164100738
 40
4
 41
1
 50
0
  1
縮尺
  0
TEXT
  8
_0-3_
 62
    7
 10
-66.888093986564627
 20
-76.72518315284276
 40
5
 41
1
 50
0
  1
120718SH
  0
LINE
  8
_0-3_
  6
CONTINUOUS
 62
    7
 10
-67.999999999951683
 20
321.1994585282601
 11
-67.999999999951683
 21
-68.800541471740019
  0
LINE
  8
_0-3_
  6
CONTINUOUS
 62
    7
 10
-67.999999999951683
 20
-68.800541471740019
 11
492.00000000004832
 21
-68.800541471740075
  0
LINE
  8
_0-3_
  6
CONTINUOUS
 62
    7
 10
492.00000000004832
 20
-68.800541471740075
 11
492.00000000004832
 21
321.19945852826004
  0
LINE
  8
_0-3_
  6
CONTINUOUS
 62
    7
 10
492.00000000004832
 20
321.19945852826004
 11
-67.999999999951683
 21
321.1994585282601
  0
TEXT
  8
_0-3_
 62
    7
 10
321.84362785127729
 20
-66.996859894418549
 40
6.2000000000000002
 41
1
 50
0
  1
大洋金物株式会社  ティーエフプラス事業部
  0
TEXT
  8
_0-3_
 62
    7
 10
322.25649152470066
 20
-54.000366323889125
 40
6.1081542968750009
 41
1
 50
0
  1
1/2
  0
TEXT
  8
_0-3_
 62
    7
 10
135.16691074515126
 20
-54.188953352434794
 40
6.1081542968750009
 41
1
 50
0
  1
サテン
  0
TEXT
  8
_0-3_
 62
    7
 10
135.16691074515126
 20
-41.881749615713943
 40
6.1081542968750009
 41
1
 50
0
  1
ペーパーホルダー
  0
POINT
  8
_0-2_ADD_LINE
 62
    7
 10
391.51549191281379
 20
220.40445198494834
  0
LINE
  8
_0-2_ADD_LINE
  6
CONTINUOUS
 62
    7
 10
391.51549191281379
 20
220.40445198494834
 11
380.51549191281379
 21
220.40445198494834
  0
LINE
  8
_0-2_ADD_LINE
  6
CONTINUOUS
 62
    7
 10
51.755018217003339
 20
294.44276729055775
 11
196.33730240935608
 21
294.44276729055775
  0
TEXT
  8
_0-2_ADD_LINE
 62
    4
 10
117.79616031317971
 20
295.44276729055775
 40
5
 41
1
 50
0
  1
144.6
  0
POINT
  8
_0-2_ADD_LINE
 62
    7
 10
128.33230240935677
 20
284.44276729055775
  0
LINE
  8
_0-2_ADD_LINE
  6
CONTINUOUS
 62
    7
 10
128.33230240935677
 20
284.44276729055775
 11
128.33230240935677
 21
273.4427672905577
  0
POINT
  8
_0-2_ADD_LINE
 62
    7
 10
304.51549191281413
 20
253.93814635970284
  0
POINT
  8
_0-2_ADD_LINE
 62
    7
 10
304.51549191281413
 20
235.93814635970284
  0
LINE
  8
_0-2_ADD_LINE
  6
CONTINUOUS
 62
    7
 10
304.51549191281413
 20
253.93814635970284
 11
316.01549191281413
 21
253.93814635970284
  0
LINE
  8
_0-2_ADD_LINE
  6
CONTINUOUS
 62
    7
 10
304.51549191281413
 20
235.93814635970284
 11
316.01549191281413
 21
235.93814635970284
  0
LINE
  8
_0-2_ADD_LINE
  6
CONTINUOUS
 62
    7
 10
304.51549191281413
 20
253.93814635970284
 11
304.51549191281413
 21
235.93814635970284
  0
TEXT
  8
_0-2_ADD_LINE
 62
    4
 10
303.51549191281413
 20
242.43814635970284
 40
5
 41
1
 50
90
  1
18
  0
TEXT
  8
_0-2_ADD_LINE
 62
    4
 10
303.44643781500656
 20
238.63419840939815
 40
5
 41
1
 50
90
  1
φ
  0
POINT
  8
_0-2_ADD_LINE
 62
    7
 10
326.87769698229602
 20
173.29895419765364
  0
POINT
  8
_0-2_ADD_LINE
 62
    7
 10
51.755018217003339
 20
284.44276729055775
  0
LINE
  8
_0-2_ADD_LINE
  6
CONTINUOUS
 62
    7
 10
51.755018217003339
 20
284.44276729055775
 11
51.755018217003339
 21
207.65945482725937
  0
LINE
  8
_0-2_ADD_LINE
  6
CONTINUOUS
 62
    7
 10
51.755018217003339
 20
284.44276729055775
 11
128.33230240935677
 21
284.44276729055775
  0
TEXT
  8
_0-2_ADD_LINE
 62
    4
 10
85.043660313180112
 20
285.44276729055775
 40
5
 41
1
 50
0
  1
76.6
  0
POINT
  8
_0-2_ADD_LINE
 62
    7
 10
196.33730240935608
 20
284.44276729055775
  0
LINE
  8
_0-2_ADD_LINE
  6
CONTINUOUS
 62
    7
 10
128.33230240935677
 20
284.44276729055775
 11
196.33730240935608
 21
284.44276729055775
  0
TEXT
  8
_0-2_ADD_LINE
 62
    4
 10
159.83480240935648
 20
285.44276729055775
 40
5
 41
1
 50
0
  1
68
  0
POINT
  8
_0-2_ADD_LINE
 62
    7
 10
51.755018217003339
 20
294.44276729055775
  0
POINT
  8
_0-2_ADD_LINE
 62
    7
 10
196.33730240935608
 20
294.44276729055775
  0
LINE
  8
_0-2_ADD_LINE
  6
CONTINUOUS
 62
    7
 10
51.755018217003339
 20
294.44276729055775
 11
51.755018217003339
 21
211.65945482725937
  0
LINE
  8
_0-2_ADD_LINE
  6
CONTINUOUS
 62
    7
 10
196.33730240935608
 20
294.44276729055775
 11
196.33730240935608
 21
243.90445198494857
  0
LINE
  8
_0-2_ADD_LINE
  6
CONTINUOUS
 62
    7
 10
196.33730240935608
 20
284.44276729055775
 11
196.33730240935608
 21
239.90445198494857
  0
LINE
  8
_0-2_ADD_LINE
  6
CONTINUOUS
 62
    7
 10
319.51549191281413
 20
284.44276729055775
 11
319.51549191281413
 21
257.43814635970284
  0
POINT
  8
_0-2_ADD_LINE
 62
    7
 10
376.51549191281379
 20
294.44276729055775
  0
POINT
  8
_0-2_ADD_LINE
 62
    7
 10
319.51549191281413
 20
294.44276729055775
  0
LINE
  8
_0-2_ADD_LINE
  6
CONTINUOUS
 62
    7
 10
319.51549191281413
 20
294.44276729055775
 11
319.51549191281413
 21
257.43814635970284
  0
LINE
  8
_0-2_ADD_LINE
  6
CONTINUOUS
 62
    7
 10
376.51549191281379
 20
294.44276729055775
 11
319.51549191281413
 21
294.44276729055775
  0
TEXT
  8
_0-2_ADD_LINE
 62
    4
 10
345.5154919128139
 20
295.44276729055775
 40
5
 41
1
 50
0
  1
57
  0
POINT
  8
_0-2_ADD_LINE
 62
    7
 10
343.02089183034104
 20
241.55000754583767
  0
LINE
  8
_0-2_ADD_LINE
  6
CONTINUOUS
 62
    7
 10
343.02089183034104
 20
241.55000754583767
 11
332.29458931160434
 21
243.98853871778127
  0
LINE
  8
_0-2_ADD_LINE
  6
CONTINUOUS
 62
    7
 10
327.50296619069991
 20
173.29171879024017
 11
316.77666367196321
 21
175.73024996218379
  0
LINE
  8
_0-2_ADD_LINE
  6
CONTINUOUS
 62
    7
 10
327.50296619069991
 20
173.29171879024017
 11
343.02089183034104
 21
241.55000754583767
  0
TEXT
  8
_0-2_ADD_LINE
 62
    4
 10
333.732598969739
 20
205.20475179304816
 40
5
 41
1
 50
77.191999999999496
  1
70
  0
LINE
  8
_0-2_ADD_LINE
  6
CONTINUOUS
 62
    7
 10
313.45083576651859
 20
161.10359515321699
 11
315.88936693846256
 21
171.82989767195528
  0
POINT
  8
_0-2_ADD_LINE
 62
    7
 10
313.45083576651859
 20
161.10359515321699
  0
POINT
  8
_0-2_ADD_LINE
 62
    7
 10
305.64988848017617
 20
162.87707236917333
  0
LINE
  8
_0-2_ADD_LINE
  6
CONTINUOUS
 62
    7
 10
305.64988848017617
 20
162.87707236917333
 11
308.0884196521198
 21
173.60337488791015
  0
TEXT
  8
_0-2_ADD_LINE
 62
    4
 10
314.5385883686215
 20
161.49653014641643
 40
5
 41
1
 50
-12.807999999999977
  1
φ
  0
LINE
  8
_0-2_ADD_LINE
  6
CONTINUOUS
 62
    7
 10
313.45083576651859
 20
161.10359515321699
 11
305.64988848017617
 21
162.87707236917333
  0
TEXT
  8
_0-2_ADD_LINE
 62
    4
 10
318.94656639949358
 20
160.56187039645215
 40
5
 41
1
 50
-12.808000000000321
  1
8
  0
LINE
  8
_0-2_ADD_LINE
  6
CONTINUOUS
 62
    7
 10
313.45083576651859
 20
161.10359515321699
 11
322.06498192954894
 21
159.14524427680504
  0
POINT
  8
_0-2_ADD_LINE
 62
    7
 10
63.332302409356771
 20
-22.406127753357367
  0
POINT
  8
_0-2_ADD_LINE
 62
    7
 10
193.33230240935677
 20
-22.406127753357367
  0
LINE
  8
_0-2_ADD_LINE
  6
CONTINUOUS
 62
    7
 10
63.332302409356771
 20
-22.406127753357367
 11
193.33230240935677
 21
-22.406127753357367
  0
TEXT
  8
_0-2_ADD_LINE
 62
    4
 10
124.58230240935677
 20
-21.406127753357367
 40
5
 41
1
 50
0
  1
130
  0
LINE
  8
_0-2_ADD_LINE
  6
CONTINUOUS
 62
    7
 10
193.33230240935677
 20
-22.406127753357367
 11
193.33230240935677
 21
-6.4306905866352224
  0
LINE
  8
_0-2_ADD_LINE
  6
CONTINUOUS
 62
    7
 10
63.332302409356771
 20
-22.406127753357367
 11
63.332302409356771
 21
-6.4306905866352224
  0
LINE
  8
_0-2_ADD_LINE
  6
CONTINUOUS
 62
    7
 10
403.43296843472922
 20
234.69168647200587
 11
403.43296843472922
 21
207.26363039794921
  0
TEXT
  8
_0-2_ADD_LINE
 62
    7
 10
400.58468587380503
 20
198.3764444066789
 40
6
 41
1
 50
0
  1
タッピングビス
  0
TEXT
  8
_0-2_ADD_LINE
 62
    7
 10
401.33303094343842
 20
190.86519248424307
 40
6
 41
1
 50
0
  1
3.5×45
  0
CIRCLE
  8
_0-1_1_5
  6
CONTINUOUS
 62
    7
 10
128.33230240935677
 20
244.94276729055773
 40
24.5
  0
LINE
  8
_0-1_1_5
  6
CONTINUOUS
 62
    7
 10
193.33730240935654
 20
250.94276729055773
 11
138.34295524703714
 21
250.94276729055773
  0
LINE
  8
_0-1_1_5
  6
CONTINUOUS
 62
    7
 10
63.337302409356994
 20
250.94276729055773
 11
118.33164957167639
 21
250.94276729055773
  0
LINE
  8
_0-1_1_5
  6
STYLE_01
 62
    7
 10
135.88942812879429
 20
239.63193380799405
 11
135.88185429870521
 21
239.6374912535866
  0
ARC
  8
_0-1_1_5
  6
CONTINUOUS
 62
    7
 10
183.33730240935608
 20
235.90445198494857
 40
13
 50
0
 51
33.603986989749274
  0
CIRCLE
  8
_0-1_1_5
  6
CONTINUOUS
 62
    7
 10
128.33730240935677
 20
244.90445198494857
 40
9
  0
LINE
  8
_0-1_1_5
  6
CONTINUOUS
 62
    7
 10
118.0716495716764
 20
250.94276729055773
 11
119.0716495716764
 21
250.94276729055773
  0
LINE
  8
_0-1_1_5
  6
CONTINUOUS
 62
    7
 10
119.0716495716764
 20
250.94276729055773
 11
119.0716495716764
 21
238.94276729055773
  0
LINE
  8
_0-1_1_5
  6
CONTINUOUS
 62
    7
 10
119.0716495716764
 20
238.94276729055773
 11
118.0716495716764
 21
238.94276729055773
  0
LINE
  8
_0-1_1_5
  6
CONTINUOUS
 62
    7
 10
118.0716495716764
 20
238.94276729055773
 11
118.0716495716764
 21
250.94276729055773
  0
LINE
  8
_0-1_1_5
  6
CONTINUOUS
 62
    7
 10
137.59295524703714
 20
250.94276729055773
 11
138.59295524703714
 21
250.94276729055773
  0
LINE
  8
_0-1_1_5
  6
CONTINUOUS
 62
    7
 10
138.59295524703714
 20
250.94276729055773
 11
138.59295524703714
 21
238.94276729055773
  0
LINE
  8
_0-1_1_5
  6
CONTINUOUS
 62
    7
 10
138.59295524703714
 20
238.94276729055773
 11
137.59295524703714
 21
238.94276729055773
  0
LINE
  8
_0-1_1_5
  6
CONTINUOUS
 62
    7
 10
137.59295524703714
 20
238.94276729055773
 11
137.59295524703714
 21
250.94276729055773
  0
LINE
  8
_0-1_1_5
  6
CONTINUOUS
 62
    7
 10
138.59295524703714
 20
250.94276729055773
 11
138.59295524703714
 21
249.70486649272047
  0
LINE
  8
_0-1_1_5
  6
CONTINUOUS
 62
    7
 10
137.59295524703714
 20
248.94715914109818
 11
136.37823014498633
 21
248.94715914109818
  0
LINE
  8
_0-1_1_5
  6
CONTINUOUS
 62
    7
 10
137.59295524703714
 20
240.86174482879895
 11
136.37823014498633
 21
240.86174482879895
  0
LINE
  8
_0-1_1_5
  6
CONTINUOUS
 62
    7
 10
119.0716495716764
 20
248.94715914109818
 11
120.2963746737272
 21
248.94715914109818
  0
LINE
  8
_0-1_1_5
  6
CONTINUOUS
 62
    7
 10
119.0716495716764
 20
240.86174482879895
 11
120.2963746737272
 21
240.86174482879895
  0
LINE
  8
_0-1_1_5
  6
CONTINUOUS
 62
    7
 10
60.271249844901945
 20
177.02165181586034
 11
51.600989510631166
 21
185.69191215013106
  0
ARC
  8
_0-1_1_5
  6
CONTINUOUS
 62
    7
 10
183.33730240935608
 20
185.75173844289648
 40
12.999999999999984
 50
319.8326044818092
 51
0.0000000000000254
  0
LINE
  8
_0-1_1_5
  6
CONTINUOUS
 62
    7
 10
63.337302409356994
 20
185.3113091051741
 11
57.23175964073846
 21
191.41685187379258
  0
ARC
  8
_0-1_1_5
  6
CONTINUOUS
 62
    7
 10
64.998023083866201
 20
178.37459729806162
 40
15.586385616299372
 50
122.74675421428418
 51
149.61641236622179
  0
ARC
  8
_0-1_1_5
  6
CONTINUOUS
 62
    7
 10
51.976934108873706
 20
186.02123903057523
 40
0.4999999999828463
 50
148.45950142993419
 51
224.9999999999954
  0
ARC
  8
_0-1_1_5
  6
CONTINUOUS
 62
    7
 10
56.878206250137623
 20
191.06329848319174
 40
0.5000000000106956
 50
45
 51
122.74675421308
  0
ARC
  8
_0-1_1_5
  6
CONTINUOUS
 62
    7
 10
70.337302409356994
 20
186.75173844289648
 40
13.999999999999988
 50
239.47201600997468
 51
270
  0
ARC
  8
_0-1_1_5
  6
CONTINUOUS
 62
    7
 10
70.337302409356994
 20
186.75173844289648
 40
14.000000000000009
 50
224.0277102871122
 51
239.47201600997465
  0
LINE
  8
_0-1_1_5
  6
CONTINUOUS
 62
    7
 10
70.337302409356994
 20
172.75173844289648
 11
183.33730580019812
 21
172.75173844289648
  0
ARC
  8
_0-1_1_5
  6
CONTINUOUS
 62
    7
 10
183.33730240935608
 20
185.75173844289648
 40
13
 50
270
 51
292.30831646996126
  0
LINE
  8
_0-1_1_5
  6
CONTINUOUS
 62
    7
 10
118.08230240935677
 20
236.67965796917045
 11
118.08230240935677
 21
236.67965796917045
  0
LINE
  8
_0-1_1_5
  6
CONTINUOUS
 62
    7
 10
118.08230240935677
 20
236.67965796917045
 11
118.23802294098164
 21
235.50492804725366
  0
LINE
  8
_0-1_1_5
  6
CONTINUOUS
 62
    7
 10
118.23802294098164
 20
235.50492804725366
 11
118.70045304630121
 21
234.3658916995723
  0
LINE
  8
_0-1_1_5
  6
CONTINUOUS
 62
    7
 10
118.70045304630121
 20
234.3658916995723
 11
119.45554202056627
 21
233.29715796917046
  0
LINE
  8
_0-1_1_5
  6
CONTINUOUS
 62
    7
 10
119.45554202056627
 20
233.29715796917046
 11
120.48034686738724
 21
232.331199789641
  0
LINE
  8
_0-1_1_5
  6
CONTINUOUS
 62
    7
 10
120.48034686738724
 20
232.331199789641
 11
121.74372941006975
 21
231.49736731147055
  0
LINE
  8
_0-1_1_5
  6
CONTINUOUS
 62
    7
 10
121.74372941006975
 20
231.49736731147055
 11
123.20730240935677
 21
230.82099611256874
  0
LINE
  8
_0-1_1_5
  6
CONTINUOUS
 62
    7
 10
123.20730240935677
 20
230.82099611256874
 11
124.82659594026867
 21
230.32263738955379
  0
LINE
  8
_0-1_1_5
  6
CONTINUOUS
 62
    7
 10
124.82659594026867
 20
230.32263738955379
 11
126.55240858827074
 21
230.01743352004286
  0
LINE
  8
_0-1_1_5
  6
CONTINUOUS
 62
    7
 10
126.55240858827074
 20
230.01743352004286
 11
128.33230240935677
 21
229.91465796917043
  0
LINE
  8
_0-1_1_5
  6
CONTINUOUS
 62
    7
 10
128.33230240935677
 20
229.91465796917043
 11
130.11219623044281
 21
230.01743352004286
  0
LINE
  8
_0-1_1_5
  6
CONTINUOUS
 62
    7
 10
130.11219623044281
 20
230.01743352004286
 11
131.83800887844487
 21
230.32263738955379
  0
LINE
  8
_0-1_1_5
  6
CONTINUOUS
 62
    7
 10
131.83800887844487
 20
230.32263738955379
 11
133.45730240935677
 21
230.82099611256871
  0
LINE
  8
_0-1_1_5
  6
CONTINUOUS
 62
    7
 10
133.45730240935677
 20
230.82099611256871
 11
134.92087540864378
 21
231.49736731147055
  0
LINE
  8
_0-1_1_5
  6
CONTINUOUS
 62
    7
 10
134.92087540864378
 20
231.49736731147055
 11
136.18425795132629
 21
232.331199789641
  0
LINE
  8
_0-1_1_5
  6
CONTINUOUS
 62
    7
 10
136.18425795132629
 20
232.331199789641
 11
137.20906279814727
 21
233.29715796917043
  0
LINE
  8
_0-1_1_5
  6
CONTINUOUS
 62
    7
 10
137.20906279814727
 20
233.29715796917043
 11
137.96415177241232
 21
234.3658916995723
  0
LINE
  8
_0-1_1_5
  6
CONTINUOUS
 62
    7
 10
137.96415177241232
 20
234.3658916995723
 11
138.42658187773191
 21
235.50492804725366
  0
LINE
  8
_0-1_1_5
  6
CONTINUOUS
 62
    7
 10
138.42658187773191
 20
235.50492804725366
 11
138.58230240935677
 21
236.67965796917045
  0
LINE
  8
_0-1_1_5
  6
CONTINUOUS
 62
    7
 10
138.58230240935677
 20
236.67965796917045
 11
138.58230240935677
 21
236.67965796917045
  0
LINE
  8
_0-1_1_5
  6
CONTINUOUS
 62
    7
 10
118.0716495716764
 20
238.94276729055773
 11
118.0716495716764
 21
236.67965796917045
  0
LINE
  8
_0-1_1_5
  6
CONTINUOUS
 62
    7
 10
138.59295524703714
 20
238.94276729055773
 11
138.59295524703714
 21
236.67965796917045
  0
LINE
  8
_0-1_1_5
  6
CONTINUOUS
 62
    7
 10
63.332302409356771
 20
183.72472824431122
 11
63.332302409356771
 21
250.94276729055773
  0
ARC
  8
_0-1_1_5
  6
CONTINUOUS
 62
    7
 10
73.332302409356771
 20
183.72472824431122
 40
10
 50
180
 51
270
  0
LINE
  8
_0-1_1_5
  6
CONTINUOUS
 62
    7
 10
183.33230240935677
 20
173.72472824431122
 11
73.332302409356771
 21
173.72472824431122
  0
LINE
  8
_0-1_1_5
  6
CONTINUOUS
 62
    7
 10
193.33230240935677
 20
183.72472824431122
 11
193.33230240935677
 21
250.94276729055773
  0
ARC
  8
_0-1_1_5
  6
CONTINUOUS
 62
    7
 10
183.33230240935677
 20
183.72472824431122
 40
10
 50
270
 51
0
  0
ARC
  8
_0-1_1_5
  6
CONTINUOUS
 62
    7
 10
183.33730240935608
 20
185.75173844289648
 40
13
 50
292.30831646996126
 51
320.31784655066309
  0
LINE
  8
_0-1_1_5
  6
CONTINUOUS
 62
    7
 10
196.33730240935608
 20
235.90445198494857
 11
196.33730240935608
 21
185.75173844289648
  0
LINE
  8
_0-1_1_5
  6
CONTINUOUS
 62
    7
 10
57.23175964073846
 20
191.41685187379258
 11
51.600989510631166
 21
185.69191215013106
  0
LINE
  8
_0-1_1_5
  6
CENTER2
 62
    7
 10
117.33230240935688
 20
264.9427672905577
 11
139.33230240935666
 21
264.9427672905577
  0
LINE
  8
_0-1_1_5
  6
CENTER2
 62
    7
 10
139.33230240935666
 20
264.9427672905577
 11
142.33230240935688
 21
261.9427672905577
  0
LINE
  8
_0-1_1_5
  6
CENTER2
 62
    7
 10
142.33230240935688
 20
227.94276729055773
 11
142.33230240935688
 21
261.9427672905577
  0
LINE
  8
_0-1_1_5
  6
CENTER2
 62
    7
 10
142.33230240935688
 20
227.94276729055773
 11
139.33230240935666
 21
224.94276729055773
  0
LINE
  8
_0-1_1_5
  6
CENTER2
 62
    7
 10
117.33230240935688
 20
224.94276729055773
 11
139.33230240935666
 21
224.94276729055773
  0
LINE
  8
_0-1_1_5
  6
CENTER2
 62
    7
 10
117.33230240935688
 20
224.94276729055773
 11
114.33230240935666
 21
227.94276729055773
  0
LINE
  8
_0-1_1_5
  6
CENTER2
 62
    7
 10
114.33230240935666
 20
261.9427672905577
 11
114.33230240935666
 21
227.94276729055773
  0
LINE
  8
_0-1_1_5
  6
CENTER2
 62
    7
 10
114.33230240935666
 20
261.9427672905577
 11
117.33230240935688
 21
264.9427672905577
  0
LINE
  8
_0-1_1_5
  6
CENTER2
 62
    7
 10
133.33230240935677
 20
254.83687709832998
 11
123.33230240935677
 21
254.83687709832998
  0
LINE
  8
_0-1_1_5
  6
CENTER2
 62
    7
 10
128.33230240935677
 20
258.83687709832998
 11
128.33230240935677
 21
250.83687709833004
  0
LINE
  8
_0-1_1_5
  6
CENTER2
 62
    7
 10
132.33230240935677
 20
254.83687709832998
 11
132.33230240935677
 21
254.83687709832998
  0
LINE
  8
_0-1_1_5
  6
CENTER2
 62
    7
 10
132.33230240935677
 20
254.83687709832998
 11
132.27153342140559
 21
255.39255126686416
  0
LINE
  8
_0-1_1_5
  6
CENTER2
 62
    7
 10
132.27153342140559
 20
255.39255126686416
 11
132.09107289250039
 21
255.93134155697211
  0
LINE
  8
_0-1_1_5
  6
CENTER2
 62
    7
 10
132.09107289250039
 20
255.93134155697211
 11
131.79640402449454
 21
256.43687709833
  0
LINE
  8
_0-1_1_5
  6
CENTER2
 62
    7
 10
131.79640402449454
 20
256.43687709833
 11
131.39648018183269
 21
256.89379744932688
  0
LINE
  8
_0-1_1_5
  6
CENTER2
 62
    7
 10
131.39648018183269
 20
256.89379744932688
 11
130.90345284810292
 21
257.28821931631069
  0
LINE
  8
_0-1_1_5
  6
CENTER2
 62
    7
 10
130.90345284810292
 20
257.28821931631069
 11
130.33230240935677
 21
257.60815839044017
  0
LINE
  8
_0-1_1_5
  6
CENTER2
 62
    7
 10
130.33230240935677
 20
257.60815839044017
 11
129.70038298265945
 21
257.8438934848449
  0
LINE
  8
_0-1_1_5
  6
CENTER2
 62
    7
 10
129.70038298265945
 20
257.8438934848449
 11
129.02689512002451
 21
257.98826190796905
  0
LINE
  8
_0-1_1_5
  6
CENTER2
 62
    7
 10
129.02689512002451
 20
257.98826190796905
 11
128.33230240935677
 21
258.03687709832997
  0
LINE
  8
_0-1_1_5
  6
CENTER2
 62
    7
 10
128.33230240935677
 20
258.03687709832997
 11
127.63770969868905
 21
257.98826190796905
  0
LINE
  8
_0-1_1_5
  6
CENTER2
 62
    7
 10
127.63770969868905
 20
257.98826190796905
 11
126.96422183605409
 21
257.8438934848449
  0
LINE
  8
_0-1_1_5
  6
CENTER2
 62
    7
 10
126.96422183605409
 20
257.8438934848449
 11
126.33230240935677
 21
257.60815839044017
  0
LINE
  8
_0-1_1_5
  6
CENTER2
 62
    7
 10
126.33230240935677
 20
257.60815839044017
 11
125.76115197061061
 21
257.28821931631069
  0
LINE
  8
_0-1_1_5
  6
CENTER2
 62
    7
 10
125.76115197061061
 20
257.28821931631069
 11
125.26812463688086
 21
256.89379744932688
  0
LINE
  8
_0-1_1_5
  6
CENTER2
 62
    7
 10
125.26812463688086
 20
256.89379744932688
 11
124.86820079421902
 21
256.43687709833
  0
LINE
  8
_0-1_1_5
  6
CENTER2
 62
    7
 10
124.86820079421902
 20
256.43687709833
 11
124.57353192621314
 21
255.93134155697211
  0
LINE
  8
_0-1_1_5
  6
CENTER2
 62
    7
 10
124.57353192621314
 20
255.93134155697211
 11
124.39307139730793
 21
255.39255126686416
  0
LINE
  8
_0-1_1_5
  6
CENTER2
 62
    7
 10
124.39307139730793
 20
255.39255126686416
 11
124.33230240935677
 21
254.83687709832998
  0
LINE
  8
_0-1_1_5
  6
CENTER2
 62
    7
 10
124.33230240935677
 20
254.83687709832998
 11
124.39307139730793
 21
254.2812029297958
  0
LINE
  8
_0-1_1_5
  6
CENTER2
 62
    7
 10
124.39307139730793
 20
254.2812029297958
 11
124.57353192621314
 21
253.74241263968784
  0
LINE
  8
_0-1_1_5
  6
CENTER2
 62
    7
 10
124.57353192621314
 20
253.74241263968784
 11
124.86820079421901
 21
253.23687709832998
  0
LINE
  8
_0-1_1_5
  6
CENTER2
 62
    7
 10
124.86820079421901
 20
253.23687709832998
 11
125.26812463688086
 21
252.77995674733305
  0
LINE
  8
_0-1_1_5
  6
CENTER2
 62
    7
 10
125.26812463688086
 20
252.77995674733305
 11
125.76115197061061
 21
252.38553488034924
  0
LINE
  8
_0-1_1_5
  6
CENTER2
 62
    7
 10
125.76115197061061
 20
252.38553488034924
 11
126.33230240935676
 21
252.06559580621979
  0
LINE
  8
_0-1_1_5
  6
CENTER2
 62
    7
 10
126.33230240935676
 20
252.06559580621979
 11
126.96422183605409
 21
251.82986071181509
  0
LINE
  8
_0-1_1_5
  6
CENTER2
 62
    7
 10
126.96422183605409
 20
251.82986071181509
 11
127.63770969868904
 21
251.68549228869091
  0
LINE
  8
_0-1_1_5
  6
CENTER2
 62
    7
 10
127.63770969868904
 20
251.68549228869091
 11
128.33230240935677
 21
251.63687709832999
  0
LINE
  8
_0-1_1_5
  6
CENTER2
 62
    7
 10
128.33230240935677
 20
251.63687709832999
 11
129.02689512002448
 21
251.68549228869091
  0
LINE
  8
_0-1_1_5
  6
CENTER2
 62
    7
 10
129.02689512002448
 20
251.68549228869091
 11
129.70038298265942
 21
251.82986071181506
  0
LINE
  8
_0-1_1_5
  6
CENTER2
 62
    7
 10
129.70038298265942
 20
251.82986071181506
 11
130.33230240935677
 21
252.06559580621976
  0
LINE
  8
_0-1_1_5
  6
CENTER2
 62
    7
 10
130.33230240935677
 20
252.06559580621976
 11
130.90345284810292
 21
252.38553488034924
  0
LINE
  8
_0-1_1_5
  6
CENTER2
 62
    7
 10
130.90345284810292
 20
252.38553488034924
 11
131.39648018183269
 21
252.77995674733305
  0
LINE
  8
_0-1_1_5
  6
CENTER2
 62
    7
 10
131.39648018183269
 20
252.77995674733305
 11
131.79640402449451
 21
253.23687709832996
  0
LINE
  8
_0-1_1_5
  6
CENTER2
 62
    7
 10
131.79640402449451
 20
253.23687709832996
 11
132.09107289250039
 21
253.74241263968781
  0
LINE
  8
_0-1_1_5
  6
CENTER2
 62
    7
 10
132.09107289250039
 20
253.74241263968781
 11
132.27153342140559
 21
254.2812029297958
  0
LINE
  8
_0-1_1_5
  6
CENTER2
 62
    7
 10
132.27153342140559
 20
254.2812029297958
 11
132.33230240935677
 21
254.83687709832995
  0
LINE
  8
_0-1_1_5
  6
CENTER2
 62
    7
 10
132.33230240935677
 20
254.83687709832995
 11
132.33230240935677
 21
254.83687709832998
  0
LINE
  8
_0-1_1_5
  6
CENTER2
 62
    7
 10
132.33230240935677
 20
235.04865748278542
 11
132.33230240935677
 21
235.04865748278542
  0
LINE
  8
_0-1_1_5
  6
CENTER2
 62
    7
 10
132.33230240935677
 20
235.04865748278542
 11
132.27153342140559
 21
235.6043316513196
  0
LINE
  8
_0-1_1_5
  6
CENTER2
 62
    7
 10
132.27153342140559
 20
235.6043316513196
 11
132.09107289250039
 21
236.14312194142755
  0
LINE
  8
_0-1_1_5
  6
CENTER2
 62
    7
 10
132.09107289250039
 20
236.14312194142755
 11
131.79640402449454
 21
236.64865748278541
  0
LINE
  8
_0-1_1_5
  6
CENTER2
 62
    7
 10
131.79640402449454
 20
236.64865748278541
 11
131.39648018183269
 21
237.10557783378235
  0
LINE
  8
_0-1_1_5
  6
CENTER2
 62
    7
 10
131.39648018183269
 20
237.10557783378235
 11
130.90345284810292
 21
237.49999970076615
  0
LINE
  8
_0-1_1_5
  6
CENTER2
 62
    7
 10
130.90345284810292
 20
237.49999970076615
 11
130.33230240935677
 21
237.81993877489563
  0
LINE
  8
_0-1_1_5
  6
CENTER2
 62
    7
 10
130.33230240935677
 20
237.81993877489563
 11
129.70038298265945
 21
238.05567386930034
  0
LINE
  8
_0-1_1_5
  6
CENTER2
 62
    7
 10
129.70038298265945
 20
238.05567386930034
 11
129.02689512002451
 21
238.20004229242448
  0
LINE
  8
_0-1_1_5
  6
CENTER2
 62
    7
 10
129.02689512002451
 20
238.20004229242448
 11
128.33230240935677
 21
238.2486574827854
  0
LINE
  8
_0-1_1_5
  6
CENTER2
 62
    7
 10
128.33230240935677
 20
238.2486574827854
 11
127.63770969868905
 21
238.20004229242448
  0
LINE
  8
_0-1_1_5
  6
CENTER2
 62
    7
 10
127.63770969868905
 20
238.20004229242448
 11
126.96422183605409
 21
238.05567386930034
  0
LINE
  8
_0-1_1_5
  6
CENTER2
 62
    7
 10
126.96422183605409
 20
238.05567386930034
 11
126.33230240935677
 21
237.81993877489563
  0
LINE
  8
_0-1_1_5
  6
CENTER2
 62
    7
 10
126.33230240935677
 20
237.81993877489563
 11
125.76115197061061
 21
237.49999970076615
  0
LINE
  8
_0-1_1_5
  6
CENTER2
 62
    7
 10
125.76115197061061
 20
237.49999970076615
 11
125.26812463688086
 21
237.10557783378235
  0
LINE
  8
_0-1_1_5
  6
CENTER2
 62
    7
 10
125.26812463688086
 20
237.10557783378235
 11
124.86820079421902
 21
236.64865748278541
  0
LINE
  8
_0-1_1_5
  6
CENTER2
 62
    7
 10
124.86820079421902
 20
236.64865748278541
 11
124.57353192621314
 21
236.14312194142755
  0
LINE
  8
_0-1_1_5
  6
CENTER2
 62
    7
 10
124.57353192621314
 20
236.14312194142755
 11
124.39307139730793
 21
235.6043316513196
  0
LINE
  8
_0-1_1_5
  6
CENTER2
 62
    7
 10
124.39307139730793
 20
235.6043316513196
 11
124.33230240935677
 21
235.04865748278542
  0
LINE
  8
_0-1_1_5
  6
CENTER2
 62
    7
 10
124.33230240935677
 20
235.04865748278542
 11
124.39307139730793
 21
234.49298331425123
  0
LINE
  8
_0-1_1_5
  6
CENTER2
 62
    7
 10
124.39307139730793
 20
234.49298331425123
 11
124.57353192621314
 21
233.95419302414328
  0
LINE
  8
_0-1_1_5
  6
CENTER2
 62
    7
 10
124.57353192621314
 20
233.95419302414328
 11
124.86820079421901
 21
233.44865748278542
  0
LINE
  8
_0-1_1_5
  6
CENTER2
 62
    7
 10
124.86820079421901
 20
233.44865748278542
 11
125.26812463688086
 21
232.99173713178848
  0
LINE
  8
_0-1_1_5
  6
CENTER2
 62
    7
 10
125.26812463688086
 20
232.99173713178848
 11
125.76115197061061
 21
232.59731526480468
  0
LINE
  8
_0-1_1_5
  6
CENTER2
 62
    7
 10
125.76115197061061
 20
232.59731526480468
 11
126.33230240935676
 21
232.27737619067523
  0
LINE
  8
_0-1_1_5
  6
CENTER2
 62
    7
 10
126.33230240935676
 20
232.27737619067523
 11
126.96422183605409
 21
232.04164109627052
  0
LINE
  8
_0-1_1_5
  6
CENTER2
 62
    7
 10
126.96422183605409
 20
232.04164109627052
 11
127.63770969868904
 21
231.89727267314635
  0
LINE
  8
_0-1_1_5
  6
CENTER2
 62
    7
 10
127.63770969868904
 20
231.89727267314635
 11
128.33230240935677
 21
231.84865748278543
  0
LINE
  8
_0-1_1_5
  6
CENTER2
 62
    7
 10
128.33230240935677
 20
231.84865748278543
 11
129.02689512002448
 21
231.89727267314635
  0
LINE
  8
_0-1_1_5
  6
CENTER2
 62
    7
 10
129.02689512002448
 20
231.89727267314635
 11
129.70038298265942
 21
232.0416410962705
  0
LINE
  8
_0-1_1_5
  6
CENTER2
 62
    7
 10
129.70038298265942
 20
232.0416410962705
 11
130.33230240935677
 21
232.2773761906752
  0
LINE
  8
_0-1_1_5
  6
CENTER2
 62
    7
 10
130.33230240935677
 20
232.2773761906752
 11
130.90345284810292
 21
232.59731526480468
  0
LINE
  8
_0-1_1_5
  6
CENTER2
 62
    7
 10
130.90345284810292
 20
232.59731526480468
 11
131.39648018183269
 21
232.99173713178848
  0
LINE
  8
_0-1_1_5
  6
CENTER2
 62
    7
 10
131.39648018183269
 20
232.99173713178848
 11
131.79640402449451
 21
233.44865748278539
  0
LINE
  8
_0-1_1_5
  6
CENTER2
 62
    7
 10
131.79640402449451
 20
233.44865748278539
 11
132.09107289250039
 21
233.95419302414325
  0
LINE
  8
_0-1_1_5
  6
CENTER2
 62
    7
 10
132.09107289250039
 20
233.95419302414325
 11
132.27153342140559
 21
234.49298331425123
  0
LINE
  8
_0-1_1_5
  6
CENTER2
 62
    7
 10
132.27153342140559
 20
234.49298331425123
 11
132.33230240935677
 21
235.04865748278539
  0
LINE
  8
_0-1_1_5
  6
CENTER2
 62
    7
 10
132.33230240935677
 20
235.04865748278539
 11
132.33230240935677
 21
235.04865748278542
  0
LINE
  8
_0-1_1_5
  6
CENTER2
 62
    7
 10
133.33230240935677
 20
235.04865748278542
 11
123.33230240935677
 21
235.04865748278542
  0
LINE
  8
_0-1_1_5
  6
CENTER2
 62
    7
 10
128.33230240935677
 20
231.04865748278542
 11
128.33230240935677
 21
239.04865748278542
  0
LINE
  8
_0-1_1_5
  6
CONTINUOUS
 62
    7
 10
128.33730240935677
 20
158.46752637706314
 11
130.08720440365266
 21
152.84259561814397
  0
LINE
  8
_0-1_1_5
  6
CONTINUOUS
 62
    7
 10
130.08720440365266
 20
114.26857723653407
 11
130.08720440365266
 21
152.84259561814397
  0
LINE
  8
_0-1_1_5
  6
CONTINUOUS
 62
    7
 10
126.58740041506076
 20
114.30539951346097
 11
126.58740041506076
 21
152.8420416894962
  0
LINE
  8
_0-1_1_5
  6
CONTINUOUS
 62
    7
 10
129.97039415060874
 20
124.7179418235493
 11
126.47059016201695
 21
126.12417451327875
  0
LINE
  8
_0-1_1_5
  6
CONTINUOUS
 62
    7
 10
129.97039415060874
 20
126.12417451327875
 11
126.47059016201695
 21
127.53040720300893
  0
LINE
  8
_0-1_1_5
  6
CONTINUOUS
 62
    7
 10
129.97039415060874
 20
127.53040720300893
 11
126.47059016201695
 21
128.93663989273838
  0
LINE
  8
_0-1_1_5
  6
CONTINUOUS
 62
    7
 10
129.97039415060874
 20
128.93663989273838
 11
126.47059016201695
 21
130.34287258246823
  0
LINE
  8
_0-1_1_5
  6
CONTINUOUS
 62
    7
 10
129.97039415060874
 20
130.34287258246823
 11
126.47059016201695
 21
131.74910527219768
  0
LINE
  8
_0-1_1_5
  6
CONTINUOUS
 62
    7
 10
129.97039415060874
 20
131.74910527219768
 11
126.47059016201695
 21
133.15533796192787
  0
LINE
  8
_0-1_1_5
  6
CONTINUOUS
 62
    7
 10
129.97039415060874
 20
137.37403603111707
 11
126.47059016201695
 21
138.78026872084681
  0
LINE
  8
_0-1_1_5
  6
CONTINUOUS
 62
    7
 10
129.97039415060874
 20
135.96780334138717
 11
126.47059016201695
 21
137.37403603111707
  0
LINE
  8
_0-1_1_5
  6
CONTINUOUS
 62
    7
 10
129.97039415060874
 20
138.78026872084681
 11
126.47059016201695
 21
140.18650141057643
  0
LINE
  8
_0-1_1_5
  6
CONTINUOUS
 62
    7
 10
129.97039415060874
 20
140.18650141057643
 11
126.47059016201695
 21
141.5927341003061
  0
LINE
  8
_0-1_1_5
  6
CONTINUOUS
 62
    7
 10
129.97039415060874
 20
141.5927341003061
 11
126.47059016201695
 21
142.99896679003578
  0
LINE
  8
_0-1_1_5
  6
CONTINUOUS
 62
    7
 10
129.97039415060874
 20
142.99896679003578
 11
126.47059016201695
 21
144.40519947976574
  0
LINE
  8
_0-1_1_5
  6
CONTINUOUS
 62
    7
 10
129.97039415060874
 20
144.40519947976574
 11
126.47059016201695
 21
145.81143216949542
  0
LINE
  8
_0-1_1_5
  6
CONTINUOUS
 62
    7
 10
129.97039415060874
 20
145.81143216949542
 11
126.47059016201695
 21
147.21766485922504
  0
LINE
  8
_0-1_1_5
  6
CONTINUOUS
 62
    7
 10
129.97039415060874
 20
133.15533796192787
 11
126.47059016201695
 21
134.56157065165732
  0
LINE
  8
_0-1_1_5
  6
CONTINUOUS
 62
    7
 10
129.97039415060874
 20
147.21766485922504
 11
126.47059016201695
 21
148.62389754895506
  0
LINE
  8
_0-1_1_5
  6
CONTINUOUS
 62
    7
 10
129.97039415060874
 20
150.03013023868468
 11
126.47059016201695
 21
151.43636292841452
  0
LINE
  8
_0-1_1_5
  6
CONTINUOUS
 62
    7
 10
129.97039415060874
 20
151.43636292841452
 11
126.47059016201695
 21
152.84259561814397
  0
LINE
  8
_0-1_1_5
  6
CONTINUOUS
 62
    7
 10
129.97039415060874
 20
148.62389754895506
 11
126.47059016201695
 21
150.03013023868468
  0
LINE
  8
_0-1_1_5
  6
CONTINUOUS
 62
    7
 10
129.97039415060874
 20
134.56157065165732
 11
126.47059016201695
 21
135.96780334138717
  0
LINE
  8
_0-1_1_5
  6
CONTINUOUS
 62
    7
 10
129.97039415060874
 20
123.31794182354921
 11
126.47059016201695
 21
124.72417451327888
  0
LINE
  8
_0-1_1_5
  6
CONTINUOUS
 62
    7
 10
129.97039415060874
 20
121.91794182354934
 11
126.47059016201695
 21
123.32417451327902
  0
LINE
  8
_0-1_1_5
  6
CONTINUOUS
 62
    7
 10
129.97039415060874
 20
120.51794182354931
 11
126.47059016201695
 21
121.92417451327893
  0
LINE
  8
_0-1_1_5
  6
CONTINUOUS
 62
    7
 10
152.83730240935677
 20
111.01847923083022
 11
152.83730240935677
 21
119.0184792308302
  0
LINE
  8
_0-1_1_5
  6
CONTINUOUS
 62
    7
 10
152.83730240935677
 20
119.0184792308302
 11
103.83730240935677
 21
119.0184792308302
  0
LINE
  8
_0-1_1_5
  6
CONTINUOUS
 62
    7
 10
103.83730240935677
 20
119.0184792308302
 11
103.83730240935677
 21
111.01847923083022
  0
LINE
  8
_0-1_1_5
  6
CONTINUOUS
 62
    7
 10
151.33730240935677
 20
109.51847923083022
 11
105.33730240935677
 21
109.51847923083022
  0
LINE
  8
_0-1_1_5
  6
CONTINUOUS
 62
    7
 10
137.33730240935677
 20
109.51847923083022
 11
137.33730240935677
 21
62.518479230830366
  0
ARC
  8
_0-1_1_5
  6
CONTINUOUS
 62
    7
 10
136.83730240935677
 20
62.518479230830366
 40
0.5
 50
270
 51
0
  0
LINE
  8
_0-1_1_5
  6
CONTINUOUS
 62
    7
 10
136.83730240935677
 20
62.018479230830366
 11
119.83730240935677
 21
62.018479230830366
  0
ARC
  8
_0-1_1_5
  6
CONTINUOUS
 62
    7
 10
119.83730240935677
 20
62.518479230830366
 40
0.5
 50
180
 51
270
  0
LINE
  8
_0-1_1_5
  6
CONTINUOUS
 62
    7
 10
119.33730240935677
 20
62.518479230830366
 11
119.33730240935677
 21
109.51847923083022
  0
LINE
  8
_0-1_1_5
  6
CONTINUOUS
 62
    7
 10
119.33730240935677
 20
109.51847923083022
 11
137.33730240935677
 21
109.51847923083022
  0
LINE
  8
_0-1_1_5
  6
CONTINUOUS
 62
    7
 10
138.58165502841382
 20
76.518479230830224
 11
171.33725224853663
 21
76.518479230830224
  0
LINE
  8
_0-1_1_5
  6
CONTINUOUS
 62
    7
 10
137.38165502841377
 20
66.518479230830394
 11
137.33730240935677
 21
66.518479230830394
  0
ARC
  8
_0-1_1_5
  6
CONTINUOUS
 62
    7
 10
151.33730240935677
 20
111.01847923083022
 40
1.5
 50
270
 51
0
  0
ARC
  8
_0-1_1_5
  6
CONTINUOUS
 62
    7
 10
105.33730240935677
 20
111.01847923083022
 40
1.5
 50
180
 51
270
  0
LINE
  8
_0-1_1_5
  6
CONTINUOUS
 62
    7
 10
118.08165502841382
 20
76.518479230830394
 11
119.08730240935677
 21
76.518479230830394
  0
LINE
  8
_0-1_1_5
  6
CONTINUOUS
 62
    7
 10
119.08730240935677
 20
76.518479230830394
 11
119.08730240935677
 21
64.518479230830394
  0
LINE
  8
_0-1_1_5
  6
CONTINUOUS
 62
    7
 10
119.08730240935677
 20
64.518479230830394
 11
118.08165502841382
 21
64.518479230830394
  0
LINE
  8
_0-1_1_5
  6
CONTINUOUS
 62
    7
 10
118.08165502841382
 20
64.518479230830394
 11
118.08165502841382
 21
76.518479230830394
  0
LINE
  8
_0-1_1_5
  6
CONTINUOUS
 62
    7
 10
137.58730240935677
 20
76.518479230830394
 11
138.59294979029971
 21
76.518479230830394
  0
LINE
  8
_0-1_1_5
  6
CONTINUOUS
 62
    7
 10
138.59294979029971
 20
76.518479230830394
 11
138.59294979029971
 21
64.518479230830394
  0
LINE
  8
_0-1_1_5
  6
CONTINUOUS
 62
    7
 10
138.59294979029971
 20
64.518479230830394
 11
137.58730240935677
 21
64.518479230830394
  0
LINE
  8
_0-1_1_5
  6
CONTINUOUS
 62
    7
 10
137.58730240935677
 20
64.518479230830394
 11
137.58730240935677
 21
76.518479230830394
  0
LINE
  8
_0-1_1_5
  6
CONTINUOUS
 62
    7
 10
119.08730240935677
 20
74.518479230830394
 11
119.33730240935677
 21
74.518479230830394
  0
LINE
  8
_0-1_1_5
  6
CONTINUOUS
 62
    7
 10
119.33730240935677
 20
66.518479230830394
 11
119.08730240935677
 21
66.518479230830394
  0
LINE
  8
_0-1_1_5
  6
CONTINUOUS
 62
    7
 10
118.08730240935677
 20
51.439160471815882
 11
118.08730240935677
 21
51.439160471815882
  0
LINE
  8
_0-1_1_5
  6
CONTINUOUS
 62
    7
 10
118.08730240935677
 20
51.439160471815882
 11
118.24302294098163
 21
50.086441167790497
  0
LINE
  8
_0-1_1_5
  6
CONTINUOUS
 62
    7
 10
118.24302294098163
 20
50.086441167790497
 11
118.7054530463012
 21
48.77482355530892
  0
LINE
  8
_0-1_1_5
  6
CONTINUOUS
 62
    7
 10
118.7054530463012
 20
48.77482355530892
 11
119.46054202056627
 21
47.544160471815886
  0
LINE
  8
_0-1_1_5
  6
CONTINUOUS
 62
    7
 10
119.46054202056627
 20
47.544160471815886
 11
120.48534686738724
 21
46.431844992357739
  0
LINE
  8
_0-1_1_5
  6
CONTINUOUS
 62
    7
 10
120.48534686738724
 20
46.431844992357739
 11
121.74872941006974
 21
45.471674259919041
  0
LINE
  8
_0-1_1_5
  6
CONTINUOUS
 62
    7
 10
121.74872941006974
 20
45.471674259919041
 11
123.21230240935677
 21
44.692822576335104
  0
LINE
  8
_0-1_1_5
  6
CONTINUOUS
 62
    7
 10
123.21230240935677
 20
44.692822576335104
 11
124.83159594026867
 21
44.118954955893656
  0
LINE
  8
_0-1_1_5
  6
CONTINUOUS
 62
    7
 10
124.83159594026867
 20
44.118954955893656
 11
126.55740858827073
 21
43.767508075850785
  0
LINE
  8
_0-1_1_5
  6
CONTINUOUS
 62
    7
 10
126.55740858827073
 20
43.767508075850785
 11
128.33730240935677
 21
43.649160471815883
  0
LINE
  8
_0-1_1_5
  6
CONTINUOUS
 62
    7
 10
128.33730240935677
 20
43.649160471815883
 11
130.1171962304428
 21
43.767508075850778
  0
LINE
  8
_0-1_1_5
  6
CONTINUOUS
 62
    7
 10
130.1171962304428
 20
43.767508075850778
 11
131.84300887844486
 21
44.118954955893656
  0
LINE
  8
_0-1_1_5
  6
CONTINUOUS
 62
    7
 10
131.84300887844486
 20
44.118954955893656
 11
133.46230240935677
 21
44.692822576335104
  0
LINE
  8
_0-1_1_5
  6
CONTINUOUS
 62
    7
 10
133.46230240935677
 20
44.692822576335104
 11
134.92587540864378
 21
45.471674259919041
  0
LINE
  8
_0-1_1_5
  6
CONTINUOUS
 62
    7
 10
134.92587540864378
 20
45.471674259919041
 11
136.18925795132628
 21
46.431844992357732
  0
LINE
  8
_0-1_1_5
  6
CONTINUOUS
 62
    7
 10
136.18925795132628
 20
46.431844992357732
 11
137.21406279814727
 21
47.544160471815871
  0
LINE
  8
_0-1_1_5
  6
CONTINUOUS
 62
    7
 10
137.21406279814727
 20
47.544160471815871
 11
137.96915177241232
 21
48.774823555308913
  0
LINE
  8
_0-1_1_5
  6
CONTINUOUS
 62
    7
 10
137.96915177241232
 20
48.774823555308913
 11
138.4315818777319
 21
50.086441167790483
  0
LINE
  8
_0-1_1_5
  6
CONTINUOUS
 62
    7
 10
138.4315818777319
 20
50.086441167790483
 11
138.58730240935677
 21
51.439160471815867
  0
LINE
  8
_0-1_1_5
  6
CONTINUOUS
 62
    7
 10
138.58730240935677
 20
51.439160471815867
 11
138.58730240935677
 21
51.439160471815882
  0
LINE
  8
_0-1_1_5
  6
CONTINUOUS
 62
    7
 10
118.08165502841382
 20
51.439160471815882
 11
118.08165502841382
 21
76.518479230830224
  0
LINE
  8
_0-1_1_5
  6
CONTINUOUS
 62
    7
 10
138.58165502841382
 20
76.518479230830224
 11
138.58165502841382
 21
51.439160471815882
  0
LINE
  8
_0-1_1_5
  6
CONTINUOUS
 62
    7
 10
118.34294979029971
 20
76.518479230830224
 11
63.330357747971107
 21
76.518479230830224
  0
ARC
  8
_0-1_1_5
  6
CONTINUOUS
 62
    7
 10
172.33725224853663
 20
76.110309666035192
 40
1
 50
180
 51
270
  0
LINE
  8
_0-1_1_5
  6
CONTINUOUS
 62
    7
 10
193.33730240574062
 20
75.110309666035192
 11
172.33725224853663
 21
75.110309666035192
  0
LINE
  8
_0-1_1_5
  6
CONTINUOUS
 62
    7
 10
171.33725224853663
 20
76.518479230830224
 11
171.33725224853663
 21
76.110309666035192
  0
LINE
  8
_0-1_1_5
  6
CONTINUOUS
 62
    7
 10
63.362747794861029
 20
1.0872245719205031
 11
63.362747794861029
 21
1.0872245719205031
  0
LINE
  8
_0-1_1_5
  6
CONTINUOUS
 62
    7
 10
63.362747794861029
 20
1.0872245719205031
 11
63.653827582824931
 21
0.3138367676425022
  0
LINE
  8
_0-1_1_5
  6
CONTINUOUS
 62
    7
 10
63.653827582824931
 20
0.3138367676425022
 11
64.238923843296277
 21
-0.4250560744645397
  0
LINE
  8
_0-1_1_5
  6
CONTINUOUS
 62
    7
 10
64.238923843296277
 20
-0.4250560744645397
 11
65.100258722473626
 21
-1.1070030692910153
  0
LINE
  8
_0-1_1_5
  6
CONTINUOUS
 62
    7
 10
65.100258722473626
 20
-1.1070030692910153
 11
66.211660995909668
 21
-1.7112836024809557
  0
LINE
  8
_0-1_1_5
  6
CONTINUOUS
 62
    7
 10
66.211660995909668
 20
-1.7112836024809557
 11
67.539361267922715
 21
-2.2195369158140847
  0
LINE
  8
_0-1_1_5
  6
CONTINUOUS
 62
    7
 10
67.539361267922715
 20
-2.2195369158140847
 11
69.043018037596426
 21
-2.6163199895533644
  0
LINE
  8
_0-1_1_5
  6
CONTINUOUS
 62
    7
 10
69.043018037596426
 20
-2.6163199895533644
 11
70.676943454871306
 21
-2.8895767707851494
  0
LINE
  8
_0-1_1_5
  6
CONTINUOUS
 62
    7
 10
70.676943454871306
 20
-2.8895767707851494
 11
72.391491522749604
 21
-3.0310044904863132
  0
LINE
  8
_0-1_1_5
  6
CONTINUOUS
 62
    7
 10
72.391491522749604
 20
-3.0310044904863132
 11
73.330357747971107
 21
-3.0508814600600829
  0
LINE
  8
_0-1_1_5
  6
CONTINUOUS
 62
    7
 10
183.33730210704459
 20
-3.0508814600600829
 11
183.33730210704459
 21
-3.0508814600600829
  0
LINE
  8
_0-1_1_5
  6
CONTINUOUS
 62
    7
 10
183.33730210704459
 20
-3.0508814600600829
 11
185.0737838837139
 21
-2.982516348615019
  0
LINE
  8
_0-1_1_5
  6
CONTINUOUS
 62
    7
 10
185.0737838837139
 20
-2.982516348615019
 11
186.75750354030129
 21
-2.7794982535966701
  0
LINE
  8
_0-1_1_5
  6
CONTINUOUS
 62
    7
 10
186.75750354030129
 20
-2.7794982535966701
 11
188.33730210704459
 21
-2.4479957770900569
  0
LINE
  8
_0-1_1_5
  6
CONTINUOUS
 62
    7
 10
188.33730210704459
 20
-2.4479957770900569
 11
189.76517820390998
 21
-1.9980814540954839
  0
LINE
  8
_0-1_1_5
  6
CONTINUOUS
 62
    7
 10
189.76517820390998
 20
-1.9980814540954839
 11
190.99774653823437
 21
-1.4434257036495097
  0
LINE
  8
_0-1_1_5
  6
CONTINUOUS
 62
    7
 10
190.99774653823437
 20
-1.4434257036495097
 11
191.99755614488899
 21
-0.8008814600600828
  0
LINE
  8
_0-1_1_5
  6
CONTINUOUS
 62
    7
 10
191.99755614488899
 20
-0.8008814600600828
 11
192.73422831490367
 21
-0.0899721050255923
  0
LINE
  8
_0-1_1_5
  6
CONTINUOUS
 62
    7
 10
192.73422831490367
 20
-0.0899721050255923
 11
193.18537963716668
 21
0.6677017404387305
  0
LINE
  8
_0-1_1_5
  6
CONTINUOUS
 62
    7
 10
193.18537963716668
 20
0.6677017404387305
 11
193.33730210704459
 21
1.4491185321806199
  0
LINE
  8
_0-1_1_5
  6
CONTINUOUS
 62
    7
 10
193.33730240653927
 20
75.110309666035192
 11
193.33730212428748
 21
1.4491185321806199
  0
LINE
  8
_0-1_1_5
  6
CONTINUOUS
 62
    7
 10
183.33730210704459
 20
-3.0508814600600829
 11
73.330357747971107
 21
-3.0508814600600829
  0
LINE
  8
_0-1_1_5
  6
CONTINUOUS
 62
    7
 10
63.330357747971107
 20
1.4491185399399171
 11
63.330357747971107
 21
76.518479230830224
  0
LINE
  8
_0-1_1_5
  6
CONTINUOUS
 62
    7
 10
54.397575336768796
 20
63.907822189540298
 11
54.397575336768796
 21
63.907822189540298
  0
LINE
  8
_0-1_1_5
  6
CONTINUOUS
 62
    7
 10
54.397575336768796
 20
63.907822189540298
 11
53.890522657981357
 21
63.847053201589127
  0
LINE
  8
_0-1_1_5
  6
CONTINUOUS
 62
    7
 10
53.890522657981357
 20
63.847053201589127
 11
53.398876518257843
 21
63.666592672683933
  0
LINE
  8
_0-1_1_5
  6
CONTINUOUS
 62
    7
 10
53.398876518257843
 20
63.666592672683933
 11
52.937575336768795
 21
63.371923804678055
  0
LINE
  8
_0-1_1_5
  6
CONTINUOUS
 62
    7
 10
52.937575336768795
 20
63.371923804678055
 11
52.520635516484099
 21
62.971999962016213
  0
LINE
  8
_0-1_1_5
  6
CONTINUOUS
 62
    7
 10
52.520635516484099
 20
62.971999962016213
 11
52.16072556286138
 21
62.478972628286456
  0
LINE
  8
_0-1_1_5
  6
CONTINUOUS
 62
    7
 10
52.16072556286138
 20
62.478972628286456
 11
51.868781157718232
 21
61.907822189540298
  0
LINE
  8
_0-1_1_5
  6
CONTINUOUS
 62
    7
 10
51.868781157718232
 20
61.907822189540298
 11
51.653672884073941
 21
61.275902762842975
  0
LINE
  8
_0-1_1_5
  6
CONTINUOUS
 62
    7
 10
51.653672884073941
 20
61.275902762842975
 11
51.521936697973146
 21
60.602414900208018
  0
LINE
  8
_0-1_1_5
  6
CONTINUOUS
 62
    7
 10
51.521936697973146
 20
60.602414900208018
 11
51.477575336768794
 21
59.907822189540298
  0
LINE
  8
_0-1_1_5
  6
CONTINUOUS
 62
    7
 10
51.477575336768794
 20
59.907822189540298
 11
51.521936697973146
 21
59.213229478872577
  0
LINE
  8
_0-1_1_5
  6
CONTINUOUS
 62
    7
 10
51.521936697973146
 20
59.213229478872577
 11
51.653672884073941
 21
58.53974161623762
  0
LINE
  8
_0-1_1_5
  6
CONTINUOUS
 62
    7
 10
51.653672884073941
 20
58.53974161623762
 11
51.868781157718232
 21
57.907822189540298
  0
LINE
  8
_0-1_1_5
  6
CONTINUOUS
 62
    7
 10
51.868781157718232
 20
57.907822189540298
 11
52.16072556286138
 21
57.336671750794139
  0
LINE
  8
_0-1_1_5
  6
CONTINUOUS
 62
    7
 10
52.16072556286138
 20
57.336671750794139
 11
52.520635516484099
 21
56.84364441706439
  0
LINE
  8
_0-1_1_5
  6
CONTINUOUS
 62
    7
 10
52.520635516484099
 20
56.84364441706439
 11
52.937575336768795
 21
56.443720574402548
  0
LINE
  8
_0-1_1_5
  6
CONTINUOUS
 62
    7
 10
52.937575336768795
 20
56.443720574402548
 11
53.398876518257843
 21
56.149051706396662
  0
LINE
  8
_0-1_1_5
  6
CONTINUOUS
 62
    7
 10
53.398876518257843
 20
56.149051706396662
 11
53.890522657981357
 21
55.968591177491469
  0
LINE
  8
_0-1_1_5
  6
CONTINUOUS
 62
    7
 10
53.890522657981357
 20
55.968591177491469
 11
54.397575336768789
 21
55.907822189540298
  0
LINE
  8
_0-1_1_5
  6
CONTINUOUS
 62
    7
 10
54.397575336768789
 20
55.907822189540298
 11
54.904628015556227
 21
55.968591177491462
  0
LINE
  8
_0-1_1_5
  6
CONTINUOUS
 62
    7
 10
54.904628015556227
 20
55.968591177491462
 11
55.396274155279741
 21
56.149051706396662
  0
LINE
  8
_0-1_1_5
  6
CONTINUOUS
 62
    7
 10
55.396274155279741
 20
56.149051706396662
 11
55.857575336768789
 21
56.443720574402541
  0
LINE
  8
_0-1_1_5
  6
CONTINUOUS
 62
    7
 10
55.857575336768789
 20
56.443720574402541
 11
56.274515157053486
 21
56.843644417064382
  0
LINE
  8
_0-1_1_5
  6
CONTINUOUS
 62
    7
 10
56.274515157053486
 20
56.843644417064382
 11
56.634425110676204
 21
57.336671750794132
  0
LINE
  8
_0-1_1_5
  6
CONTINUOUS
 62
    7
 10
56.634425110676204
 20
57.336671750794132
 11
56.926369515819353
 21
57.90782218954029
  0
LINE
  8
_0-1_1_5
  6
CONTINUOUS
 62
    7
 10
56.926369515819353
 20
57.90782218954029
 11
57.141477789463643
 21
58.539741616237613
  0
LINE
  8
_0-1_1_5
  6
CONTINUOUS
 62
    7
 10
57.141477789463643
 20
58.539741616237613
 11
57.273213975564445
 21
59.213229478872563
  0
LINE
  8
_0-1_1_5
  6
CONTINUOUS
 62
    7
 10
57.273213975564445
 20
59.213229478872563
 11
57.317575336768797
 21
59.907822189540283
  0
LINE
  8
_0-1_1_5
  6
CONTINUOUS
 62
    7
 10
57.317575336768797
 20
59.907822189540283
 11
57.273213975564445
 21
60.602414900208004
  0
LINE
  8
_0-1_1_5
  6
CONTINUOUS
 62
    7
 10
57.273213975564445
 20
60.602414900208004
 11
57.14147778946365
 21
61.275902762842961
  0
LINE
  8
_0-1_1_5
  6
CONTINUOUS
 62
    7
 10
57.14147778946365
 20
61.275902762842961
 11
56.92636951581936
 21
61.907822189540283
  0
LINE
  8
_0-1_1_5
  6
CONTINUOUS
 62
    7
 10
56.92636951581936
 20
61.907822189540283
 11
56.634425110676219
 21
62.478972628286442
  0
LINE
  8
_0-1_1_5
  6
CONTINUOUS
 62
    7
 10
56.634425110676219
 20
62.478972628286442
 11
56.2745151570535
 21
62.971999962016199
  0
LINE
  8
_0-1_1_5
  6
CONTINUOUS
 62
    7
 10
56.2745151570535
 20
62.971999962016199
 11
55.857575336768804
 21
63.371923804678048
  0
LINE
  8
_0-1_1_5
  6
CONTINUOUS
 62
    7
 10
55.857575336768804
 20
63.371923804678048
 11
55.396274155279762
 21
63.666592672683926
  0
LINE
  8
_0-1_1_5
  6
CONTINUOUS
 62
    7
 10
55.396274155279762
 20
63.666592672683926
 11
54.904628015556248
 21
63.847053201589127
  0
LINE
  8
_0-1_1_5
  6
CONTINUOUS
 62
    7
 10
54.904628015556248
 20
63.847053201589127
 11
54.39757533676881
 21
63.907822189540298
  0
LINE
  8
_0-1_1_5
  6
CONTINUOUS
 62
    7
 10
54.39757533676881
 20
63.907822189540298
 11
54.397575336768796
 21
63.907822189540298
  0
LINE
  8
_0-1_1_5
  6
CONTINUOUS
 62
    7
 10
53.870576995399574
 20
55.978233352484125
 11
63.330357747971107
 21
52.932056799358094
  0
LINE
  8
_0-1_1_5
  6
CONTINUOUS
 62
    7
 10
55.073383670674275
 20
63.801073668658915
 11
63.330357747971107
 21
61.142217032135505
  0
LINE
  8
_0-1_1_5
  6
CONTINUOUS
 62
    7
 10
196.33216628321873
 20
68.498458380922045
 11
196.32967104359329
 21
56.73154803449566
  0
LINE
  8
_0-1_1_5
  6
CENTER2
 62
    7
 10
129.97039415060874
 20
119.11794182354944
 11
126.47059016201695
 21
120.52417451327906
  0
LINE
  8
_0-1_1_5
  6
CENTER2
 62
    7
 10
129.97039415060874
 20
116.31794182354943
 11
126.47059016201695
 21
117.72417451327917
  0
LINE
  8
_0-1_1_5
  6
CENTER2
 62
    7
 10
129.97039415060874
 20
114.91794182354946
 11
126.47059016201695
 21
116.3241745132793
  0
LINE
  8
_0-1_1_5
  6
CENTER2
 62
    7
 10
128.10222764336606
 20
114.2685772365343
 11
126.47059016201695
 21
114.92417451327904
  0
LINE
  8
_0-1_1_5
  6
CENTER2
 62
    7
 10
124.83730240935665
 20
112.51847923083025
 11
126.58740041506076
 21
114.2685772365343
  0
LINE
  8
_0-1_1_5
  6
CENTER2
 62
    7
 10
131.83730240935665
 20
112.51847923083025
 11
130.08720440365266
 21
114.26857723653407
  0
LINE
  8
_0-1_1_5
  6
CENTER2
 62
    7
 10
126.58740041506076
 20
114.2685772365343
 11
130.08720440365266
 21
114.2685772365343
  0
LINE
  8
_0-1_1_5
  6
CENTER2
 62
    7
 10
148.33730240935677
 20
119.0184792308302
 11
144.58452565962409
 21
112.51847923083025
  0
LINE
  8
_0-1_1_5
  6
CENTER2
 62
    7
 10
108.33730240935677
 20
119.0184792308302
 11
112.09007915908933
 21
112.51847923083025
  0
LINE
  8
_0-1_1_5
  6
CENTER2
 62
    7
 10
144.58452565962409
 20
112.51847923083025
 11
112.09007915908933
 21
112.51847923083025
  0
LINE
  8
_0-1_1_5
  6
CONTINUOUS
 62
    7
 10
415.96453905904667
 20
235.01034217717603
 11
410.33960830012757
 21
236.76024417147198
  0
LINE
  8
_0-1_1_5
  6
CONTINUOUS
 62
    7
 10
415.96453905904667
 20
235.01034217717603
 11
410.33960830012757
 21
233.26044018288019
  0
LINE
  8
_0-1_1_5
  6
CONTINUOUS
 62
    7
 10
371.76558991851766
 20
233.26044018288019
 11
410.33960830012757
 21
233.26044018288019
  0
LINE
  8
_0-1_1_5
  6
CONTINUOUS
 62
    7
 10
371.8024121954445
 20
236.76024417147198
 11
410.33905437147973
 21
236.76024417147198
  0
LINE
  8
_0-1_1_5
  6
CONTINUOUS
 62
    7
 10
382.21495450553289
 20
233.37725043592405
 11
383.62118719526234
 21
236.87705442451585
  0
LINE
  8
_0-1_1_5
  6
CONTINUOUS
 62
    7
 10
383.62118719526234
 20
233.37725043592405
 11
385.02741988499247
 21
236.87705442451585
  0
LINE
  8
_0-1_1_5
  6
CONTINUOUS
 62
    7
 10
385.02741988499247
 20
233.37725043592405
 11
386.43365257472192
 21
236.87705442451585
  0
LINE
  8
_0-1_1_5
  6
CONTINUOUS
 62
    7
 10
386.43365257472192
 20
233.37725043592405
 11
387.83988526445182
 21
236.87705442451585
  0
LINE
  8
_0-1_1_5
  6
CONTINUOUS
 62
    7
 10
387.83988526445182
 20
233.37725043592405
 11
389.24611795418127
 21
236.87705442451585
  0
LINE
  8
_0-1_1_5
  6
CONTINUOUS
 62
    7
 10
389.24611795418127
 20
233.37725043592405
 11
390.6523506439114
 21
236.87705442451585
  0
LINE
  8
_0-1_1_5
  6
CONTINUOUS
 62
    7
 10
394.87104871310066
 20
233.37725043592405
 11
396.27728140283034
 21
236.87705442451585
  0
LINE
  8
_0-1_1_5
  6
CONTINUOUS
 62
    7
 10
393.46481602337076
 20
233.37725043592405
 11
394.87104871310066
 21
236.87705442451585
  0
LINE
  8
_0-1_1_5
  6
CONTINUOUS
 62
    7
 10
396.27728140283034
 20
233.37725043592405
 11
397.68351409256002
 21
236.87705442451585
  0
LINE
  8
_0-1_1_5
  6
CONTINUOUS
 62
    7
 10
397.68351409256002
 20
233.37725043592405
 11
399.08974678228969
 21
236.87705442451585
  0
LINE
  8
_0-1_1_5
  6
CONTINUOUS
 62
    7
 10
399.08974678228969
 20
233.37725043592405
 11
400.49597947201926
 21
236.87705442451585
  0
LINE
  8
_0-1_1_5
  6
CONTINUOUS
 62
    7
 10
400.49597947201926
 20
233.37725043592405
 11
401.90221216174928
 21
236.87705442451585
  0
LINE
  8
_0-1_1_5
  6
CONTINUOUS
 62
    7
 10
401.90221216174928
 20
233.37725043592405
 11
403.30844485147895
 21
236.87705442451585
  0
LINE
  8
_0-1_1_5
  6
CONTINUOUS
 62
    7
 10
403.30844485147895
 20
233.37725043592405
 11
404.71467754120863
 21
236.87705442451585
  0
LINE
  8
_0-1_1_5
  6
CONTINUOUS
 62
    7
 10
390.6523506439114
 20
233.37725043592405
 11
392.05858333364085
 21
236.87705442451585
  0
LINE
  8
_0-1_1_5
  6
CONTINUOUS
 62
    7
 10
404.71467754120863
 20
233.37725043592405
 11
406.12091023093853
 21
236.87705442451585
  0
LINE
  8
_0-1_1_5
  6
CONTINUOUS
 62
    7
 10
407.52714292066821
 20
233.37725043592405
 11
408.93337561039812
 21
236.87705442451585
  0
LINE
  8
_0-1_1_5
  6
CONTINUOUS
 62
    7
 10
408.93337561039812
 20
233.37725043592405
 11
410.33960830012757
 21
236.87705442451585
  0
LINE
  8
_0-1_1_5
  6
CONTINUOUS
 62
    7
 10
406.12091023093853
 20
233.37725043592405
 11
407.52714292066821
 21
236.87705442451585
  0
LINE
  8
_0-1_1_5
  6
CONTINUOUS
 62
    7
 10
392.05858333364085
 20
233.37725043592405
 11
393.46481602337076
 21
236.87705442451585
  0
LINE
  8
_0-1_1_5
  6
CONTINUOUS
 62
    7
 10
415.96453905904667
 20
254.79856179272065
 11
410.33960830012757
 21
256.54846378701654
  0
LINE
  8
_0-1_1_5
  6
CONTINUOUS
 62
    7
 10
415.96453905904667
 20
254.79856179272065
 11
410.33960830012757
 21
253.04865979842486
  0
LINE
  8
_0-1_1_5
  6
CONTINUOUS
 62
    7
 10
371.76558991851766
 20
253.04865979842486
 11
410.33960830012757
 21
253.04865979842486
  0
LINE
  8
_0-1_1_5
  6
CONTINUOUS
 62
    7
 10
371.8024121954445
 20
256.54846378701654
 11
410.33905437147973
 21
256.54846378701654
  0
LINE
  8
_0-1_1_5
  6
CONTINUOUS
 62
    7
 10
382.21495450553289
 20
253.16547005146867
 11
383.62118719526234
 21
256.66527404006047
  0
LINE
  8
_0-1_1_5
  6
CONTINUOUS
 62
    7
 10
383.62118719526234
 20
253.16547005146867
 11
385.02741988499247
 21
256.66527404006047
  0
LINE
  8
_0-1_1_5
  6
CONTINUOUS
 62
    7
 10
385.02741988499247
 20
253.16547005146867
 11
386.43365257472192
 21
256.66527404006047
  0
LINE
  8
_0-1_1_5
  6
CONTINUOUS
 62
    7
 10
386.43365257472192
 20
253.16547005146867
 11
387.83988526445182
 21
256.66527404006047
  0
LINE
  8
_0-1_1_5
  6
CONTINUOUS
 62
    7
 10
387.83988526445182
 20
253.16547005146867
 11
389.24611795418127
 21
256.66527404006047
  0
LINE
  8
_0-1_1_5
  6
CONTINUOUS
 62
    7
 10
389.24611795418127
 20
253.16547005146867
 11
390.6523506439114
 21
256.66527404006047
  0
LINE
  8
_0-1_1_5
  6
CONTINUOUS
 62
    7
 10
394.87104871310066
 20
253.16547005146867
 11
396.27728140283034
 21
256.66527404006047
  0
LINE
  8
_0-1_1_5
  6
CONTINUOUS
 62
    7
 10
393.46481602337076
 20
253.16547005146867
 11
394.87104871310066
 21
256.66527404006047
  0
LINE
  8
_0-1_1_5
  6
CONTINUOUS
 62
    7
 10
396.27728140283034
 20
253.16547005146867
 11
397.68351409256002
 21
256.66527404006047
  0
LINE
  8
_0-1_1_5
  6
CONTINUOUS
 62
    7
 10
397.68351409256002
 20
253.16547005146867
 11
399.08974678228969
 21
256.66527404006047
  0
LINE
  8
_0-1_1_5
  6
CONTINUOUS
 62
    7
 10
399.08974678228969
 20
253.16547005146867
 11
400.49597947201926
 21
256.66527404006047
  0
LINE
  8
_0-1_1_5
  6
CONTINUOUS
 62
    7
 10
400.49597947201926
 20
253.16547005146867
 11
401.90221216174928
 21
256.66527404006047
  0
LINE
  8
_0-1_1_5
  6
CONTINUOUS
 62
    7
 10
401.90221216174928
 20
253.16547005146867
 11
403.30844485147895
 21
256.66527404006047
  0
LINE
  8
_0-1_1_5
  6
CONTINUOUS
 62
    7
 10
403.30844485147895
 20
253.16547005146867
 11
404.71467754120863
 21
256.66527404006047
  0
LINE
  8
_0-1_1_5
  6
CONTINUOUS
 62
    7
 10
390.6523506439114
 20
253.16547005146867
 11
392.05858333364085
 21
256.66527404006047
  0
LINE
  8
_0-1_1_5
  6
CONTINUOUS
 62
    7
 10
404.71467754120863
 20
253.16547005146867
 11
406.12091023093853
 21
256.66527404006047
  0
LINE
  8
_0-1_1_5
  6
CONTINUOUS
 62
    7
 10
407.52714292066821
 20
253.16547005146867
 11
408.93337561039812
 21
256.66527404006047
  0
LINE
  8
_0-1_1_5
  6
CONTINUOUS
 62
    7
 10
408.93337561039812
 20
253.16547005146867
 11
410.33960830012757
 21
256.66527404006047
  0
LINE
  8
_0-1_1_5
  6
CONTINUOUS
 62
    7
 10
406.12091023093853
 20
253.16547005146867
 11
407.52714292066821
 21
256.66527404006047
  0
LINE
  8
_0-1_1_5
  6
CONTINUOUS
 62
    7
 10
392.05858333364085
 20
253.16547005146867
 11
393.46481602337076
 21
256.66527404006047
  0
LINE
  8
_0-1_1_5
  6
CONTINUOUS
 62
    7
 10
320.01549191281413
 20
253.93814635970284
 11
367.01549191281379
 21
253.93814635970287
  0
LINE
  8
_0-1_1_5
  6
CONTINUOUS
 62
    7
 10
367.01549191281379
 20
253.93814635970287
 11
367.01549191281379
 21
235.93814635970287
  0
LINE
  8
_0-1_1_5
  6
CONTINUOUS
 62
    7
 10
367.01549191281379
 20
235.93814635970287
 11
320.01549191281413
 21
235.93814635970284
  0
ARC
  8
_0-1_1_5
  6
CONTINUOUS
 62
    7
 10
320.01549191281413
 20
236.43814635970284
 40
0.5
 50
180
 51
270
  0
LINE
  8
_0-1_1_5
  6
CONTINUOUS
 62
    7
 10
376.51549191281379
 20
269.40445198494831
 11
369.08645087482614
 21
269.40445198494831
  0
LINE
  8
_0-1_1_5
  6
CONTINUOUS
 62
    7
 10
368.51549191281379
 20
269.40445198494831
 11
369.08645087482614
 21
269.40445198494831
  0
ARC
  8
_0-1_1_5
  6
CONTINUOUS
 62
    7
 10
368.51549191281379
 20
267.90445198494831
 40
1.5
 50
90
 51
180
  0
LINE
  8
_0-1_1_5
  6
CONTINUOUS
 62
    7
 10
376.51549191281379
 20
269.40445198494831
 11
376.51549191281379
 21
220.40445198494834
  0
LINE
  8
_0-1_1_5
  6
CONTINUOUS
 62
    7
 10
367.01549191281379
 20
221.90445198494834
 11
367.01549191281379
 21
267.90445198494831
  0
LINE
  8
_0-1_1_5
  6
CONTINUOUS
 62
    7
 10
368.51549191281379
 20
220.40445198494834
 11
376.51549191281379
 21
220.40445198494834
  0
ARC
  8
_0-1_1_5
  6
CONTINUOUS
 62
    7
 10
368.51549191281379
 20
221.90445198494834
 40
1.5
 50
180
 51
270
  0
ARC
  8
_0-1_1_5
  6
CONTINUOUS
 62
    7
 10
328.01941369155327
 20
244.94547506274688
 40
5.9999999999999165
 50
37.121827630005839
 51
128.22203659186621
  0
LINE
  8
_0-1_1_5
  6
CONTINUOUS
 62
    7
 10
254.44613122192345
 20
174.27240670623451
 11
263.15244748247949
 21
193.43244418208457
  0
LINE
  8
_0-1_1_5
  6
CONTINUOUS
 62
    7
 10
254.61383981118115
 20
173.87276614632981
 11
254.99975861174903
 21
173.72472824431122
  0
ARC
  8
_0-1_1_5
  6
CONTINUOUS
 62
    7
 10
255.10778844014123
 20
174.00554624432968
 40
0.2999999999998795
 50
249.01325755961565
 51
336.51731722436205
  0
ARC
  8
_0-1_1_5
  6
CONTINUOUS
 62
    7
 10
254.72128538735672
 20
174.15286514340113
 40
0.2999999999998195
 50
156.51731722435449
 51
249.01325755956049
  0
LINE
  8
_0-1_1_5
  6
CONTINUOUS
 62
    7
 10
255.38294260557461
 20
173.8860046814963
 11
264.03535378669483
 21
193.00446108318184
  0
ARC
  8
_0-1_1_5
  6
CONTINUOUS
 62
    7
 10
299.6864056798097
 20
175.72284513423145
 40
39.618830761300707
 50
129.85604808851673
 51
154.13851333832827
  0
ARC
  8
_0-1_1_5
  6
CONTINUOUS
 62
    7
 10
299.6864056798097
 20
175.72284513423145
 40
40.60000000000003
 50
129.85604808851673
 51
154.13851333832815
  0
LINE
  8
_0-1_1_5
  6
CONTINUOUS
 62
    7
 10
324.06539381200469
 20
249.45864568578341
 11
273.66745126260435
 21
206.8897187508679
  0
LINE
  8
_0-1_1_5
  6
CONTINUOUS
 62
    7
 10
324.70166130960558
 20
248.68617546233926
 11
274.29769472692169
 21
206.14002949624131
  0
LINE
  8
_0-1_1_5
  6
CONTINUOUS
 62
    7
 10
301.10568334993775
 20
230.06558740471334
 11
301.74490633697201
 21
229.30830673108812
  0
LINE
  8
_0-1_1_5
  6
CONTINUOUS
 62
    7
 10
322.03230529803773
 20
245.34101738189955
 11
323.03225516089253
 21
245.30583889285549
  0
LINE
  8
_0-1_1_5
  6
CONTINUOUS
 62
    7
 10
332.60732234801878
 20
248.81216654511144
 11
331.84264639052583
 21
248.16775155457515
  0
ARC
  8
_0-1_1_5
  6
CONTINUOUS
 62
    7
 10
328.01926660304503
 20
244.94567660187971
 40
6.0000000000000675
 50
176.22203659186707
 51
215.15906493997656
  0
ARC
  8
_0-1_1_5
  6
CONTINUOUS
 62
    7
 10
328.01926660304503
 20
244.94567660187971
 40
4.9999999999999245
 50
176.22203659186627
 51
203.82126809898216
  0
ARC
  8
_0-1_1_5
  6
CONTINUOUS
 62
    7
 10
328.01926660304503
 20
244.94567660187971
 40
6.0000000000000853
 50
298.77930232875849
 51
131.22203659186619
  0
ARC
  8
_0-1_1_5
  6
CONTINUOUS
 62
    7
 10
328.01926660304503
 20
244.94567660187971
 40
5.0000000000001341
 50
310.08101488626949
 51
131.2220365918655
  0
ARC
  8
_0-1_1_5
  6
STYLE_01
 62
    7
 10
328.01926660304503
 20
244.94567660187971
 40
5.0000000000000249
 50
203.82126809898386
 51
310.08101488627182
  0
ARC
  8
_0-1_1_5
  6
STYLE_01
 62
    7
 10
328.01926660304503
 20
244.94567660187971
 40
5.9999999999999902
 50
215.15906493997579
 51
298.77930232875906
  0
LINE
  8
_0-1_1_5
  6
CONTINUOUS
 62
    7
 10
319.51549191281413
 20
253.43814635970284
 11
319.51549191281413
 21
236.43814635970284
  0
ARC
  8
_0-1_1_5
  6
CONTINUOUS
 62
    7
 10
320.01549191281413
 20
253.43814635970284
 40
0.5
 50
90
 51
180
  0
LINE
  8
_0-1_1_5
  6
CONTINUOUS
 62
    7
 10
380.8149545055328
 20
253.16547005146867
 11
382.22118719526247
 21
256.66527404006047
  0
LINE
  8
_0-1_1_5
  6
CONTINUOUS
 62
    7
 10
380.8149545055328
 20
233.37725043592405
 11
382.22118719526247
 21
236.87705442451585
  0
LINE
  8
_0-1_1_5
  6
CONTINUOUS
 62
    7
 10
379.41495450553293
 20
253.16547005146867
 11
380.82118719526261
 21
256.66527404006047
  0
LINE
  8
_0-1_1_5
  6
CONTINUOUS
 62
    7
 10
378.01495450553284
 20
253.16547005146867
 11
379.42118719526252
 21
256.66527404006047
  0
LINE
  8
_0-1_1_5
  6
CONTINUOUS
 62
    7
 10
376.61495450553298
 20
253.16547005146867
 11
378.02118719526266
 21
256.66527404006047
  0
LINE
  8
_0-1_1_5
  6
CONTINUOUS
 62
    7
 10
379.41495450553293
 20
233.37725043592405
 11
380.82118719526261
 21
236.87705442451585
  0
LINE
  8
_0-1_1_5
  6
CONTINUOUS
 62
    7
 10
378.01495450553284
 20
233.37725043592405
 11
379.42118719526252
 21
236.87705442451585
  0
LINE
  8
_0-1_1_5
  6
CONTINUOUS
 62
    7
 10
376.61495450553298
 20
233.37725043592405
 11
378.02118719526266
 21
236.87705442451585
  0
LINE
  8
_0-1_1_5
  6
CENTER2
 62
    7
 10
375.21495450553311
 20
233.37725043592405
 11
376.62118719526256
 21
236.87705442451585
  0
LINE
  8
_0-1_1_5
  6
CENTER2
 62
    7
 10
373.81495450553302
 20
233.37725043592405
 11
375.2211871952627
 21
236.87705442451585
  0
LINE
  8
_0-1_1_5
  6
CENTER2
 62
    7
 10
372.41495450553293
 20
233.37725043592405
 11
373.82118719526284
 21
236.87705442451585
  0
LINE
  8
_0-1_1_5
  6
CENTER2
 62
    7
 10
371.76558991851789
 20
235.24541694316662
 11
372.42118719526252
 21
236.87705442451585
  0
LINE
  8
_0-1_1_5
  6
CENTER2
 62
    7
 10
370.01549191281379
 20
238.51034217717608
 11
371.76558991851789
 21
236.76024417147198
  0
LINE
  8
_0-1_1_5
  6
CENTER2
 62
    7
 10
370.01549191281379
 20
231.51034217717614
 11
371.76558991851766
 21
233.26044018288019
  0
LINE
  8
_0-1_1_5
  6
CENTER2
 62
    7
 10
371.76558991851789
 20
236.76024417147198
 11
371.76558991851789
 21
233.26044018288019
  0
LINE
  8
_0-1_1_5
  6
CENTER2
 62
    7
 10
375.21495450553311
 20
253.16547005146867
 11
376.62118719526256
 21
256.66527404006047
  0
LINE
  8
_0-1_1_5
  6
CENTER2
 62
    7
 10
373.81495450553302
 20
253.16547005146867
 11
375.2211871952627
 21
256.66527404006047
  0
LINE
  8
_0-1_1_5
  6
CENTER2
 62
    7
 10
372.41495450553293
 20
253.16547005146867
 11
373.82118719526284
 21
256.66527404006047
  0
LINE
  8
_0-1_1_5
  6
CENTER2
 62
    7
 10
371.76558991851789
 20
255.03363655871124
 11
372.42118719526252
 21
256.66527404006047
  0
LINE
  8
_0-1_1_5
  6
CENTER2
 62
    7
 10
370.01549191281379
 20
258.29856179272065
 11
371.76558991851789
 21
256.54846378701654
  0
LINE
  8
_0-1_1_5
  6
CENTER2
 62
    7
 10
370.01549191281379
 20
251.29856179272076
 11
371.76558991851766
 21
253.04865979842486
  0
LINE
  8
_0-1_1_5
  6
CENTER2
 62
    7
 10
371.76558991851789
 20
256.54846378701654
 11
371.76558991851789
 21
253.04865979842486
  0
LINE
  8
_0-1_1_5
  6
CENTER2
 62
    7
 10
376.51549191281379
 20
264.90445198494842
 11
370.01549191281379
 21
261.15167523521586
  0
LINE
  8
_0-1_1_5
  6
CENTER2
 62
    7
 10
370.01549191281379
 20
261.15167523521586
 11
370.01549191281379
 21
228.65722873468098
  0
LINE
  8
_0-1_1_5
  6
CENTER2
 62
    7
 10
370.01549191281379
 20
231.51034217717614
 11
370.01549191281379
 21
238.51034217717608
  0
LINE
  8
_0-1_1_5
  6
CENTER2
 62
    7
 10
370.01549191281379
 20
251.29856179272076
 11
370.01549191281379
 21
258.29856179272065
  0
LINE
  8
_0-1_1_5
  6
CENTER2
 62
    7
 10
376.51549191281379
 20
224.90445198494842
 11
370.01549191281379
 21
228.65722873468098
  0
ARC
  8
_0-1_1_5
  6
CONTINUOUS
 62
    7
 10
328.014697426015
 20
244.93837087442284
 40
4.0000000000001776
 50
340.31592401708389
 51
167.33323925452197
  0
LINE
  8
_0-1_1_5
  6
CONTINUOUS
 62
    7
 10
324.11204974549253
 20
245.81549177926459
 11
308.97527624941586
 21
177.50383277269174
  0
LINE
  8
_0-1_1_5
  6
CONTINUOUS
 62
    7
 10
331.91988785218655
 20
244.0726412772583
 11
316.77610554644161
 21
175.73037131513087
  0
ARC
  8
_0-1_1_5
  6
STYLE_01
 62
    7
 10
328.014697426015
 20
244.93837087442284
 40
3.9999999999999725
 50
160.64426258591058
 51
340.31592401708195
  0
ARC
  8
_0-1_1_5
  6
CONTINUOUS
 62
    7
 10
312.87086351481798
 20
176.59586809406392
 40
3.9999999999999023
 50
166.88000621930252
 51
351.50913202920151
  0
ARC
  8
_0-1_1_5
  6
STYLE_01
 62
    7
 10
312.87086351481798
 20
176.59586809406392
 40
3.9999999999998876
 50
351.50913202920151
 51
166.88000621930405
  0
LINE
  8
_0-1_1_5
  6
CONTINUOUS
 62
    7
 10
320.01549191281413
 20
253.93814635970284
 11
330.65906568695209
 21
253.93814635970284
  0
LINE
  8
_0-1_1_5
  6
CONTINUOUS
 62
    7
 10
330.65906568695209
 20
253.93814635970284
 11
367.01549191281379
 21
253.93814635970287
  0
LINE
  8
_0-2_ADD_LINE
  6
CONTINUOUS
 62
    7
 10
328.01549191281379
 20
273.40445198494831
 11
328.01549191281379
 21
283.90279265398124
  0
POINT
  8
_0-2_ADD_LINE
 62
    7
 10
328.01549191281379
 20
284.44276729055775
  0
POINT
  8
_0-2_ADD_LINE
 62
    7
 10
376.51549191281379
 20
284.44276729055775
  0
LINE
  8
_0-1_1_5
  6
CONTINUOUS
 62
    7
 10
328.01549191281379
 20
284.44276729055775
 11
376.51549191281379
 21
284.44276729055775
  0
TEXT
  8
_0-1_1_5
 62
    4
 10
347.26549191281379
 20
285.44276729055775
 40
5
 41
1
 50
0
  1
48.5
  0
LINE
  8
_0-2_ADD_LINE
  6
CONTINUOUS
 62
    7
 10
328.01549191281379
 20
284.44276729055775
 11
328.01549191281379
 21
257.43814635970284
  0
POINT
  8
_0-2_ADD_LINE
 62
    7
 10
367.01549191281379
 20
205.40445198494834
  0
POINT
  8
_0-2_ADD_LINE
 62
    7
 10
376.51549191281379
 20
205.40445198494834
  0
LINE
  8
_0-1_1_5
  6
CONTINUOUS
 62
    7
 10
367.01549191281379
 20
205.40445198494834
 11
376.51549191281379
 21
205.40445198494834
  0
TEXT
  8
_0-1_1_5
 62
    4
 10
368.01549191281379
 20
206.40445198494834
 40
5
 41
1
 50
0
  1
9.5
  0
LINE
  8
_0-2_ADD_LINE
  6
CONTINUOUS
 62
    7
 10
367.01549191281379
 20
205.40445198494834
 11
367.01549191281379
 21
219.90445198494834
  0
POINT
  8
_0-2_ADD_LINE
 62
    7
 10
308.71549191281372
 20
133.76069500241306
  0
POINT
  8
_0-2_ADD_LINE
 62
    7
 10
376.51549191281379
 20
133.76069500241306
  0
LINE
  8
_0-1_1_5
  6
CONTINUOUS
 62
    7
 10
308.71549191281372
 20
133.76069500241306
 11
376.51549191281379
 21
133.76069500241306
  0
TEXT
  8
_0-1_1_5
 62
    4
 10
337.61549191281381
 20
134.76069500241306
 40
5
 41
1
 50
0
  1
67.8
  0
LINE
  8
_0-2_ADD_LINE
  6
CONTINUOUS
 62
    7
 10
308.71549191281372
 20
133.76069500241306
 11
308.71549191281372
 21
173.76123992233533
  0
POINT
  8
_0-2_ADD_LINE
 62
    7
 10
254.44613122192345
 20
306.43175873685885
  0
POINT
  8
_0-2_ADD_LINE
 62
    7
 10
376.51549191281379
 20
306.43175873685885
  0
LINE
  8
_0-2_ADD_LINE
  6
CONTINUOUS
 62
    7
 10
254.44613122192345
 20
306.43175873685885
 11
254.44613122192345
 21
176.27240670623451
  0
LINE
  8
_0-2_ADD_LINE
  6
CONTINUOUS
 62
    7
 10
376.51549191281379
 20
306.43175873685885
 11
376.51549191281379
 21
271.40445198494831
  0
LINE
  8
_0-2_ADD_LINE
  6
CONTINUOUS
 62
    7
 10
254.44613122192345
 20
306.43175873685885
 11
376.51549191281379
 21
306.43175873685885
  0
TEXT
  8
_0-2_ADD_LINE
 62
    4
 10
311.73081156736862
 20
307.43175873685885
 40
5
 41
1
 50
0
  1
122
  0
POINT
  8
_0-2_ADD_LINE
 62
    7
 10
391.51549191281379
 20
269.40445198494831
  0
LINE
  8
_0-2_ADD_LINE
  6
CONTINUOUS
 62
    7
 10
391.51549191281379
 20
269.40445198494831
 11
380.51549191281379
 21
269.40445198494831
  0
TEXT
  8
_0-2_ADD_LINE
 62
    4
 10
391.61533995032369
 20
270.57053220126613
 40
5
 41
1
 50
90
  1
φ
  0
LINE
  8
_0-2_ADD_LINE
  6
CONTINUOUS
 62
    7
 10
391.51549191281379
 20
269.40445198494831
 11
391.51549191281379
 21
279.95502767488153
  0
LINE
  8
_0-2_ADD_LINE
  6
CONTINUOUS
 62
    7
 10
391.51549191281379
 20
269.40445198494831
 11
391.51549191281379
 21
220.40445198494834
  0
TEXT
  8
_0-2_ADD_LINE
 62
    4
 10
391.61533995032369
 20
275.26189655798834
 40
5
 41
1
 50
90
  1
49
  0
LINE
  8
_0-2_ADD_LINE
  6
CONTINUOUS
 62
    7
 10
376.51549191281379
 20
205.40445198494834
 11
376.51549191281379
 21
133.76069500241306
  0
LINE
  8
_0-2_ADD_LINE
  6
CONTINUOUS
 62
    7
 10
376.51549191281379
 20
205.40445198494834
 11
376.51549191281379
 21
218.40445198494834
  0
CIRCLE
  8
_0-4_
  6
DASHED2
 62
    7
 10
312.28049584797566
 20
161.75173844289645
 40
57
  0
CIRCLE
  8
_0-4_
  6
DASHED2
 62
    7
 10
312.28049584797566
 20
161.75173844289645
 40
19
  0
LINE
  8
_0-1_1_5
  6
DASHED1
 62
    7
 10
118.0716495716764
 20
240.90445198494857
 11
97.08165502841382
 21
240.90445198494857
  0
LINE
  8
_0-1_1_5
  6
DASHED1
 62
    7
 10
97.08165502841382
 20
240.90445198494857
 11
97.08165502841382
 21
248.90445198494857
  0
LINE
  8
_0-1_1_5
  6
DASHED1
 62
    7
 10
97.08165502841382
 20
248.90445198494857
 11
118.0716495716764
 21
248.90445198494857
  0
LINE
  8
_0-1_1_5
  6
DASHED1
 62
    7
 10
138.59295524703714
 20
248.94715914109818
 11
183.03164957167644
 21
248.94715914109818
  0
LINE
  8
_0-1_1_5
  6
DASHED1
 62
    7
 10
138.59295524703714
 20
240.94715914109818
 11
183.03164957167644
 21
240.94715914109818
  0
ARC
  8
_0-1_1_5
  6
DASHED1
 62
    7
 10
183.33730240935608
 20
235.90445198494857
 40
5
 50
0
 51
90
  0
ARC
  8
_0-1_1_5
  6
DASHED1
 62
    7
 10
183.33730240935608
 20
235.90445198494857
 40
13.00000000000005
 50
33.60398698974948
 51
90
  0
ARC
  8
_0-1_1_5
  6
DASHED1
 62
    7
 10
183.33730240935608
 20
185.75173844289648
 40
5
 50
270
 51
0
  0
LINE
  8
_0-1_1_5
  6
DASHED1
 62
    7
 10
70.339298177981391
 20
180.75173844289648
 11
183.33730580019812
 21
180.75173844289648
  0
ARC
  8
_0-1_1_5
  6
DASHED1
 62
    7
 10
70.337302409356994
 20
186.75173844289648
 40
6.0000000000000435
 50
219.10631287336918
 51
270
  0
LINE
  8
_0-1_1_5
  6
DASHED1
 62
    7
 10
63.337302409356994
 20
185.3113091051741
 11
65.623005761687978
 21
183.02560575284318
  0
LINE
  8
_0-1_1_5
  6
DASHED1
 62
    7
 10
97.08165502841382
 20
66.518479230830394
 11
97.08165502841382
 21
74.518479230830394
  0
LINE
  8
_0-1_1_5
  6
DASHED1
 62
    7
 10
118.08165502841382
 20
74.518479230830394
 11
97.08165502841382
 21
74.518479230830394
  0
LINE
  8
_0-1_1_5
  6
DASHED1
 62
    7
 10
118.08165502841382
 20
66.518479230830394
 11
97.08165502841382
 21
66.518479230830394
  0
LINE
  8
_0-1_1_5
  6
DASHED1
 62
    7
 10
137.58730240935677
 20
74.518479230830394
 11
119.08730240935677
 21
74.518479230830394
  0
LINE
  8
_0-1_1_5
  6
DASHED1
 62
    7
 10
137.58730240935677
 20
66.518479230830394
 11
119.28447871888534
 21
66.518479230830394
  0
LINE
  8
_0-1_1_5
  6
DASHED1
 62
    7
 10
177.3358796487546
 20
74.518479230830224
 11
138.59294979029971
 21
74.518479230830224
  0
LINE
  8
_0-1_1_5
  6
DASHED1
 62
    7
 10
183.60927608224904
 20
66.518479230830224
 11
138.59294979029971
 21
66.518479230830224
  0
LINE
  8
_0-1_1_5
  6
DASHED1
 62
    7
 10
177.3358796487546
 20
74.518479230830224
 11
183.03164957167644
 21
74.518479230830224
  0
LINE
  8
_0-1_1_5
  6
DASHED1
 62
    7
 10
186.60927608224904
 20
63.518479230830224
 11
186.60927608224904
 21
61.780426766411921
  0
LINE
  8
_0-1_1_5
  6
DASHED1
 62
    7
 10
186.60927608224904
 20
63.518479230830224
 11
186.60927608224904
 21
63.518479230830224
  0
LINE
  8
_0-1_1_5
  6
DASHED1
 62
    7
 10
186.60927608224904
 20
63.518479230830224
 11
186.56369934128566
 21
64.03942376383101
  0
LINE
  8
_0-1_1_5
  6
DASHED1
 62
    7
 10
186.56369934128566
 20
64.03942376383101
 11
186.42835394460676
 21
64.544539660807231
  0
LINE
  8
_0-1_1_5
  6
DASHED1
 62
    7
 10
186.42835394460676
 20
64.544539660807231
 11
186.20735229360236
 21
65.018479230830224
  0
LINE
  8
_0-1_1_5
  6
DASHED1
 62
    7
 10
186.20735229360236
 20
65.018479230830224
 11
185.90740941160598
 21
65.446842059889846
  0
LINE
  8
_0-1_1_5
  6
DASHED1
 62
    7
 10
185.90740941160598
 20
65.446842059889846
 11
185.53763891130865
 21
65.816612560187153
  0
LINE
  8
_0-1_1_5
  6
DASHED1
 62
    7
 10
185.53763891130865
 20
65.816612560187153
 11
185.10927608224904
 21
66.11655544218354
  0
LINE
  8
_0-1_1_5
  6
DASHED1
 62
    7
 10
185.10927608224904
 20
66.11655544218354
 11
184.63533651222605
 21
66.337557093187954
  0
LINE
  8
_0-1_1_5
  6
DASHED1
 62
    7
 10
184.63533651222605
 20
66.337557093187954
 11
184.13022061524984
 21
66.472902489866854
  0
LINE
  8
_0-1_1_5
  6
DASHED1
 62
    7
 10
184.13022061524984
 20
66.472902489866854
 11
183.60927608224904
 21
66.518479230830224
  0
LINE
  8
_0-1_1_5
  6
DASHED1
 62
    7
 10
183.60927608224904
 20
58.780426766411921
 11
183.60927608224904
 21
58.780426766411921
  0
LINE
  8
_0-1_1_5
  6
DASHED1
 62
    7
 10
183.60927608224904
 20
58.780426766411921
 11
184.13022061524984
 21
58.826003507375297
  0
LINE
  8
_0-1_1_5
  6
DASHED1
 62
    7
 10
184.13022061524984
 20
58.826003507375297
 11
184.63533651222605
 21
58.961348904054198
  0
LINE
  8
_0-1_1_5
  6
DASHED1
 62
    7
 10
184.63533651222605
 20
58.961348904054198
 11
185.10927608224904
 21
59.182350555058605
  0
LINE
  8
_0-1_1_5
  6
DASHED1
 62
    7
 10
185.10927608224904
 20
59.182350555058605
 11
185.53763891130865
 21
59.482293437054985
  0
LINE
  8
_0-1_1_5
  6
DASHED1
 62
    7
 10
185.53763891130865
 20
59.482293437054985
 11
185.90740941160598
 21
59.852063937352305
  0
LINE
  8
_0-1_1_5
  6
DASHED1
 62
    7
 10
185.90740941160598
 20
59.852063937352305
 11
186.20735229360236
 21
60.280426766411921
  0
LINE
  8
_0-1_1_5
  6
DASHED1
 62
    7
 10
186.20735229360236
 20
60.280426766411921
 11
186.42835394460676
 21
60.754366336434913
  0
LINE
  8
_0-1_1_5
  6
DASHED1
 62
    7
 10
186.42835394460676
 20
60.754366336434913
 11
186.56369934128566
 21
61.259482233411127
  0
LINE
  8
_0-1_1_5
  6
DASHED1
 62
    7
 10
186.56369934128566
 20
61.259482233411127
 11
186.60927608224904
 21
61.780426766411921
  0
LINE
  8
_0-1_1_5
  6
DASHED1
 62
    7
 10
63.330357747971107
 20
61.142217032135505
 11
70.339298177981391
 21
58.885244005107296
  0
LINE
  8
_0-1_1_5
  6
DASHED1
 62
    7
 10
63.330357747971107
 20
52.932056799358094
 11
69.635213688390877
 21
50.900985133151607
  0
LINE
  8
_0-1_1_5
  6
CONTINUOUS
 62
    7
 10
196.34417866874628
 20
68.498458380922045
 11
196.34417866874628
 21
68.498458380922045
  0
LINE
  8
_0-1_1_5
  6
CONTINUOUS
 62
    7
 10
196.34417866874628
 20
68.498458380922045
 11
195.98949002452511
 21
69.617517745693888
  0
LINE
  8
_0-1_1_5
  6
CONTINUOUS
 62
    7
 10
195.98949002452511
 20
69.617517745693888
 11
195.25154465900326
 21
70.688780565848035
  0
LINE
  8
_0-1_1_5
  6
CONTINUOUS
 62
    7
 10
195.25154465900326
 20
70.688780565848035
 11
194.15276466869369
 21
71.679697062679253
  0
LINE
  8
_0-1_1_5
  6
CONTINUOUS
 62
    7
 10
194.15276466869369
 20
71.679697062679253
 11
193.33730239546779
 21
72.220912640327242
  0
LINE
  8
_0-1_1_5
  6
CONTINUOUS
 62
    7
 10
193.33730232221237
 20
53.102937749685708
 11
193.33730232221237
 21
53.102937749685708
  0
LINE
  8
_0-1_1_5
  6
CONTINUOUS
 62
    7
 10
193.33730232221237
 20
53.102937749685708
 11
194.63643323063619
 21
54.031274752698565
  0
LINE
  8
_0-1_1_5
  6
CONTINUOUS
 62
    7
 10
194.63643323063619
 20
54.031274752698565
 11
195.59341936376185
 21
55.058304088073029
  0
LINE
  8
_0-1_1_5
  6
CONTINUOUS
 62
    7
 10
195.59341936376185
 20
55.058304088073029
 11
196.17918318219267
 21
56.152819989155674
  0
LINE
  8
_0-1_1_5
  6
CONTINUOUS
 62
    7
 10
196.17918318219267
 20
56.152819989155674
 11
196.34417866874628
 21
56.825392052771804
  0
LINE
  8
_0-1_1_5
  6
DASHED1
 62
    7
 10
193.33730238780427
 20
72.220912644896856
 11
193.33730238780427
 21
72.220912644896856
  0
LINE
  8
_0-1_1_5
  6
DASHED1
 62
    7
 10
193.33730238780427
 20
72.220912644896856
 11
191.7355001519295
 21
73.02235027176188
  0
LINE
  8
_0-1_1_5
  6
DASHED1
 62
    7
 10
191.7355001519295
 20
73.02235027176188
 11
189.87969652441006
 21
73.672537240633034
  0
LINE
  8
_0-1_1_5
  6
DASHED1
 62
    7
 10
189.87969652441006
 20
73.672537240633034
 11
187.82627915938625
 21
74.151717949471632
  0
LINE
  8
_0-1_1_5
  6
DASHED1
 62
    7
 10
187.82627915938625
 20
74.151717949471632
 11
185.63764010441491
 21
74.445332734916775
  0
LINE
  8
_0-1_1_5
  6
DASHED1
 62
    7
 10
185.63764010441491
 20
74.445332734916775
 11
183.38028004967663
 21
74.544460260288929
  0
LINE
  8
_0-1_1_5
  6
DASHED1
 62
    7
 10
183.38028004967663
 20
74.544460260288929
 11
183.03039004686855
 21
74.542164142473993
  0
LINE
  8
_0-1_1_5
  6
DASHED1
 62
    7
 10
183.03039004686855
 20
50.781686291219856
 11
183.03039004686855
 21
50.781686291219856
  0
LINE
  8
_0-1_1_5
  6
DASHED1
 62
    7
 10
183.03039004686855
 20
50.781686291219856
 11
185.2922682835995
 21
50.850400052717312
  0
LINE
  8
_0-1_1_5
  6
DASHED1
 62
    7
 10
185.2922682835995
 20
50.850400052717312
 11
187.4959194685724
 21
51.114455414735048
  0
LINE
  8
_0-1_1_5
  6
DASHED1
 62
    7
 10
187.4959194685724
 20
51.114455414735048
 11
189.57438677563312
 21
51.565829188716613
  0
LINE
  8
_0-1_1_5
  6
DASHED1
 62
    7
 10
189.57438677563312
 20
51.565829188716613
 11
191.46451702741183
 21
52.190806610945735
  0
LINE
  8
_0-1_1_5
  6
DASHED1
 62
    7
 10
191.46451702741183
 20
52.190806610945735
 11
193.10887957266027
 21
52.970398058701811
  0
LINE
  8
_0-1_1_5
  6
DASHED1
 62
    7
 10
193.10887957266027
 20
52.970398058701811
 11
193.33730231454885
 21
53.102937745116094
  0
LINE
  8
_0-1_1_5
  6
DASHED1
 62
    7
 10
188.33730240935608
 20
235.90445198494857
 11
188.33730240935608
 21
185.75173844289648
  0
LINE
  8
_0-1_1_5
  6
DASHED1
 62
    7
 10
183.60927608224904
 20
58.780426766411921
 11
70.66480396527092
 21
58.780426766411921
  0
LINE
  8
_0-1_1_5
  6
DASHED1
 62
    7
 10
70.009451164769871
 20
50.780426766411921
 11
183.60812865954119
 21
50.780426766411921
  0
TEXT
  8
_0-2_ADD_LINE
 62
    4
 10
142.33794756973788
 20
34.60383562672007
 40
5
 41
1
 50
0
  1
R10.25
  0
LINE
  8
_0-2_ADD_LINE
  6
CONTINUOUS
 62
    7
 10
141.04839193648527
 20
34.327502276737363
 11
158.82583745203897
 21
34.327502276737363
  0
LINE
  8
_0-2_ADD_LINE
  6
CONTINUOUS
 62
    7
 10
141.04839193648527
 20
34.327502276737363
 11
134.23957491685943
 21
45.070302463258116
  0
ENDSEC
  0
EOF
