  0
SECTION
  2
HEADER
  9
$ACADVER
  1
AC1009
  9
$INSBASE
 10
0
 20
0
 30
0
  9
$EXTMIN
 10
0
 20
0
  9
$EXTMAX
 10
594
 20
420
  9
$LIMMIN
 10
0
 20
0
  9
$LIMMAX
 10
594
 20
420
  9
$LTSCALE
 40
2
  0
ENDSEC
  0
SECTION
  2
TABLES
  0
TABLE
  2
LTYPE
 70
     9
  0
LTYPE
  2
CONTINUOUS
 70
    64
  3
実線
 72
    65
 73
     0
 40
0.0
  0
LTYPE
  2
DASHED1
 70
    64
  3
--  --  --  --  --  --  --  --  
 72
    65
 73
     2
 40
2.5
 49
1.25
 49
-1.25
  0
LTYPE
  2
DASHED2
 70
    64
  3
----    ----    ----    ----    
 72
    65
 73
     2
 40
5.0
 49
2.5
 49
-2.5
  0
LTYPE
  2
DASHED3
 70
    64
  3
------  ------  ------  ------  
 72
    65
 73
     2
 40
5.0
 49
3.75
 49
-1.25
  0
LTYPE
  2
CENTER1
 70
    64
  3
----- - ----- - ----- - ----- - 
 72
    65
 73
     4
 40
10.0
 49
6.25
 49
-1.25
 49
1.25
 49
-1.25
  0
LTYPE
  2
CENTER2
 70
    64
  3
----------  --  ----------  --  
 72
    65
 73
     4
 40
20.0
 49
12.5
 49
-2.5
 49
2.5
 49
-2.5
  0
LTYPE
  2
PHANTOM1
 70
    64
  3
--- - - --- - - --- - - --- - - 
 72
    65
 73
     6
 40
10.0
 49
3.25
 49
-1.25
 49
1.25
 49
-1.25
 49
1.25
 49
-1.25
  0
LTYPE
  2
PHANTOM2
 70
    64
  3
--------  -  -  --------  -  -  
 72
    65
 73
     6
 40
20.0
 49
10.0
 49
-2.5
 49
1.25
 49
-2.5
 49
1.25
 49
-2.5
  0
LTYPE
  2
DOT
 70
    64
  3
-   -   -   -   -   -   -   -   
 72
    65
 73
     2
 40
2.5
 49
0.625
 49
-1.875
  0
LTYPE
  2
DUMMY
 70
    64
  3
ダミー
 72
    65
 73
     0
 40
0.0
  0
LTYPE
  2
RAND1
 70
    64
  3
ランダム線1
 72
    65
 73
     4
 40
10.0
 49
1.0
 49
-2.0
 49
3.0
 49
-4.0
  0
LTYPE
  2
RAND2
 70
    64
  3
ランダム線2
 72
    65
 73
     4
 40
14.0
 49
2.0
 49
-3.0
 49
4.0
 49
-5.0
  0
LTYPE
  2
RAND3
 70
    64
  3
ランダム線3
 72
    65
 73
     4
 40
18.0
 49
3.0
 49
-4.0
 49
5.0
 49
-6.0
  0
LTYPE
  2
RAND4
 70
    64
  3
ランダム線4
 72
    65
 73
     4
 40
22.0
 49
4.0
 49
-5.0
 49
6.0
 49
-7.0
  0
LTYPE
  2
RAND5
 70
    64
  3
ランダム線5
 72
    65
 73
     4
 40
26.0
 49
5.0
 49
-6.0
 49
7.0
 49
-8.0
  0
LTYPE
  2
LONG1
 70
    64
  3
----------  --  ----------  --  
 72
    65
 73
     4
 40
40.0
 49
32.5
 49
-2.5
 49
2.5
 49
-2.5
  0
LTYPE
  2
LONG2
 70
    64
  3
--------  -  -  --------  -  -  
 72
    65
 73
     6
 40
40.0
 49
30.0
 49
-2.5
 49
1.25
 49
-2.5
 49
1.25
 49
-2.5
  0
LTYPE
  2
LONG3
 70
    64
  3
+++++++++++++++..+++++++++++++++
 72
    65
 73
     2
 40
40.0
 49
37.5
 49
-2.5
  0
LTYPE
  2
LONG4
 70
    64
  3
+++++++++++++++..+++++++++++++++
 72
    65
 73
     2
 40
80.0
 49
75.0
 49
-5.0
  0
LTYPE
  2
LONG5
 70
    64
  3
----------  --  ----------  --  
 72
    65
 73
     4
 40
60.0
 49
37.5
 49
-7.5
 49
7.5
 49
-7.5
  0
LTYPE
  2
dashed
 70
   64
  3
-------   -------------   ------
 72
   65
 73
    2
 40
7.5
 49
6
 49
-1.5
  0
LTYPE
  2
dashed_spaced
 70
   64
  3
----        --------        ----
 72
   65
 73
    2
 40
12
 49
6
 49
-6
  0
LTYPE
  2
long_dashed_dotted
 70
   64
  3
------------- --- --------------
 72
   65
 73
    4
 40
15.25
 49
12
 49
-1.5
 49
0.25
 49
-1.5
  0
LTYPE
  2
long_dashed_double-dotted
 70
   64
  3
----------- --- --- ------------
 72
   65
 73
    6
 40
17
 49
12
 49
-1.5
 49
0.25
 49
-1.5
 49
0.25
 49
-1.5
  0
LTYPE
  2
long_dashed_triplicate-dotted
 70
   64
  3
--------- --- --- --- ----------
 72
   65
 73
    8
 40
18.75
 49
12
 49
-1.5
 49
0.25
 49
-1.5
 49
0.25
 49
-1.5
 49
0.25
 49
-1.5
  0
LTYPE
  2
dotted
 70
   64
  3
   -       -       -       -    
 72
   65
 73
    2
 40
1.75
 49
0.25
 49
-1.5
  0
LTYPE
  2
chain
 70
   64
  3
-------------- -- --------------
 72
   65
 73
    4
 40
18.5
 49
12
 49
-1.5
 49
3.5
 49
-1.5
  0
LTYPE
  2
chain_double_dash
 70
   64
  3
------------ -- -- -------------
 72
   65
 73
    6
 40
23.5
 49
12
 49
-1.5
 49
3.5
 49
-1.5
 49
3.5
 49
-1.5
  0
LTYPE
  2
dashed_dotted
 70
   64
  3
-----------     -     ----------
 72
   65
 73
    4
 40
9.25
 49
6
 49
-1.5
 49
0.25
 49
-1.5
  0
LTYPE
  2
double-dashed_dotted
 70
   64
  3
------   -----------   -   -----
 72
   65
 73
    6
 40
16.75
 49
6
 49
-1.5
 49
6
 49
-1.5
 49
0.25
 49
-1.5
  0
LTYPE
  2
dashed_double-dotted
 70
   64
  3
---------    -    -    ---------
 72
   65
 73
    6
 40
11
 49
6
 49
-1.5
 49
0.25
 49
-1.5
 49
0.25
 49
-1.5
  0
LTYPE
  2
double-dashed_double-dotted
 70
   64
  3
-----   ---------   -   -   ----
 72
   65
 73
    8
 40
18.5
 49
6
 49
-1.5
 49
6
 49
-1.5
 49
0.25
 49
-1.5
 49
0.25
 49
-1.5
  0
LTYPE
  2
dashed_triplicate-dotted
 70
   64
  3
-------    -    -    -    ------
 72
   65
 73
    8
 40
12.75
 49
6
 49
-1.5
 49
0.25
 49
-1.5
 49
0.25
 49
-1.5
 49
0.25
 49
-1.5
  0
LTYPE
  2
double-dashed_triplicate-dotted
 70
   64
  3
-----  ---------  -  -  -  -----
 72
   65
 73
   10
 40
20.25
 49
6
 49
-1.5
 49
6
 49
-1.5
 49
0.25
 49
-1.5
 49
0.25
 49
-1.5
 49
0.25
 49
-1.5
  0
LTYPE
  2
undefined
 70
   64
  3
--------------------------------
 72
   65
 73
    0
 40
0
  0
LTYPE
  2
STYLE_01
 70
   64
  3
----        --------        ----
 72
   65
 73
    2
 40
0.4166399999999997
 49
0.2082799999999999
 49
-0.2083599999999999
  0
LTYPE
  2
STYLE_02
 70
   64
  3
------     -----------     -----
 72
   65
 73
    2
 40
0.694425
 49
0.48607
 49
-0.2083550000000001
  0
LTYPE
  2
STYLE_03
 70
   64
  3
-------   -------------   ------
 72
   65
 73
    2
 40
1.25
 49
1.0416400000000001
 49
-0.2083599999999999
  0
LTYPE
  2
STYLE_04
 70
   64
  3
-------  --------------  -------
 72
   65
 73
    2
 40
1.5277099999999999
 49
1.3194249999999998
 49
-0.208285
  0
LTYPE
  2
STYLE_05
 70
   64
  3
---           -----           --
 72
   65
 73
    2
 40
0.20828
 49
0.069425
 49
-0.138855
  0
LTYPE
  2
STYLE_06
 70
   64
  3
----------      --    ----------
 72
   65
 73
    4
 40
1.0416399999999999
 49
0.625
 49
-0.2082799999999999
 49
0.06943
 49
-0.13893
  0
LTYPE
  2
STYLE_07
 70
   64
  3
-----    -----------    -  -----
 72
   65
 73
    6
 40
1.8749999999999998
 49
0.625
 49
-0.2082799999999999
 49
0.6250000000000001
 49
-0.2083599999999999
 49
0.06943
 49
-0.1389299999999998
  0
LTYPE
  2
STYLE_08
 70
   64
  3
--------     --    --    -------
 72
   65
 73
    6
 40
1.2499999999999996
 49
0.625
 49
-0.2082799999999999
 49
0.06943
 49
-0.13893
 49
0.0694299999999997
 49
-0.13893
  0
LTYPE
  2
STYLE_09
 70
   64
  3
------------  ----  ------------
 72
   65
 73
    4
 40
5
 49
3.75
 49
-0.2777849999999997
 49
0.6944300000000003
 49
-0.2777849999999997
  0
LTYPE
  2
STYLE_10
 70
   64
  3
----------- ---- ---  ----------
 72
   65
 73
    6
 40
5.9375
 49
3.75
 49
-0.2777849999999997
 49
0.6944300000000003
 49
-0.2777849999999997
 49
0.625
 49
-0.3125
  0
ENDTAB
  0
TABLE
  2
STYLE
  5
3
100
AcDbSymbolTable
 70
     1
  0
STYLE
  5
10
100
AcDbSymbolTableRecord
100
AcDbTextStyleTableRecord
  2
STANDARD
 70
     0
 40
0.0
 41
1.0
 50
0.0
 71
     0
 42
0.2
  3
txt
  4
bigfont.shx
  0
STYLE
  5
26
100
AcDbSymbolTableRecord
100
AcDbTextStyleTableRecord
  2
TATEGAKI
 70
    68
 40
0.0
 41
1.0
 50
0.0
 71
     0
 42
1.0
  3
txt
  4
bigfont.shx
  0
ENDTAB
  0
TABLE
  2
LAYER
 70
    6
  0
LAYER
  2
_0-0_0
 70
   64
 62
    7
  6
CONTINUOUS
  0
LAYER
  2
_0-1_1_5
 70
   64
 62
    7
  6
CONTINUOUS
  0
LAYER
  2
_0-2_ADD_LINE
 70
   64
 62
    7
  6
CONTINUOUS
  0
LAYER
  2
_0-3_
 70
   64
 62
    7
  6
CONTINUOUS
  0
LAYER
  2
_0-4_
 70
   64
 62
    7
  6
CONTINUOUS
  0
LAYER
  2
ADD_LINE
 70
   64
 62
    7
  6
CONTINUOUS
  0
ENDTAB
  0
ENDSEC
  0
SECTION
  2
BLOCKS
  0
BLOCK
  2
-026-グル__プ-6
 70
   64
 10
0
 20
0
 30
0
  0
ENDBLK
  0
ENDSEC
  0
SECTION
  2
ENTITIES
  0
ARC
  8
_0-1_1_5
  6
CONTINUOUS
 62
    7
 10
106.51508499751594
 20
191.67178438094425
 40
4.7434164902525495
 50
65.062017082038025
 51
114.9379827032419
  0
TEXT
  8
_0-3_
 62
    7
 10
135.16691074515126
 20
-66.290244160930513
 40
6.1081542968750009
 41
1
 50
0
  1
ステンレススチール
  0
LINE
  8
_0-0_0
  6
CONTINUOUS
 62
    7
 10
-87.019906738806753
 20
335.75937008357874
 11
-87.019906738806753
 21
-84.240629916421256
  0
LINE
  8
_0-0_0
  6
CONTINUOUS
 62
    7
 10
-87.019906738806753
 20
-84.240629916421256
 11
506.98009326119325
 21
-84.240629916421312
  0
LINE
  8
_0-0_0
  6
CONTINUOUS
 62
    7
 10
506.98009326119325
 20
-84.240629916421312
 11
506.98009326119325
 21
335.75937008357869
  0
LINE
  8
_0-0_0
  6
CONTINUOUS
 62
    7
 10
506.98009326119325
 20
335.75937008357869
 11
-87.019906738806753
 21
335.75937008357874
  0
TEXT
  8
_0-3_
 62
    7
 10
121.25741447433936
 20
-62.900519036372998
 40
4
 41
1
 50
0
  1
材質
  0
TEXT
  8
_0-3_
 62
    7
 10
121.25741447433936
 20
-50.417785461709059
 40
4
 41
1
 50
0
  1
仕上げ
  0
TEXT
  8
_0-3_
 62
    7
 10
121.25741447433936
 20
-38.559188565778356
 40
4
 41
1
 50
0
  1
品名
  0
LINE
  8
_0-3_
  6
CONTINUOUS
 62
    7
 10
305.33333332004827
 20
-68.800541471740075
 11
305.33333332004827
 21
-32.800541471740019
  0
LINE
  8
_0-3_
  6
CONTINUOUS
 62
    7
 10
492.00000000004832
 20
-32.800541471740019
 11
118.30557488476475
 21
-32.800541471740019
  0
LINE
  8
_0-3_
  6
CONTINUOUS
 62
    7
 10
492.00000000004832
 20
-44.800541471740019
 11
118.30557488476475
 21
-44.800541471740019
  0
LINE
  8
_0-3_
  6
CONTINUOUS
 62
    7
 10
492.00000000004832
 20
-56.800541471740019
 11
118.30557488476475
 21
-56.800541471740019
  0
LINE
  8
_0-3_
  6
CONTINUOUS
 62
    7
 10
118.30557488476475
 20
-68.800541471740019
 11
118.30557488476475
 21
-32.800541471740019
  0
TEXT
  8
_0-3_
 62
    7
 10
307.90644669306869
 20
-39.060319445408652
 40
4
 41
1
 50
0
  1
品番
  0
TEXT
  8
_0-3_
 62
    7
 10
307.90644669306869
 20
-50.739042164100738
 40
4
 41
1
 50
0
  1
縮尺
  0
TEXT
  8
_0-3_
 62
    7
 10
-66.888093986564627
 20
-76.72518315284276
 40
5
 41
1
 50
0
  1
120718SH
  0
LINE
  8
_0-3_
  6
CONTINUOUS
 62
    7
 10
-67.999999999951683
 20
321.1994585282601
 11
-67.999999999951683
 21
-68.800541471740019
  0
LINE
  8
_0-3_
  6
CONTINUOUS
 62
    7
 10
-67.999999999951683
 20
-68.800541471740019
 11
492.00000000004832
 21
-68.800541471740075
  0
LINE
  8
_0-3_
  6
CONTINUOUS
 62
    7
 10
492.00000000004832
 20
-68.800541471740075
 11
492.00000000004832
 21
321.19945852826004
  0
LINE
  8
_0-3_
  6
CONTINUOUS
 62
    7
 10
492.00000000004832
 20
321.19945852826004
 11
-67.999999999951683
 21
321.1994585282601
  0
TEXT
  8
_0-3_
 62
    7
 10
321.84362785127729
 20
-66.996859894418549
 40
6.2000000000000002
 41
1
 50
0
  1
大洋金物株式会社  ティーエフプラス事業部
  0
TEXT
  8
_0-3_
 62
    7
 10
322.25649152470066
 20
-54.000366323889125
 40
6.1081542968750009
 41
1
 50
0
  1
1/2
  0
TEXT
  8
_0-3_
 62
    7
 10
135.16691074515126
 20
-41.881749615713943
 40
6.1081542968750009
 41
1
 50
0
  1
ペーパーホルダー
  0
LINE
  8
_0-1_1_5
  6
CONTINUOUS
 62
    7
 10
341.61111230419726
 20
245.5776797225455
 11
325.72572305535095
 21
184.72742175880268
  0
LINE
  8
_0-1_1_5
  6
CONTINUOUS
 62
    7
 10
420.16752670082985
 20
236.47897910251228
 11
414.54259594191069
 21
238.22888109680824
  0
LINE
  8
_0-1_1_5
  6
CONTINUOUS
 62
    7
 10
420.16752670082985
 20
236.47897910251228
 11
414.54259594191069
 21
234.72907710821644
  0
LINE
  8
_0-1_1_5
  6
CONTINUOUS
 62
    7
 10
375.96857756030079
 20
234.72907710821644
 11
414.54259594191069
 21
234.72907710821644
  0
LINE
  8
_0-1_1_5
  6
CONTINUOUS
 62
    7
 10
376.00539983722763
 20
238.22888109680824
 11
414.54204201326286
 21
238.22888109680824
  0
LINE
  8
_0-1_1_5
  6
CONTINUOUS
 62
    7
 10
386.41794214731601
 20
234.84588736126031
 11
387.82417483704546
 21
238.3456913498521
  0
LINE
  8
_0-1_1_5
  6
CONTINUOUS
 62
    7
 10
387.82417483704546
 20
234.84588736126031
 11
389.23040752677559
 21
238.3456913498521
  0
LINE
  8
_0-1_1_5
  6
CONTINUOUS
 62
    7
 10
389.23040752677559
 20
234.84588736126031
 11
390.63664021650504
 21
238.3456913498521
  0
LINE
  8
_0-1_1_5
  6
CONTINUOUS
 62
    7
 10
390.63664021650504
 20
234.84588736126031
 11
392.04287290623495
 21
238.3456913498521
  0
LINE
  8
_0-1_1_5
  6
CONTINUOUS
 62
    7
 10
392.04287290623495
 20
234.84588736126031
 11
393.4491055959644
 21
238.3456913498521
  0
LINE
  8
_0-1_1_5
  6
CONTINUOUS
 62
    7
 10
393.4491055959644
 20
234.84588736126031
 11
394.85533828569453
 21
238.3456913498521
  0
LINE
  8
_0-1_1_5
  6
CONTINUOUS
 62
    7
 10
399.07403635488379
 20
234.84588736126031
 11
400.48026904461346
 21
238.3456913498521
  0
LINE
  8
_0-1_1_5
  6
CONTINUOUS
 62
    7
 10
397.66780366515388
 20
234.84588736126031
 11
399.07403635488379
 21
238.3456913498521
  0
LINE
  8
_0-1_1_5
  6
CONTINUOUS
 62
    7
 10
400.48026904461346
 20
234.84588736126031
 11
401.88650173434314
 21
238.3456913498521
  0
LINE
  8
_0-1_1_5
  6
CONTINUOUS
 62
    7
 10
401.88650173434314
 20
234.84588736126031
 11
403.29273442407282
 21
238.3456913498521
  0
LINE
  8
_0-1_1_5
  6
CONTINUOUS
 62
    7
 10
403.29273442407282
 20
234.84588736126031
 11
404.69896711380238
 21
238.3456913498521
  0
LINE
  8
_0-1_1_5
  6
CONTINUOUS
 62
    7
 10
404.69896711380238
 20
234.84588736126031
 11
406.1051998035324
 21
238.3456913498521
  0
LINE
  8
_0-1_1_5
  6
CONTINUOUS
 62
    7
 10
406.1051998035324
 20
234.84588736126031
 11
407.51143249326208
 21
238.3456913498521
  0
LINE
  8
_0-1_1_5
  6
CONTINUOUS
 62
    7
 10
407.51143249326208
 20
234.84588736126031
 11
408.91766518299175
 21
238.3456913498521
  0
LINE
  8
_0-1_1_5
  6
CONTINUOUS
 62
    7
 10
394.85533828569453
 20
234.84588736126031
 11
396.26157097542398
 21
238.3456913498521
  0
LINE
  8
_0-1_1_5
  6
CONTINUOUS
 62
    7
 10
408.91766518299175
 20
234.84588736126031
 11
410.32389787272166
 21
238.3456913498521
  0
LINE
  8
_0-1_1_5
  6
CONTINUOUS
 62
    7
 10
411.73013056245134
 20
234.84588736126031
 11
413.13636325218124
 21
238.3456913498521
  0
LINE
  8
_0-1_1_5
  6
CONTINUOUS
 62
    7
 10
413.13636325218124
 20
234.84588736126031
 11
414.54259594191069
 21
238.3456913498521
  0
LINE
  8
_0-1_1_5
  6
CONTINUOUS
 62
    7
 10
410.32389787272166
 20
234.84588736126031
 11
411.73013056245134
 21
238.3456913498521
  0
LINE
  8
_0-1_1_5
  6
CONTINUOUS
 62
    7
 10
396.26157097542398
 20
234.84588736126031
 11
397.66780366515388
 21
238.3456913498521
  0
LINE
  8
_0-1_1_5
  6
CONTINUOUS
 62
    7
 10
420.16752670082985
 20
256.26719871805687
 11
414.54259594191069
 21
258.01710071235277
  0
LINE
  8
_0-1_1_5
  6
CONTINUOUS
 62
    7
 10
420.16752670082985
 20
256.26719871805687
 11
414.54259594191069
 21
254.51729672376112
  0
LINE
  8
_0-1_1_5
  6
CONTINUOUS
 62
    7
 10
375.96857756030079
 20
254.51729672376112
 11
414.54259594191069
 21
254.51729672376112
  0
LINE
  8
_0-1_1_5
  6
CONTINUOUS
 62
    7
 10
376.00539983722763
 20
258.01710071235277
 11
414.54204201326286
 21
258.01710071235277
  0
LINE
  8
_0-1_1_5
  6
CONTINUOUS
 62
    7
 10
386.41794214731601
 20
254.63410697680493
 11
387.82417483704546
 21
258.13391096539669
  0
LINE
  8
_0-1_1_5
  6
CONTINUOUS
 62
    7
 10
387.82417483704546
 20
254.63410697680493
 11
389.23040752677559
 21
258.13391096539669
  0
LINE
  8
_0-1_1_5
  6
CONTINUOUS
 62
    7
 10
389.23040752677559
 20
254.63410697680493
 11
390.63664021650504
 21
258.13391096539669
  0
LINE
  8
_0-1_1_5
  6
CONTINUOUS
 62
    7
 10
390.63664021650504
 20
254.63410697680493
 11
392.04287290623495
 21
258.13391096539669
  0
LINE
  8
_0-1_1_5
  6
CONTINUOUS
 62
    7
 10
392.04287290623495
 20
254.63410697680493
 11
393.4491055959644
 21
258.13391096539669
  0
LINE
  8
_0-1_1_5
  6
CONTINUOUS
 62
    7
 10
393.4491055959644
 20
254.63410697680493
 11
394.85533828569453
 21
258.13391096539669
  0
LINE
  8
_0-1_1_5
  6
CONTINUOUS
 62
    7
 10
399.07403635488379
 20
254.63410697680493
 11
400.48026904461346
 21
258.13391096539669
  0
LINE
  8
_0-1_1_5
  6
CONTINUOUS
 62
    7
 10
397.66780366515388
 20
254.63410697680493
 11
399.07403635488379
 21
258.13391096539669
  0
LINE
  8
_0-1_1_5
  6
CONTINUOUS
 62
    7
 10
400.48026904461346
 20
254.63410697680493
 11
401.88650173434314
 21
258.13391096539669
  0
LINE
  8
_0-1_1_5
  6
CONTINUOUS
 62
    7
 10
401.88650173434314
 20
254.63410697680493
 11
403.29273442407282
 21
258.13391096539669
  0
LINE
  8
_0-1_1_5
  6
CONTINUOUS
 62
    7
 10
403.29273442407282
 20
254.63410697680493
 11
404.69896711380238
 21
258.13391096539669
  0
LINE
  8
_0-1_1_5
  6
CONTINUOUS
 62
    7
 10
404.69896711380238
 20
254.63410697680493
 11
406.1051998035324
 21
258.13391096539669
  0
LINE
  8
_0-1_1_5
  6
CONTINUOUS
 62
    7
 10
406.1051998035324
 20
254.63410697680493
 11
407.51143249326208
 21
258.13391096539669
  0
LINE
  8
_0-1_1_5
  6
CONTINUOUS
 62
    7
 10
407.51143249326208
 20
254.63410697680493
 11
408.91766518299175
 21
258.13391096539669
  0
LINE
  8
_0-1_1_5
  6
CONTINUOUS
 62
    7
 10
394.85533828569453
 20
254.63410697680493
 11
396.26157097542398
 21
258.13391096539669
  0
LINE
  8
_0-1_1_5
  6
CONTINUOUS
 62
    7
 10
408.91766518299175
 20
254.63410697680493
 11
410.32389787272166
 21
258.13391096539669
  0
LINE
  8
_0-1_1_5
  6
CONTINUOUS
 62
    7
 10
411.73013056245134
 20
254.63410697680493
 11
413.13636325218124
 21
258.13391096539669
  0
LINE
  8
_0-1_1_5
  6
CONTINUOUS
 62
    7
 10
413.13636325218124
 20
254.63410697680493
 11
414.54259594191069
 21
258.13391096539669
  0
LINE
  8
_0-1_1_5
  6
CONTINUOUS
 62
    7
 10
410.32389787272166
 20
254.63410697680493
 11
411.73013056245134
 21
258.13391096539669
  0
LINE
  8
_0-1_1_5
  6
CONTINUOUS
 62
    7
 10
396.26157097542398
 20
254.63410697680493
 11
397.66780366515388
 21
258.13391096539669
  0
LINE
  8
_0-1_1_5
  6
CONTINUOUS
 62
    7
 10
385.01794214731592
 20
254.63410697680493
 11
386.4241748370456
 21
258.13391096539669
  0
LINE
  8
_0-1_1_5
  6
CONTINUOUS
 62
    7
 10
385.01794214731592
 20
234.84588736126031
 11
386.4241748370456
 21
238.3456913498521
  0
LINE
  8
_0-1_1_5
  6
CONTINUOUS
 62
    7
 10
383.61794214731606
 20
254.63410697680493
 11
385.02417483704573
 21
258.13391096539669
  0
LINE
  8
_0-1_1_5
  6
CONTINUOUS
 62
    7
 10
382.21794214731597
 20
254.63410697680493
 11
383.62417483704564
 21
258.13391096539669
  0
LINE
  8
_0-1_1_5
  6
CONTINUOUS
 62
    7
 10
380.8179421473161
 20
254.63410697680493
 11
382.22417483704578
 21
258.13391096539669
  0
LINE
  8
_0-1_1_5
  6
CONTINUOUS
 62
    7
 10
383.61794214731606
 20
234.84588736126031
 11
385.02417483704573
 21
238.3456913498521
  0
LINE
  8
_0-1_1_5
  6
CONTINUOUS
 62
    7
 10
382.21794214731597
 20
234.84588736126031
 11
383.62417483704564
 21
238.3456913498521
  0
LINE
  8
_0-1_1_5
  6
CONTINUOUS
 62
    7
 10
380.8179421473161
 20
234.84588736126031
 11
382.22417483704578
 21
238.3456913498521
  0
LINE
  8
_0-1_1_5
  6
CENTER2
 62
    7
 10
379.41794214731624
 20
234.84588736126031
 11
380.82417483704569
 21
238.3456913498521
  0
LINE
  8
_0-1_1_5
  6
CENTER2
 62
    7
 10
378.01794214731615
 20
234.84588736126031
 11
379.42417483704583
 21
238.3456913498521
  0
LINE
  8
_0-1_1_5
  6
CENTER2
 62
    7
 10
376.61794214731606
 20
234.84588736126031
 11
378.02417483704596
 21
238.3456913498521
  0
LINE
  8
_0-1_1_5
  6
CENTER2
 62
    7
 10
375.96857756030101
 20
236.71405386850287
 11
376.62417483704564
 21
238.3456913498521
  0
LINE
  8
_0-1_1_5
  6
CENTER2
 62
    7
 10
374.21847955459691
 20
239.97897910251234
 11
375.96857756030101
 21
238.22888109680824
  0
LINE
  8
_0-1_1_5
  6
CENTER2
 62
    7
 10
374.21847955459691
 20
232.9789791025124
 11
375.96857756030079
 21
234.72907710821644
  0
LINE
  8
_0-1_1_5
  6
CENTER2
 62
    7
 10
375.96857756030101
 20
238.22888109680824
 11
375.96857756030101
 21
234.72907710821644
  0
LINE
  8
_0-1_1_5
  6
CENTER2
 62
    7
 10
379.41794214731624
 20
254.63410697680493
 11
380.82417483704569
 21
258.13391096539669
  0
LINE
  8
_0-1_1_5
  6
CENTER2
 62
    7
 10
378.01794214731615
 20
254.63410697680493
 11
379.42417483704583
 21
258.13391096539669
  0
LINE
  8
_0-1_1_5
  6
CENTER2
 62
    7
 10
376.61794214731606
 20
254.63410697680493
 11
378.02417483704596
 21
258.13391096539669
  0
LINE
  8
_0-1_1_5
  6
CENTER2
 62
    7
 10
375.96857756030101
 20
256.50227348404746
 11
376.62417483704564
 21
258.13391096539669
  0
LINE
  8
_0-1_1_5
  6
CENTER2
 62
    7
 10
374.21847955459691
 20
259.76719871805687
 11
375.96857756030101
 21
258.01710071235277
  0
LINE
  8
_0-1_1_5
  6
CENTER2
 62
    7
 10
374.21847955459691
 20
252.76719871805702
 11
375.96857756030079
 21
254.51729672376112
  0
LINE
  8
_0-1_1_5
  6
CENTER2
 62
    7
 10
375.96857756030101
 20
258.01710071235277
 11
375.96857756030101
 21
254.51729672376112
  0
LINE
  8
_0-1_1_5
  6
CENTER2
 62
    7
 10
380.71847955459691
 20
266.37308891028465
 11
374.21847955459691
 21
262.62031216055209
  0
LINE
  8
_0-1_1_5
  6
CENTER2
 62
    7
 10
374.21847955459691
 20
262.62031216055209
 11
374.21847955459691
 21
230.12586566001724
  0
LINE
  8
_0-1_1_5
  6
CENTER2
 62
    7
 10
374.21847955459691
 20
232.9789791025124
 11
374.21847955459691
 21
239.97897910251234
  0
LINE
  8
_0-1_1_5
  6
CENTER2
 62
    7
 10
374.21847955459691
 20
252.76719871805702
 11
374.21847955459691
 21
259.76719871805687
  0
LINE
  8
_0-1_1_5
  6
CENTER2
 62
    7
 10
380.71847955459691
 20
226.37308891028468
 11
374.21847955459691
 21
230.12586566001724
  0
POINT
  8
_0-2_ADD_LINE
 62
    7
 10
77.995484734042748
 20
182.43360624866438
  0
POINT
  8
_0-2_ADD_LINE
 62
    7
 10
77.995484734042748
 20
196.38851708249862
  0
LINE
  8
_0-3_
  6
CONTINUOUS
 62
    7
 10
77.995484734042748
 20
182.43360624866438
 11
77.995484734042748
 21
196.38851708249862
  0
TEXT
  8
_0-2_ADD_LINE
 62
    4
 10
76.995484734042748
 20
186.91106166558149
 40
5
 41
1
 50
90
  1
14
  0
LINE
  8
_0-2_ADD_LINE
  6
CONTINUOUS
 62
    7
 10
77.995484734042748
 20
196.38851708249862
 11
104.01265826446183
 21
196.38851708249862
  0
LINE
  8
_0-2_ADD_LINE
  6
CONTINUOUS
 62
    7
 10
77.995484734042748
 20
182.43360624866438
 11
91.4954847340382
 21
182.43360624866438
  0
LINE
  8
_0-3_
  6
CONTINUOUS
 62
    7
 10
93.05764768112067
 20
156.40675444840952
 11
234.01522638388985
 21
156.40675444840952
  0
TEXT
  8
_0-2_ADD_LINE
 62
    4
 10
159.78643703250526
 20
157.40675444840952
 40
5
 41
1
 50
0
  1
141
  0
LINE
  8
_0-2_ADD_LINE
  6
CONTINUOUS
 62
    7
 10
93.05764768112067
 20
156.40675444840952
 11
93.05764768112067
 21
180.9336041356384
  0
POINT
  8
_0-2_ADD_LINE
 62
    7
 10
93.05764768112067
 20
156.40675444840952
  0
POINT
  8
_0-2_ADD_LINE
 62
    7
 10
234.01522638388985
 20
156.40675444840952
  0
LINE
  8
_0-2_ADD_LINE
  6
CONTINUOUS
 62
    7
 10
234.01522638388985
 20
156.40675444840952
 11
234.01522638388985
 21
192.43850978190557
  0
POINT
  8
_0-2_ADD_LINE
 62
    7
 10
234.01522638388985
 20
-13.827576487201497
  0
POINT
  8
_0-2_ADD_LINE
 62
    7
 10
231.01522638388985
 20
-13.827576487201497
  0
LINE
  8
_0-3_
  6
CONTINUOUS
 62
    7
 10
234.01522638388985
 20
-13.827576487201497
 11
231.01522638388985
 21
-13.827576487201497
  0
TEXT
  8
_0-2_ADD_LINE
 62
    4
 10
231.26522638388985
 20
-12.827576487201497
 40
5
 41
1
 50
0
  1
3
  0
POINT
  8
_0-2_ADD_LINE
 62
    7
 10
106.01522638388985
 20
-13.827576487201497
  0
LINE
  8
_0-3_
  6
CONTINUOUS
 62
    7
 10
231.01522638388985
 20
-13.827576487201497
 11
106.01522638388985
 21
-13.827576487201497
  0
TEXT
  8
_0-2_ADD_LINE
 62
    4
 10
164.76522638388985
 20
-12.827576487201497
 40
5
 41
1
 50
0
  1
125
  0
POINT
  8
_0-2_ADD_LINE
 62
    7
 10
92.995689680339638
 20
-13.827576487201497
  0
LINE
  8
_0-3_
  6
CONTINUOUS
 62
    7
 10
106.01522638388985
 20
-13.827576487201497
 11
92.995689680339638
 21
-13.827576487201497
  0
TEXT
  8
_0-2_ADD_LINE
 62
    4
 10
97.005458032114745
 20
-12.827576487201497
 40
5
 41
1
 50
0
  1
13
  0
POINT
  8
_0-2_ADD_LINE
 62
    7
 10
234.01522638388985
 20
-23.827576487201497
  0
POINT
  8
_0-2_ADD_LINE
 62
    7
 10
41.515226383889967
 20
-23.827576487201497
  0
LINE
  8
_0-3_
  6
CONTINUOUS
 62
    7
 10
234.01522638388985
 20
-23.827576487201497
 11
41.515226383889967
 21
-23.827576487201497
  0
TEXT
  8
_0-2_ADD_LINE
 62
    4
 10
134.01522638388991
 20
-22.827576487201497
 40
5
 41
1
 50
0
  1
193
  0
LINE
  8
_0-2_ADD_LINE
  6
CONTINUOUS
 62
    7
 10
234.01522638388985
 20
-23.827576487201497
 11
234.01522638388985
 21
58.95809314242365
  0
LINE
  8
_0-2_ADD_LINE
  6
CONTINUOUS
 62
    7
 10
231.01522638388985
 20
-13.827576487201497
 11
231.01522638388985
 21
0.0724784444391275
  0
LINE
  8
_0-2_ADD_LINE
  6
CONTINUOUS
 62
    7
 10
106.01522638388985
 20
-13.827576487201497
 11
106.01522638388985
 21
0.0724784444391275
  0
LINE
  8
_0-2_ADD_LINE
  6
CONTINUOUS
 62
    7
 10
92.995689680339638
 20
-13.827576487201497
 11
92.995689680339638
 21
50.35528579148945
  0
LINE
  8
_0-2_ADD_LINE
  6
CONTINUOUS
 62
    7
 10
41.515226383889967
 20
-23.827576487201497
 11
41.515226383889967
 21
108.95528579148952
  0
POINT
  8
_0-2_ADD_LINE
 62
    7
 10
77.995689680339638
 20
64.047102036708168
  0
LINE
  8
_0-3_
  6
CONTINUOUS
 62
    7
 10
77.995689680339638
 20
64.047102036708168
 11
77.995689680339638
 21
58.047102036708168
  0
TEXT
  8
_0-2_ADD_LINE
 62
    4
 10
76.995689680339638
 20
59.797102036708168
 40
5
 41
1
 50
90
  1
6
  0
LINE
  8
_0-2_ADD_LINE
  6
CONTINUOUS
 62
    7
 10
77.995689680339638
 20
58.047102036708168
 11
91.495689680339638
 21
58.047102036708168
  0
LINE
  8
_0-2_ADD_LINE
  6
CONTINUOUS
 62
    7
 10
77.995689680339638
 20
64.047102036708168
 11
91.495689680339638
 21
64.047102036708168
  0
LINE
  8
_0-3_
  6
CONTINUOUS
 62
    7
 10
61.015226383889967
 20
95.052123119940219
 11
71.015226383889967
 21
95.052123119940219
  0
TEXT
  8
_0-2_ADD_LINE
 62
    4
 10
54.466114939632121
 20
95.817398492720841
 40
5
 41
1
 50
0
  1
10
  0
TEXT
  8
_0-2_ADD_LINE
 62
    4
 10
50.027517777504613
 20
96.123508641833084
 40
5
 41
1
 50
0
  1
φ
  0
LINE
  8
_0-2_ADD_LINE
  6
CONTINUOUS
 62
    7
 10
61.015226383889967
 20
95.052123119940219
 11
50.690856882831099
 21
95.052123119940219
  0
POINT
  8
_0-2_ADD_LINE
 62
    7
 10
380.71847955459691
 20
285.87308891028459
  0
POINT
  8
_0-2_ADD_LINE
 62
    7
 10
338.73060368549136
 20
285.87308891028459
  0
LINE
  8
_0-3_
  6
CONTINUOUS
 62
    7
 10
380.71847955459691
 20
285.87308891028459
 11
338.73060368549136
 21
285.87308891028459
  0
TEXT
  8
_0-2_ADD_LINE
 62
    4
 10
357.22454162004414
 20
286.87308891028459
 40
5
 41
1
 50
0
  1
42
  0
POINT
  8
_0-2_ADD_LINE
 62
    7
 10
380.71847955459691
 20
295.87308891028459
  0
POINT
  8
_0-2_ADD_LINE
 62
    7
 10
333.73060368549147
 20
295.87308891028459
  0
LINE
  8
_0-3_
  6
CONTINUOUS
 62
    7
 10
380.71847955459691
 20
295.87308891028459
 11
333.73060368549147
 21
295.87308891028459
  0
TEXT
  8
_0-2_ADD_LINE
 62
    4
 10
354.72454162004419
 20
296.87308891028459
 40
5
 41
1
 50
0
  1
47
  0
POINT
  8
_0-2_ADD_LINE
 62
    7
 10
380.7184795545968
 20
305.87308891028459
  0
POINT
  8
_0-2_ADD_LINE
 62
    7
 10
262.93561727590577
 20
305.87308891028459
  0
LINE
  8
_0-3_
  6
CONTINUOUS
 62
    7
 10
380.7184795545968
 20
305.87308891028459
 11
262.93561727590577
 21
305.87308891028459
  0
TEXT
  8
_0-2_ADD_LINE
 62
    4
 10
318.07704841525128
 20
306.87308891028459
 40
5
 41
1
 50
0
  1
118
  0
LINE
  8
_0-2_ADD_LINE
  6
CONTINUOUS
 62
    7
 10
380.71847955459691
 20
285.87308891028459
 11
380.71847955459691
 21
272.87308891028459
  0
LINE
  8
_0-2_ADD_LINE
  6
CONTINUOUS
 62
    7
 10
380.71847955459691
 20
295.87308891028459
 11
380.71847955459691
 21
272.87308891028459
  0
LINE
  8
_0-2_ADD_LINE
  6
CONTINUOUS
 62
    7
 10
380.7184795545968
 20
305.87308891028459
 11
380.7184795545968
 21
272.87308891028459
  0
LINE
  8
_0-2_ADD_LINE
  6
CONTINUOUS
 62
    7
 10
333.73060368549147
 20
295.87308891028459
 11
333.73060368549147
 21
255.37308891028459
  0
LINE
  8
_0-2_ADD_LINE
  6
CONTINUOUS
 62
    7
 10
262.93561727590577
 20
305.87308891028459
 11
262.93561727590577
 21
177.04307352587318
  0
POINT
  8
_0-2_ADD_LINE
 62
    7
 10
371.2184795545968
 20
206.87308891028454
  0
POINT
  8
_0-2_ADD_LINE
 62
    7
 10
380.71847955459691
 20
206.87308891028454
  0
LINE
  8
_0-3_
  6
CONTINUOUS
 62
    7
 10
371.2184795545968
 20
206.87308891028454
 11
380.71847955459691
 21
206.87308891028454
  0
TEXT
  8
_0-2_ADD_LINE
 62
    4
 10
373.46847955459685
 20
207.87308891028454
 40
5
 41
1
 50
0
  1
10
  0
POINT
  8
_0-2_ADD_LINE
 62
    7
 10
380.7184795545968
 20
167.4347292716142
  0
LINE
  8
_0-2_ADD_LINE
  6
CONTINUOUS
 62
    7
 10
371.2184795545968
 20
206.87308891028454
 11
371.2184795545968
 21
221.37308891028459
  0
LINE
  8
_0-2_ADD_LINE
  6
CONTINUOUS
 62
    7
 10
380.71847955459691
 20
206.87308891028454
 11
380.71847955459691
 21
219.87308891028454
  0
LINE
  8
_0-2_ADD_LINE
  6
CONTINUOUS
 62
    7
 10
395.71847955459691
 20
221.87308891028454
 11
382.71847955459691
 21
221.87308891028454
  0
LINE
  8
_0-3_
  6
CONTINUOUS
 62
    7
 10
395.71847955459691
 20
270.87308891028459
 11
395.71847955459691
 21
221.87308891028454
  0
TEXT
  8
_0-2_ADD_LINE
 62
    4
 10
395.33000119355836
 20
214.92051048023109
 40
5
 41
1
 50
90
  1
49
  0
LINE
  8
_0-2_ADD_LINE
  6
CONTINUOUS
 62
    7
 10
395.71847955459691
 20
221.87308891028454
 11
395.71847955459691
 21
208.82646052629121
  0
POINT
  8
_0-2_ADD_LINE
 62
    7
 10
395.71847955459691
 20
221.87308891028454
  0
POINT
  8
_0-2_ADD_LINE
 62
    7
 10
395.71847955459691
 20
270.87308891028459
  0
LINE
  8
_0-2_ADD_LINE
  6
CONTINUOUS
 62
    7
 10
395.71847955459691
 20
270.87308891028454
 11
382.71847955459691
 21
270.87308891028454
  0
TEXT
  8
_0-2_ADD_LINE
 62
    4
 10
395.52098008142366
 20
209.59037607775252
 40
5
 41
1
 50
90
  1
φ
  0
LINE
  8
_0-3_
  6
CONTINUOUS
 62
    7
 10
355.16721453997548
 20
242.07900956998546
 11
339.25386169063154
 21
181.12193285946498
  0
TEXT
  8
_0-2_ADD_LINE
 62
    4
 10
345.61148321317842
 20
209.4341325015989
 40
5
 41
1
 50
75.368999999999758
  1
63
  0
POINT
  8
_0-2_ADD_LINE
 62
    7
 10
355.16721453997548
 20
242.07900956998546
  0
LINE
  8
_0-2_ADD_LINE
  6
CONTINUOUS
 62
    7
 10
339.25386169063154
 20
181.12193285946498
 11
326.6754172900479
 21
184.40564059028199
  0
POINT
  8
_0-2_ADD_LINE
 62
    7
 10
339.25386169063154
 20
181.12193285946498
  0
LINE
  8
_0-3_
  6
CONTINUOUS
 62
    7
 10
380.7184795545968
 20
167.4347292716142
 11
322.81029579981544
 21
167.4347292716142
  0
TEXT
  8
_0-2_ADD_LINE
 62
    4
 10
349.26438767720612
 20
168.4347292716142
 40
5
 41
1
 50
0
  1
58
  0
POINT
  8
_0-2_ADD_LINE
 62
    7
 10
322.81029579981544
 20
167.4347292716142
  0
LINE
  8
_0-2_ADD_LINE
  6
CONTINUOUS
 62
    7
 10
322.81029579981544
 20
167.4347292716142
 11
322.81029579981544
 21
180.4347292716142
  0
LINE
  8
_0-2_ADD_LINE
  6
CONTINUOUS
 62
    7
 10
380.7184795545968
 20
167.4347292716142
 11
380.7184795545968
 21
219.87308891028454
  0
TEXT
  8
_0-2_ADD_LINE
 62
    7
 10
404.78767351558815
 20
199.84508133201516
 40
6
 41
1
 50
0
  1
タッピングビス
  0
TEXT
  8
_0-2_ADD_LINE
 62
    7
 10
405.53601858522154
 20
192.33382940957932
 40
6
 41
1
 50
0
  1
3.5×45
  0
LINE
  8
_0-2_ADD_LINE
  6
CONTINUOUS
 62
    7
 10
407.63595607651234
 20
236.16032339734213
 11
407.63595607651234
 21
208.73226732328547
  0
LINE
  8
_0-1_1_5
  6
CONTINUOUS
 62
    7
 10
231.01522638388985
 20
251.37316131502064
 11
231.01500591694344
 21
177.55763366501353
  0
LINE
  8
_0-1_1_5
  6
CONTINUOUS
 62
    7
 10
106.00490577853498
 20
251.37495409169281
 11
106.01531777705031
 21
177.52526176078504
  0
ARC
  8
_0-1_1_5
  6
CONTINUOUS
 62
    7
 10
109.01507931077936
 20
177.56308689474926
 40
3.0000000000000089
 50
180.00849829367098
 51
270
  0
ARC
  8
_0-1_1_5
  6
CONTINUOUS
 62
    7
 10
228.01501087258339
 20
177.56308653723639
 40
3.0000000000000067
 50
270.02797195825866
 51
0.0000000000000127
  0
LINE
  8
_0-1_1_5
  6
CONTINUOUS
 62
    7
 10
109.01507931077936
 20
174.56308689474926
 11
228.01647547691414
 21
174.56308689474926
  0
LINE
  8
_0-1_1_5
  6
CONTINUOUS
 62
    7
 10
231.01522638409574
 20
251.37323026249587
 11
106.00490577853498
 21
251.37495409169281
  0
LINE
  8
_0-1_1_5
  6
CONTINUOUS
 62
    7
 10
105.01522638388985
 20
251.37308891028459
 11
106.00638928724925
 21
251.37308891028459
  0
LINE
  8
_0-1_1_5
  6
CONTINUOUS
 62
    7
 10
106.00638928724925
 20
251.37308891028459
 11
106.00638928724925
 21
241.37308891028459
  0
LINE
  8
_0-1_1_5
  6
CONTINUOUS
 62
    7
 10
106.00638928724925
 20
241.37308891028459
 11
105.01522638388985
 21
241.37308891028459
  0
LINE
  8
_0-1_1_5
  6
CONTINUOUS
 62
    7
 10
105.01522638388985
 20
241.37308891028459
 11
105.01522638388985
 21
251.37308891028459
  0
ARC
  8
_0-1_1_5
  6
CONTINUOUS
 62
    7
 10
66.015226383889967
 20
246.37308891028459
 40
24.499999999999869
 50
11.775743985866812
 51
348.22425601413335
  0
ARC
  8
_0-1_1_5
  6
CONTINUOUS
 62
    7
 10
66.015226383889967
 20
246.37308891028459
 40
4.9999999999999991
 50
90
 51
270
  0
LINE
  8
_0-1_1_5
  6
CONTINUOUS
 62
    7
 10
66.015226383889967
 20
251.37308891028459
 11
105.01522638388985
 21
251.37308891028459
  0
LINE
  8
_0-1_1_5
  6
CONTINUOUS
 62
    7
 10
66.015226383889967
 20
241.37308891028459
 11
105.01522638388985
 21
241.37308891028459
  0
LINE
  8
_0-1_1_5
  6
CONTINUOUS
 62
    7
 10
105.01522638388985
 20
251.37308891028459
 11
105.01522638388985
 21
241.37308891028459
  0
LINE
  8
_0-1_1_5
  6
CONTINUOUS
 62
    7
 10
94.475547123611591
 20
196.41519660710941
 11
94.475547123611591
 21
196.41293563909176
  0
LINE
  8
_0-1_1_5
  6
CONTINUOUS
 62
    7
 10
104.51508499751594
 20
195.97294701446555
 11
104.51511271867992
 21
188.43363151776242
  0
LINE
  8
_0-1_1_5
  6
CONTINUOUS
 62
    7
 10
234.01522638388985
 20
194.43850978190557
 11
234.01522638388985
 21
237.37539547985665
  0
LINE
  8
_0-1_1_5
  6
CONTINUOUS
 62
    7
 10
94.575547123611614
 20
188.43360624866432
 11
94.574728250005137
 21
188.43360624866432
  0
ARC
  8
_0-1_1_5
  6
CONTINUOUS
 62
    7
 10
93.557647681116123
 20
182.93360624866432
 40
0.4999999999999741
 50
180.00024213493703
 51
270.00000000000324
  0
LINE
  8
_0-1_1_5
  6
CONTINUOUS
 62
    7
 10
93.057626551101635
 20
187.93354723384795
 11
93.05764768112067
 21
182.9336041356384
  0
ARC
  8
_0-1_1_5
  6
CONTINUOUS
 62
    7
 10
93.557626551097201
 20
187.93354934687392
 40
0.4999999999999744
 50
90.000724476723647
 51
180.00024213494029
  0
LINE
  8
_0-1_1_5
  6
CONTINUOUS
 62
    7
 10
93.549726395060475
 20
188.43348693051269
 11
104.51511271867992
 21
188.43363151776242
  0
LINE
  8
_0-1_1_5
  6
CENTER2
 62
    7
 10
66.015226383889967
 20
232.47897910251231
 11
66.015226383889967
 21
240.47897910251231
  0
LINE
  8
_0-1_1_5
  6
CENTER2
 62
    7
 10
71.015226383889967
 20
236.47897910251231
 11
61.015226383889967
 21
236.47897910251231
  0
LINE
  8
_0-1_1_5
  6
CENTER2
 62
    7
 10
70.015226383889967
 20
236.47897910251231
 11
70.015226383889967
 21
236.47897910251231
  0
LINE
  8
_0-1_1_5
  6
CENTER2
 62
    7
 10
70.015226383889967
 20
236.47897910251231
 11
69.954457395938803
 21
237.03465327104649
  0
LINE
  8
_0-1_1_5
  6
CENTER2
 62
    7
 10
69.954457395938803
 20
237.03465327104649
 11
69.773996867033603
 21
237.57344356115445
  0
LINE
  8
_0-1_1_5
  6
CENTER2
 62
    7
 10
69.773996867033603
 20
237.57344356115445
 11
69.479327999027717
 21
238.07897910251231
  0
LINE
  8
_0-1_1_5
  6
CENTER2
 62
    7
 10
69.479327999027717
 20
238.07897910251231
 11
69.079404156365882
 21
238.53589945350924
  0
LINE
  8
_0-1_1_5
  6
CENTER2
 62
    7
 10
69.079404156365882
 20
238.53589945350924
 11
68.586376822636126
 21
238.93032132049305
  0
LINE
  8
_0-1_1_5
  6
CENTER2
 62
    7
 10
68.586376822636126
 20
238.93032132049305
 11
68.015226383889967
 21
239.25026039462253
  0
LINE
  8
_0-1_1_5
  6
CENTER2
 62
    7
 10
68.015226383889967
 20
239.25026039462253
 11
67.383306957192644
 21
239.48599548902723
  0
LINE
  8
_0-1_1_5
  6
CENTER2
 62
    7
 10
67.383306957192644
 20
239.48599548902723
 11
66.709819094557687
 21
239.63036391215138
  0
LINE
  8
_0-1_1_5
  6
CENTER2
 62
    7
 10
66.709819094557687
 20
239.63036391215138
 11
66.015226383889967
 21
239.6789791025123
  0
LINE
  8
_0-1_1_5
  6
CENTER2
 62
    7
 10
66.015226383889967
 20
239.6789791025123
 11
65.320633673222247
 21
239.63036391215138
  0
LINE
  8
_0-1_1_5
  6
CENTER2
 62
    7
 10
65.320633673222247
 20
239.63036391215138
 11
64.64714581058729
 21
239.48599548902723
  0
LINE
  8
_0-1_1_5
  6
CENTER2
 62
    7
 10
64.64714581058729
 20
239.48599548902723
 11
64.015226383889967
 21
239.25026039462253
  0
LINE
  8
_0-1_1_5
  6
CENTER2
 62
    7
 10
64.015226383889967
 20
239.25026039462253
 11
63.444075945143808
 21
238.93032132049305
  0
LINE
  8
_0-1_1_5
  6
CENTER2
 62
    7
 10
63.444075945143808
 20
238.93032132049305
 11
62.951048611414059
 21
238.53589945350924
  0
LINE
  8
_0-1_1_5
  6
CENTER2
 62
    7
 10
62.951048611414059
 20
238.53589945350924
 11
62.551124768752217
 21
238.07897910251231
  0
LINE
  8
_0-1_1_5
  6
CENTER2
 62
    7
 10
62.551124768752217
 20
238.07897910251231
 11
62.256455900746332
 21
237.57344356115445
  0
LINE
  8
_0-1_1_5
  6
CENTER2
 62
    7
 10
62.256455900746332
 20
237.57344356115445
 11
62.075995371841138
 21
237.03465327104649
  0
LINE
  8
_0-1_1_5
  6
CENTER2
 62
    7
 10
62.075995371841138
 20
237.03465327104649
 11
62.015226383889967
 21
236.47897910251231
  0
LINE
  8
_0-1_1_5
  6
CENTER2
 62
    7
 10
62.015226383889967
 20
236.47897910251231
 11
62.075995371841131
 21
235.92330493397813
  0
LINE
  8
_0-1_1_5
  6
CENTER2
 62
    7
 10
62.075995371841131
 20
235.92330493397813
 11
62.256455900746332
 21
235.38451464387018
  0
LINE
  8
_0-1_1_5
  6
CENTER2
 62
    7
 10
62.256455900746332
 20
235.38451464387018
 11
62.55112476875221
 21
234.87897910251232
  0
LINE
  8
_0-1_1_5
  6
CENTER2
 62
    7
 10
62.55112476875221
 20
234.87897910251232
 11
62.951048611414052
 21
234.42205875151538
  0
LINE
  8
_0-1_1_5
  6
CENTER2
 62
    7
 10
62.951048611414052
 20
234.42205875151538
 11
63.444075945143801
 21
234.02763688453157
  0
LINE
  8
_0-1_1_5
  6
CENTER2
 62
    7
 10
63.444075945143801
 20
234.02763688453157
 11
64.015226383889953
 21
233.70769781040212
  0
LINE
  8
_0-1_1_5
  6
CENTER2
 62
    7
 10
64.015226383889953
 20
233.70769781040212
 11
64.64714581058729
 21
233.47196271599742
  0
LINE
  8
_0-1_1_5
  6
CENTER2
 62
    7
 10
64.64714581058729
 20
233.47196271599742
 11
65.320633673222233
 21
233.32759429287324
  0
LINE
  8
_0-1_1_5
  6
CENTER2
 62
    7
 10
65.320633673222233
 20
233.32759429287324
 11
66.015226383889953
 21
233.27897910251232
  0
LINE
  8
_0-1_1_5
  6
CENTER2
 62
    7
 10
66.015226383889953
 20
233.27897910251232
 11
66.709819094557673
 21
233.32759429287324
  0
LINE
  8
_0-1_1_5
  6
CENTER2
 62
    7
 10
66.709819094557673
 20
233.32759429287324
 11
67.38330695719263
 21
233.47196271599739
  0
LINE
  8
_0-1_1_5
  6
CENTER2
 62
    7
 10
67.38330695719263
 20
233.47196271599739
 11
68.015226383889953
 21
233.7076978104021
  0
LINE
  8
_0-1_1_5
  6
CENTER2
 62
    7
 10
68.015226383889953
 20
233.7076978104021
 11
68.586376822636112
 21
234.02763688453157
  0
LINE
  8
_0-1_1_5
  6
CENTER2
 62
    7
 10
68.586376822636112
 20
234.02763688453157
 11
69.079404156365868
 21
234.42205875151538
  0
LINE
  8
_0-1_1_5
  6
CENTER2
 62
    7
 10
69.079404156365868
 20
234.42205875151538
 11
69.479327999027717
 21
234.87897910251229
  0
LINE
  8
_0-1_1_5
  6
CENTER2
 62
    7
 10
69.479327999027717
 20
234.87897910251229
 11
69.773996867033588
 21
235.38451464387015
  0
LINE
  8
_0-1_1_5
  6
CENTER2
 62
    7
 10
69.773996867033588
 20
235.38451464387015
 11
69.954457395938789
 21
235.92330493397813
  0
LINE
  8
_0-1_1_5
  6
CENTER2
 62
    7
 10
69.954457395938789
 20
235.92330493397813
 11
70.015226383889967
 21
236.47897910251228
  0
LINE
  8
_0-1_1_5
  6
CENTER2
 62
    7
 10
70.015226383889967
 20
236.47897910251228
 11
70.015226383889967
 21
236.47897910251231
  0
LINE
  8
_0-1_1_5
  6
CENTER2
 62
    7
 10
70.015226383889967
 20
256.26719871805687
 11
70.015226383889967
 21
256.26719871805687
  0
LINE
  8
_0-1_1_5
  6
CENTER2
 62
    7
 10
70.015226383889967
 20
256.26719871805687
 11
69.954457395938803
 21
256.82287288659103
  0
LINE
  8
_0-1_1_5
  6
CENTER2
 62
    7
 10
69.954457395938803
 20
256.82287288659103
 11
69.773996867033603
 21
257.36166317669904
  0
LINE
  8
_0-1_1_5
  6
CENTER2
 62
    7
 10
69.773996867033603
 20
257.36166317669904
 11
69.479327999027717
 21
257.8671987180569
  0
LINE
  8
_0-1_1_5
  6
CENTER2
 62
    7
 10
69.479327999027717
 20
257.8671987180569
 11
69.079404156365882
 21
258.32411906905378
  0
LINE
  8
_0-1_1_5
  6
CENTER2
 62
    7
 10
69.079404156365882
 20
258.32411906905378
 11
68.586376822636126
 21
258.71854093603758
  0
LINE
  8
_0-1_1_5
  6
CENTER2
 62
    7
 10
68.586376822636126
 20
258.71854093603758
 11
68.015226383889967
 21
259.03848001016706
  0
LINE
  8
_0-1_1_5
  6
CENTER2
 62
    7
 10
68.015226383889967
 20
259.03848001016706
 11
67.383306957192644
 21
259.27421510457179
  0
LINE
  8
_0-1_1_5
  6
CENTER2
 62
    7
 10
67.383306957192644
 20
259.27421510457179
 11
66.709819094557687
 21
259.41858352769594
  0
LINE
  8
_0-1_1_5
  6
CENTER2
 62
    7
 10
66.709819094557687
 20
259.41858352769594
 11
66.015226383889967
 21
259.46719871805686
  0
LINE
  8
_0-1_1_5
  6
CENTER2
 62
    7
 10
66.015226383889967
 20
259.46719871805686
 11
65.320633673222247
 21
259.41858352769594
  0
LINE
  8
_0-1_1_5
  6
CENTER2
 62
    7
 10
65.320633673222247
 20
259.41858352769594
 11
64.64714581058729
 21
259.27421510457179
  0
LINE
  8
_0-1_1_5
  6
CENTER2
 62
    7
 10
64.64714581058729
 20
259.27421510457179
 11
64.015226383889967
 21
259.03848001016706
  0
LINE
  8
_0-1_1_5
  6
CENTER2
 62
    7
 10
64.015226383889967
 20
259.03848001016706
 11
63.444075945143808
 21
258.71854093603758
  0
LINE
  8
_0-1_1_5
  6
CENTER2
 62
    7
 10
63.444075945143808
 20
258.71854093603758
 11
62.951048611414059
 21
258.32411906905378
  0
LINE
  8
_0-1_1_5
  6
CENTER2
 62
    7
 10
62.951048611414059
 20
258.32411906905378
 11
62.551124768752217
 21
257.8671987180569
  0
LINE
  8
_0-1_1_5
  6
CENTER2
 62
    7
 10
62.551124768752217
 20
257.8671987180569
 11
62.256455900746332
 21
257.36166317669904
  0
LINE
  8
_0-1_1_5
  6
CENTER2
 62
    7
 10
62.256455900746332
 20
257.36166317669904
 11
62.075995371841138
 21
256.82287288659103
  0
LINE
  8
_0-1_1_5
  6
CENTER2
 62
    7
 10
62.075995371841138
 20
256.82287288659103
 11
62.015226383889967
 21
256.26719871805687
  0
LINE
  8
_0-1_1_5
  6
CENTER2
 62
    7
 10
62.015226383889967
 20
256.26719871805687
 11
62.075995371841131
 21
255.71152454952269
  0
LINE
  8
_0-1_1_5
  6
CENTER2
 62
    7
 10
62.075995371841131
 20
255.71152454952269
 11
62.256455900746332
 21
255.17273425941474
  0
LINE
  8
_0-1_1_5
  6
CENTER2
 62
    7
 10
62.256455900746332
 20
255.17273425941474
 11
62.55112476875221
 21
254.66719871805688
  0
LINE
  8
_0-1_1_5
  6
CENTER2
 62
    7
 10
62.55112476875221
 20
254.66719871805688
 11
62.951048611414052
 21
254.21027836705994
  0
LINE
  8
_0-1_1_5
  6
CENTER2
 62
    7
 10
62.951048611414052
 20
254.21027836705994
 11
63.444075945143801
 21
253.81585650007614
  0
LINE
  8
_0-1_1_5
  6
CENTER2
 62
    7
 10
63.444075945143801
 20
253.81585650007614
 11
64.015226383889953
 21
253.49591742594669
  0
LINE
  8
_0-1_1_5
  6
CENTER2
 62
    7
 10
64.015226383889953
 20
253.49591742594669
 11
64.64714581058729
 21
253.26018233154198
  0
LINE
  8
_0-1_1_5
  6
CENTER2
 62
    7
 10
64.64714581058729
 20
253.26018233154198
 11
65.320633673222233
 21
253.11581390841781
  0
LINE
  8
_0-1_1_5
  6
CENTER2
 62
    7
 10
65.320633673222233
 20
253.11581390841781
 11
66.015226383889953
 21
253.06719871805689
  0
LINE
  8
_0-1_1_5
  6
CENTER2
 62
    7
 10
66.015226383889953
 20
253.06719871805689
 11
66.709819094557673
 21
253.11581390841781
  0
LINE
  8
_0-1_1_5
  6
CENTER2
 62
    7
 10
66.709819094557673
 20
253.11581390841781
 11
67.38330695719263
 21
253.26018233154196
  0
LINE
  8
_0-1_1_5
  6
CENTER2
 62
    7
 10
67.38330695719263
 20
253.26018233154196
 11
68.015226383889953
 21
253.49591742594666
  0
LINE
  8
_0-1_1_5
  6
CENTER2
 62
    7
 10
68.015226383889953
 20
253.49591742594666
 11
68.586376822636112
 21
253.81585650007614
  0
LINE
  8
_0-1_1_5
  6
CENTER2
 62
    7
 10
68.586376822636112
 20
253.81585650007614
 11
69.079404156365868
 21
254.21027836705994
  0
LINE
  8
_0-1_1_5
  6
CENTER2
 62
    7
 10
69.079404156365868
 20
254.21027836705994
 11
69.479327999027717
 21
254.66719871805685
  0
LINE
  8
_0-1_1_5
  6
CENTER2
 62
    7
 10
69.479327999027717
 20
254.66719871805685
 11
69.773996867033588
 21
255.17273425941471
  0
LINE
  8
_0-1_1_5
  6
CENTER2
 62
    7
 10
69.773996867033588
 20
255.17273425941471
 11
69.954457395938789
 21
255.71152454952269
  0
LINE
  8
_0-1_1_5
  6
CENTER2
 62
    7
 10
69.954457395938789
 20
255.71152454952269
 11
70.015226383889967
 21
256.26719871805687
  0
LINE
  8
_0-1_1_5
  6
CENTER2
 62
    7
 10
70.015226383889967
 20
256.26719871805687
 11
70.015226383889967
 21
256.26719871805687
  0
LINE
  8
_0-1_1_5
  6
CENTER2
 62
    7
 10
66.015226383889967
 20
260.26719871805687
 11
66.015226383889967
 21
252.26719871805693
  0
LINE
  8
_0-1_1_5
  6
CENTER2
 62
    7
 10
71.015226383889967
 20
256.26719871805687
 11
61.015226383889967
 21
256.26719871805687
  0
LINE
  8
_0-1_1_5
  6
CENTER2
 62
    7
 10
52.015226383889853
 20
263.37308891028459
 11
55.015226383890081
 21
266.37308891028459
  0
LINE
  8
_0-1_1_5
  6
CENTER2
 62
    7
 10
52.015226383889853
 20
263.37308891028459
 11
52.015226383889853
 21
229.37308891028459
  0
LINE
  8
_0-1_1_5
  6
CENTER2
 62
    7
 10
55.015226383890081
 20
226.37308891028459
 11
52.015226383889853
 21
229.37308891028459
  0
LINE
  8
_0-1_1_5
  6
CENTER2
 62
    7
 10
55.015226383890081
 20
226.37308891028459
 11
77.015226383889853
 21
226.37308891028459
  0
LINE
  8
_0-1_1_5
  6
CENTER2
 62
    7
 10
80.015226383890081
 20
229.37308891028459
 11
80.015226383890081
 21
263.37308891028459
  0
LINE
  8
_0-1_1_5
  6
CENTER2
 62
    7
 10
77.015226383889853
 20
266.37308891028459
 11
80.015226383890081
 21
263.37308891028459
  0
LINE
  8
_0-1_1_5
  6
CENTER2
 62
    7
 10
55.015226383890081
 20
266.37308891028459
 11
77.015226383889853
 21
266.37308891028459
  0
LINE
  8
_0-1_1_5
  6
CONTINUOUS
 62
    7
 10
106.01522638388985
 20
81.955285791489473
 11
216.05680394352567
 21
81.955285791489473
  0
LINE
  8
_0-1_1_5
  6
CONTINUOUS
 62
    7
 10
105.01522638388985
 20
81.955285791489473
 11
106.01522638388985
 21
81.955285791489473
  0
LINE
  8
_0-1_1_5
  6
CONTINUOUS
 62
    7
 10
106.01522638388985
 20
81.955285791489473
 11
106.01522638388985
 21
71.955285791489473
  0
LINE
  8
_0-1_1_5
  6
CONTINUOUS
 62
    7
 10
106.01522638388985
 20
71.955285791489473
 11
105.01522638388985
 21
71.955285791489473
  0
LINE
  8
_0-1_1_5
  6
CONTINUOUS
 62
    7
 10
105.01522638388985
 20
71.955285791489473
 11
105.01522638388985
 21
81.955285791489473
  0
LINE
  8
_0-1_1_5
  6
CONTINUOUS
 62
    7
 10
41.515226383889967
 20
110.95528579148952
 11
41.515226383889967
 21
118.95528579148954
  0
LINE
  8
_0-1_1_5
  6
CONTINUOUS
 62
    7
 10
41.515226383889967
 20
118.95528579148954
 11
90.515226383889853
 21
118.95528579148954
  0
LINE
  8
_0-1_1_5
  6
CONTINUOUS
 62
    7
 10
90.515226383889853
 20
118.95528579148954
 11
90.515226383889853
 21
110.95528579148952
  0
LINE
  8
_0-1_1_5
  6
CONTINUOUS
 62
    7
 10
89.015226383889853
 20
109.45528579148952
 11
43.015226383889967
 21
109.45528579148952
  0
LINE
  8
_0-1_1_5
  6
CONTINUOUS
 62
    7
 10
61.015226383889967
 20
109.45528579148952
 11
61.033291173457087
 21
86.955285791489516
  0
LINE
  8
_0-1_1_5
  6
CONTINUOUS
 62
    7
 10
71.015226383889967
 20
109.45528579148952
 11
71.015226383889967
 21
86.955285791489516
  0
LINE
  8
_0-1_1_5
  6
CONTINUOUS
 62
    7
 10
76.015226383889967
 20
71.955285791489473
 11
105.01522638388985
 21
71.955285791489473
  0
LINE
  8
_0-1_1_5
  6
CONTINUOUS
 62
    7
 10
76.015226383889967
 20
81.955285791489473
 11
105.01522638388985
 21
81.955285791489473
  0
LINE
  8
_0-1_1_5
  6
CONTINUOUS
 62
    7
 10
105.01522638388985
 20
81.955285791489473
 11
105.01522638388985
 21
71.955285791489473
  0
ARC
  8
_0-1_1_5
  6
CONTINUOUS
 62
    7
 10
76.015226383889967
 20
86.955285791489516
 40
5
 50
180
 51
270
  0
ARC
  8
_0-1_1_5
  6
CONTINUOUS
 62
    7
 10
76.033291173457087
 20
86.955285791489516
 40
15
 50
180
 51
270
  0
LINE
  8
_0-1_1_5
  6
CONTINUOUS
 62
    7
 10
228.01522638388985
 20
81.104427625297944
 11
217.4046909780177
 21
81.104427625297944
  0
ARC
  8
_0-1_1_5
  6
CONTINUOUS
 62
    7
 10
228.01522638388985
 20
78.104427625297944
 40
3
 50
0
 51
90
  0
ARC
  8
_0-1_1_5
  6
CONTINUOUS
 62
    7
 10
43.015226383889967
 20
110.95528579148952
 40
1.5
 50
180
 51
270
  0
ARC
  8
_0-1_1_5
  6
CONTINUOUS
 62
    7
 10
89.015226383889853
 20
110.95528579148952
 40
1.5
 50
270
 51
0
  0
LINE
  8
_0-1_1_5
  6
CONTINUOUS
 62
    7
 10
61.015226383889967
 20
99.337665207511648
 11
61.015226383889967
 21
107.45528579148952
  0
LINE
  8
_0-1_1_5
  6
CONTINUOUS
 62
    7
 10
71.015226383889967
 20
99.337665207511648
 11
71.015226383889967
 21
107.45528579148952
  0
LINE
  8
_0-1_1_5
  6
CONTINUOUS
 62
    7
 10
93.495689680339638
 20
64.047102036708168
 11
106.01522638388985
 21
64.047102036708168
  0
LINE
  8
_0-1_1_5
  6
CONTINUOUS
 62
    7
 10
93.495689680339638
 20
58.047102036708168
 11
106.01522638388985
 21
58.047102036708168
  0
LINE
  8
_0-1_1_5
  6
CONTINUOUS
 62
    7
 10
92.995689680339638
 20
63.547102036708168
 11
92.995689680339638
 21
58.547102036708168
  0
ARC
  8
_0-1_1_5
  6
CONTINUOUS
 62
    7
 10
93.495689680339638
 20
63.547102036708168
 40
0.5
 50
90
 51
180
  0
ARC
  8
_0-1_1_5
  6
CONTINUOUS
 62
    7
 10
93.495689680339638
 20
58.547102036708168
 40
0.5
 50
180
 51
270
  0
ARC
  8
_0-1_1_5
  6
CONTINUOUS
 62
    7
 10
106.49568968033964
 20
61.047102036708168
 40
2.0000000000000036
 50
108.68160471169092
 51
251.31839528830983
  0
LINE
  8
_0-1_1_5
  6
CONTINUOUS
 62
    7
 10
234.01522638388985
 20
77.150280814886912
 11
234.01522638388985
 21
60.95809314242365
  0
LINE
  8
_0-1_1_5
  6
CONTINUOUS
 62
    7
 10
231.01522638388985
 20
75.989804617061907
 11
231.01522638388985
 21
45.855340723130098
  0
LINE
  8
_0-1_1_5
  6
CONTINUOUS
 62
    7
 10
231.01522638388985
 20
59.056932070525448
 11
231.01522638388985
 21
59.056932070525448
  0
LINE
  8
_0-1_1_5
  6
CONTINUOUS
 62
    7
 10
231.01522638388985
 20
59.056932070525448
 11
232.26116840553198
 21
59.476976384496488
  0
LINE
  8
_0-1_1_5
  6
CONTINUOUS
 62
    7
 10
232.26116840553198
 20
59.476976384496488
 11
233.19642204960712
 21
59.944728171888066
  0
LINE
  8
_0-1_1_5
  6
CONTINUOUS
 62
    7
 10
233.19642204960712
 20
59.944728171888066
 11
233.79257010740127
 21
60.445975031334108
  0
LINE
  8
_0-1_1_5
  6
CONTINUOUS
 62
    7
 10
233.79257010740127
 20
60.445975031334108
 11
234.03149892184379
 21
60.965486830653504
  0
LINE
  8
_0-1_1_5
  6
CONTINUOUS
 62
    7
 10
234.03149892184379
 20
60.965486830653504
 11
234.03594043837791
 21
61.047102036708168
  0
LINE
  8
_0-1_1_5
  6
CONTINUOUS
 62
    7
 10
234.03594043837791
 20
76.974086987728413
 11
234.03594043837791
 21
76.974086987728413
  0
LINE
  8
_0-1_1_5
  6
CONTINUOUS
 62
    7
 10
234.03594043837791
 20
76.974086987728413
 11
233.8536334745244
 21
77.495031520729199
  0
LINE
  8
_0-1_1_5
  6
CONTINUOUS
 62
    7
 10
233.8536334745244
 20
77.495031520729199
 11
233.3122518878088
 21
78.000147417705421
  0
LINE
  8
_0-1_1_5
  6
CONTINUOUS
 62
    7
 10
233.3122518878088
 20
78.000147417705421
 11
232.42824528379117
 21
78.474086987728413
  0
LINE
  8
_0-1_1_5
  6
CONTINUOUS
 62
    7
 10
232.42824528379117
 20
78.474086987728413
 11
231.22847375580565
 21
78.902449816788035
  0
LINE
  8
_0-1_1_5
  6
CONTINUOUS
 62
    7
 10
231.22847375580565
 20
78.902449816788035
 11
230.87768737103787
 21
79.002379237054157
  0
LINE
  8
_0-1_1_5
  6
CONTINUOUS
 62
    7
 10
231.01522638388985
 20
75.989804617061907
 11
231.01522638388985
 21
78.104427625297944
  0
LINE
  8
_0-1_1_5
  6
CONTINUOUS
 62
    7
 10
106.01522638388985
 20
4.6724235127985025
 11
106.01522638388985
 21
81.955285791489473
  0
ARC
  8
_0-1_1_5
  6
CONTINUOUS
 62
    7
 10
109.51522638388985
 20
4.6724235127985025
 40
3.5
 50
180
 51
270
  0
LINE
  8
_0-1_1_5
  6
CONTINUOUS
 62
    7
 10
227.51523078718606
 20
1.1725725962360229
 11
109.01490454744101
 21
1.1724235127985025
  0
LINE
  8
_0-1_1_5
  6
CONTINUOUS
 62
    7
 10
231.01522638388985
 20
4.6725725962332945
 11
231.01522638388985
 21
74.004427625297922
  0
ARC
  8
_0-1_1_5
  6
CONTINUOUS
 62
    7
 10
227.51522638388985
 20
4.6725725962332945
 40
3.5
 50
270.0000720829388
 51
0
  0
POINT
  8
_0-2_ADD_LINE
 62
    7
 10
61.015226383889967
 20
95.052123119940219
  0
POINT
  8
_0-2_ADD_LINE
 62
    7
 10
71.015226383889967
 20
95.052123119940219
  0
LINE
  8
_0-1_1_5
  6
CONTINUOUS
 62
    7
 10
66.015226383890081
 20
158.40433293772242
 11
67.765128378185977
 21
152.77940217880325
  0
LINE
  8
_0-1_1_5
  6
CONTINUOUS
 62
    7
 10
67.765128378185977
 20
114.20538379719336
 11
67.765128378185977
 21
152.77940217880325
  0
LINE
  8
_0-1_1_5
  6
CONTINUOUS
 62
    7
 10
64.26532438959407
 20
114.24220607412026
 11
64.26532438959407
 21
152.77884825015548
  0
LINE
  8
_0-1_1_5
  6
CONTINUOUS
 62
    7
 10
67.648318125142055
 20
124.65474838420859
 11
64.148514136550261
 21
126.06098107393804
  0
LINE
  8
_0-1_1_5
  6
CONTINUOUS
 62
    7
 10
67.648318125142055
 20
126.06098107393804
 11
64.148514136550261
 21
127.46721376366823
  0
LINE
  8
_0-1_1_5
  6
CONTINUOUS
 62
    7
 10
67.648318125142055
 20
127.46721376366823
 11
64.148514136550261
 21
128.87344645339766
  0
LINE
  8
_0-1_1_5
  6
CONTINUOUS
 62
    7
 10
67.648318125142055
 20
128.87344645339766
 11
64.148514136550261
 21
130.27967914312751
  0
LINE
  8
_0-1_1_5
  6
CONTINUOUS
 62
    7
 10
67.648318125142055
 20
130.27967914312751
 11
64.148514136550261
 21
131.68591183285696
  0
LINE
  8
_0-1_1_5
  6
CONTINUOUS
 62
    7
 10
67.648318125142055
 20
131.68591183285696
 11
64.148514136550261
 21
133.09214452258715
  0
LINE
  8
_0-1_1_5
  6
CONTINUOUS
 62
    7
 10
67.648318125142055
 20
137.31084259177635
 11
64.148514136550261
 21
138.71707528150608
  0
LINE
  8
_0-1_1_5
  6
CONTINUOUS
 62
    7
 10
67.648318125142055
 20
135.90460990204645
 11
64.148514136550261
 21
137.31084259177635
  0
LINE
  8
_0-1_1_5
  6
CONTINUOUS
 62
    7
 10
67.648318125142055
 20
138.71707528150608
 11
64.148514136550261
 21
140.1233079712357
  0
LINE
  8
_0-1_1_5
  6
CONTINUOUS
 62
    7
 10
67.648318125142055
 20
140.1233079712357
 11
64.148514136550261
 21
141.52954066096538
  0
LINE
  8
_0-1_1_5
  6
CONTINUOUS
 62
    7
 10
67.648318125142055
 20
141.52954066096538
 11
64.148514136550261
 21
142.93577335069506
  0
LINE
  8
_0-1_1_5
  6
CONTINUOUS
 62
    7
 10
67.648318125142055
 20
142.93577335069506
 11
64.148514136550261
 21
144.34200604042502
  0
LINE
  8
_0-1_1_5
  6
CONTINUOUS
 62
    7
 10
67.648318125142055
 20
144.34200604042502
 11
64.148514136550261
 21
145.7482387301547
  0
LINE
  8
_0-1_1_5
  6
CONTINUOUS
 62
    7
 10
67.648318125142055
 20
145.7482387301547
 11
64.148514136550261
 21
147.15447141988432
  0
LINE
  8
_0-1_1_5
  6
CONTINUOUS
 62
    7
 10
67.648318125142055
 20
133.09214452258715
 11
64.148514136550261
 21
134.4983772123166
  0
LINE
  8
_0-1_1_5
  6
CONTINUOUS
 62
    7
 10
67.648318125142055
 20
147.15447141988432
 11
64.148514136550261
 21
148.56070410961433
  0
LINE
  8
_0-1_1_5
  6
CONTINUOUS
 62
    7
 10
67.648318125142055
 20
149.96693679934396
 11
64.148514136550261
 21
151.3731694890738
  0
LINE
  8
_0-1_1_5
  6
CONTINUOUS
 62
    7
 10
67.648318125142055
 20
151.3731694890738
 11
64.148514136550261
 21
152.77940217880325
  0
LINE
  8
_0-1_1_5
  6
CONTINUOUS
 62
    7
 10
67.648318125142055
 20
148.56070410961433
 11
64.148514136550261
 21
149.96693679934396
  0
LINE
  8
_0-1_1_5
  6
CONTINUOUS
 62
    7
 10
67.648318125142055
 20
134.4983772123166
 11
64.148514136550261
 21
135.90460990204645
  0
LINE
  8
_0-1_1_5
  6
CONTINUOUS
 62
    7
 10
67.648318125142055
 20
123.2547483842085
 11
64.148514136550261
 21
124.66098107393817
  0
LINE
  8
_0-1_1_5
  6
CONTINUOUS
 62
    7
 10
67.648318125142055
 20
121.85474838420863
 11
64.148514136550261
 21
123.26098107393831
  0
LINE
  8
_0-1_1_5
  6
CONTINUOUS
 62
    7
 10
67.648318125142055
 20
120.4547483842086
 11
64.148514136550261
 21
121.86098107393822
  0
LINE
  8
_0-1_1_5
  6
CENTER2
 62
    7
 10
67.648318125142055
 20
119.05474838420874
 11
64.148514136550261
 21
120.46098107393836
  0
LINE
  8
_0-1_1_5
  6
CENTER2
 62
    7
 10
67.648318125142055
 20
116.25474838420872
 11
64.148514136550261
 21
117.66098107393846
  0
LINE
  8
_0-1_1_5
  6
CENTER2
 62
    7
 10
67.648318125142055
 20
114.85474838420875
 11
64.148514136550261
 21
116.26098107393859
  0
LINE
  8
_0-1_1_5
  6
CENTER2
 62
    7
 10
65.780151617899378
 20
114.20538379719359
 11
64.148514136550261
 21
114.86098107393833
  0
LINE
  8
_0-1_1_5
  6
CENTER2
 62
    7
 10
62.515226383889967
 20
112.45528579148954
 11
64.26532438959407
 21
114.20538379719359
  0
LINE
  8
_0-1_1_5
  6
CENTER2
 62
    7
 10
69.515226383889967
 20
112.45528579148954
 11
67.765128378185977
 21
114.20538379719336
  0
LINE
  8
_0-1_1_5
  6
CENTER2
 62
    7
 10
64.26532438959407
 20
114.20538379719359
 11
67.765128378185977
 21
114.20538379719359
  0
LINE
  8
_0-1_1_5
  6
CONTINUOUS
 62
    7
 10
64.26532438959407
 20
152.77884825015548
 11
66.015226383890081
 21
158.40433293772242
  0
LINE
  8
_0-1_1_5
  6
CONTINUOUS
 62
    7
 10
335.83548850538591
 20
247.20276511831355
 11
319.921153831521
 21
186.24272598388455
  0
ARC
  8
_0-1_1_5
  6
CONTINUOUS
 62
    7
 10
322.76157030944773
 20
191.6584650085864
 40
4.7434164902525318
 50
65.062017296758
 51
114.77514056883228
  0
ARC
  8
_0-1_1_5
  6
STYLE_01
 62
    7
 10
322.81029579981532
 20
185.43472927161417
 40
2.9999999999999889
 50
341.15506622217214
 51
166.12834425368243
  0
ARC
  8
_0-1_1_5
  6
CONTINUOUS
 62
    7
 10
322.81029579981532
 20
185.43472927161417
 40
2.9999999999999827
 50
161.00493377428037
 51
341.1550662221722
  0
LINE
  8
_0-1_1_5
  6
CONTINUOUS
 62
    7
 10
320.76157030944773
 20
188.75214683655514
 11
320.76157030944773
 21
195.99691449007685
  0
LINE
  8
_0-1_1_5
  6
STYLE_01
 62
    7
 10
324.76157030944773
 20
195.95962764210771
 11
324.76157030944773
 21
188.06033440142556
  0
LINE
  8
_0-1_1_5
  6
CONTINUOUS
 62
    7
 10
371.23060368549125
 20
251.37308891028459
 11
338.73060368549136
 21
251.37308891028459
  0
LINE
  8
_0-1_1_5
  6
CONTINUOUS
 62
    7
 10
371.2184795545968
 20
269.37308891028459
 11
371.2184795545968
 21
223.37308891028459
  0
ARC
  8
_0-1_1_5
  6
CONTINUOUS
 62
    7
 10
372.7184795545968
 20
269.37308891028459
 40
1.5
 50
90
 51
180
  0
LINE
  8
_0-1_1_5
  6
CONTINUOUS
 62
    7
 10
372.7184795545968
 20
221.87308891028454
 11
380.7184795545968
 21
221.87308891028454
  0
LINE
  8
_0-1_1_5
  6
CONTINUOUS
 62
    7
 10
380.7184795545968
 20
221.87308891028454
 11
380.7184795545968
 21
270.87308891028459
  0
LINE
  8
_0-1_1_5
  6
CONTINUOUS
 62
    7
 10
380.7184795545968
 20
270.87308891028459
 11
372.7184795545968
 21
270.87308891028459
  0
ARC
  8
_0-1_1_5
  6
CONTINUOUS
 62
    7
 10
372.7184795545968
 20
223.37308891028459
 40
1.5
 50
180
 51
270
  0
CIRCLE
  8
_0-4_
  6
DASHED1
 62
    7
 10
322.81029579981544
 20
169.54662350427188
 40
19
  0
CIRCLE
  8
_0-4_
  6
DASHED1
 62
    7
 10
322.81029579981532
 20
169.54662350427191
 40
57
  0
LINE
  8
_0-1_1_5
  6
CONTINUOUS
 62
    7
 10
264.79155516047661
 20
173.26153780700884
 11
264.4049509279904
 21
173.36418851284344
  0
ARC
  8
_0-1_1_5
  6
CONTINUOUS
 62
    7
 10
264.48193895737029
 20
173.65414168722202
 40
0.3000000000000486
 50
165.12954050801741
 51
255.12999999998857
  0
LINE
  8
_0-1_1_5
  6
CONTINUOUS
 62
    7
 10
269.36335210446452
 20
193.20695748364989
 11
264.1919864004177
 21
173.73113204192154
  0
ARC
  8
_0-1_1_5
  6
CONTINUOUS
 62
    7
 10
318.90711317241045
 20
173.22133539167362
 40
53.422929076949828
 50
125.92301446552185
 51
158.0311810871095
  0
LINE
  8
_0-1_1_5
  6
CONTINUOUS
 62
    7
 10
270.32986062760438
 20
192.95032296797908
 11
265.15849574680863
 21
173.47450062668793
  0
ARC
  8
_0-1_1_5
  6
CONTINUOUS
 62
    7
 10
318.90711317241045
 20
173.22133539167362
 40
52.400000000000048
 50
125.92301446552185
 51
158.03118108710947
  0
ARC
  8
_0-1_1_5
  6
CONTINUOUS
 62
    7
 10
264.86854318985638
 20
173.55149098138747
 40
0.3000000000000053
 50
255.13000000000048
 51
345.1295405080171
  0
LINE
  8
_0-1_1_5
  6
CONTINUOUS
 62
    7
 10
335.90405482674129
 20
250.50558949956817
 11
287.56400433086696
 21
216.48354614549405
  0
LINE
  8
_0-1_1_5
  6
CONTINUOUS
 62
    7
 10
288.16415445273378
 20
215.65517199832834
 11
336.41596977197275
 21
249.64376273282755
  0
LINE
  8
_0-2_ADD_LINE
  6
CONTINUOUS
 62
    7
 10
338.73060368549136
 20
285.87308891028459
 11
338.73060368549136
 21
255.37308891028459
  0
LINE
  8
_0-2_ADD_LINE
  6
CONTINUOUS
 62
    7
 10
355.16721453997548
 20
242.07900956998546
 11
345.01961853915276
 21
244.72812406903773
  0
TEXT
  8
_0-2_ADD_LINE
 62
    4
 10
76.738101045114718
 20
55.25806692042454
 40
5
 41
1
 50
90
  1
φ
  0
POINT
  8
_0-2_ADD_LINE
 62
    7
 10
77.995689680339638
 20
58.047102036708168
  0
INSERT
  2
-026-グル__プ-6
  8
_0-1_1_5
 10
307.09569358272347
 20
249.41932686736635
 41
1
 42
1
 50
0
  0
LINE
  8
_0-1_1_5
  6
CONTINUOUS
 62
    7
 10
341.98949352567632
 20
248.67507541372669
 11
342.80726036648161
 21
249.25062505891742
  0
LINE
  8
_0-1_1_5
  6
CONTINUOUS
 62
    7
 10
334.7874742640077
 20
247.0610366241346
 11
333.80285583492628
 21
247.23575510945665
  0
ARC
  8
_0-1_1_5
  6
CONTINUOUS
 62
    7
 10
338.72594798033282
 20
246.36216268284642
 40
4.9999999999994262
 50
169.93772388532287
 51
192.4666546748872
  0
ARC
  8
_0-1_1_5
  6
CONTINUOUS
 62
    7
 10
338.7259479803335
 20
246.36216268284653
 40
5.0000000000001297
 50
192.46665467488666
 51
214.99558546444791
  0
ARC
  8
_0-1_1_5
  6
CONTINUOUS
 62
    7
 10
338.71842616245482
 20
246.37287683296364
 40
5
 50
162.03077732893422
 51
170.04374751621822
  0
ARC
  8
_0-1_1_5
  6
STYLE_01
 62
    7
 10
338.71842616245482
 20
246.37287683296364
 40
4.9999999999999991
 50
215.14559577481677
 51
270.99999999999994
  0
ARC
  8
_0-1_1_5
  6
CONTINUOUS
 62
    7
 10
338.73060368549136
 20
246.3699238048805
 40
4
 50
170.05873759899032
 51
206.52650982626403
  0
LINE
  8
_0-1_1_5
  6
CONTINUOUS
 62
    7
 10
334.62996680594222
 20
243.49459608047553
 11
334.92053353058645
 21
243.69801972913865
  0
LINE
  8
_0-1_1_5
  6
CONTINUOUS
 62
    7
 10
341.98949352567627
 20
248.67507541372672
 11
342.80726036648161
 21
249.25062505891742
  0
LINE
  8
_0-1_1_5
  6
CONTINUOUS
 62
    7
 10
335.90405482674123
 20
250.50558949956817
 11
336.41596977197275
 21
249.64376273282755
  0
ARC
  8
_0-1_1_5
  6
CONTINUOUS
 62
    7
 10
338.73060368549136
 20
246.3699238048805
 40
4
 50
303.68336368588194
 51
124.85016538811111
  0
ARC
  8
_0-1_1_5
  6
CONTINUOUS
 62
    7
 10
338.73060368549136
 20
246.3699238048805
 40
5
 50
292.05607504350479
 51
124.21101550619177
  0
ARC
  8
_0-1_1_5
  6
CONTINUOUS
 62
    7
 10
106.51508502975378
 20
192.73479414378858
 40
4.7434164902525495
 50
245.06201708203804
 51
294.93798270324191
  0
LINE
  8
_0-1_1_5
  6
DASHED1
 62
    7
 10
108.51400037819531
 20
188.43359079837552
 11
108.5150571191848
 21
195.97288701768792
  0
LINE
  8
_0-1_1_5
  6
DASHED1
 62
    7
 10
222.015016692995
 20
249.37539547802453
 11
106.00518798022995
 21
249.37336829429094
  0
LINE
  8
_0-1_1_5
  6
DASHED1
 62
    7
 10
222.01329100563692
 20
243.37298325059163
 11
106.00603386658304
 21
243.37370868756909
  0
ARC
  8
_0-1_1_5
  6
DASHED1
 62
    7
 10
222.01325348538194
 20
237.37298325070896
 40
6
 50
359.93194453193905
 51
89.999641707957451
  0
LINE
  8
_0-1_1_5
  6
DASHED1
 62
    7
 10
227.96225070028686
 20
194.43028451404885
 11
228.01324925283302
 21
237.36585650043486
  0
ARC
  8
_0-1_1_5
  6
DASHED1
 62
    7
 10
221.96225493283578
 20
194.43741126432295
 40
6
 50
270.0019944912309
 51
359.931944531939
  0
LINE
  8
_0-1_1_5
  6
DASHED1
 62
    7
 10
221.96246379546903
 20
188.43741126795825
 11
108.55760757325311
 21
188.43346359514021
  0
LINE
  8
_0-1_1_5
  6
CONTINUOUS
 62
    7
 10
93.55686096185616
 20
182.43360686759195
 11
106.01462574314291
 21
182.43368458353967
  0
LINE
  8
_0-1_1_5
  6
DASHED1
 62
    7
 10
222.01573116838995
 20
182.43850979252255
 11
106.0146257508157
 21
182.433630162518
  0
ARC
  8
_0-1_1_5
  6
DASHED1
 62
    7
 10
222.01522638388985
 20
237.37539547985665
 40
12
 50
41.409752773103307
 51
90.001001200273365
  0
ARC
  8
_0-1_1_5
  6
CONTINUOUS
 62
    7
 10
222.01522638388985
 20
237.37539547985665
 40
12
 50
0
 51
41.409795892763803
  0
ARC
  8
_0-1_1_5
  6
DASHED1
 62
    7
 10
222.01522638388985
 20
194.43850978190557
 40
12
 50
270.00241016845206
 51
318.58897926912931
  0
ARC
  8
_0-1_1_5
  6
CONTINUOUS
 62
    7
 10
222.01522638388985
 20
194.43850978190557
 40
12
 50
318.58893615025875
 51
0.0000000000000254
  0
LINE
  8
_0-1_1_5
  6
DASHED1
 62
    7
 10
105.01522638388985
 20
79.955285791489473
 11
223.66532195168293
 21
79.955285791489473
  0
LINE
  8
_0-1_1_5
  6
DASHED1
 62
    7
 10
105.01522638388985
 20
73.955285791489473
 11
222.0351132351459
 21
73.955285791489473
  0
LINE
  8
_0-1_1_5
  6
DASHED1
 62
    7
 10
228.0358653396442
 20
72.451516962095184
 11
228.0358653396442
 21
72.451516962095184
  0
LINE
  8
_0-1_1_5
  6
DASHED1
 62
    7
 10
228.0358653396442
 20
72.451516962095184
 11
227.94992585551194
 21
72.712099984876318
  0
LINE
  8
_0-1_1_5
  6
DASHED1
 62
    7
 10
227.94992585551194
 20
72.712099984876318
 11
227.68429291710106
 21
72.964993357312252
  0
LINE
  8
_0-1_1_5
  6
DASHED1
 62
    7
 10
227.68429291710106
 20
72.964993357312252
 11
227.24703764682843
 21
73.202513042251709
  0
LINE
  8
_0-1_1_5
  6
DASHED1
 62
    7
 10
227.24703764682843
 20
73.202513042251709
 11
226.65144582481949
 21
73.417442124258571
  0
LINE
  8
_0-1_1_5
  6
DASHED1
 62
    7
 10
226.65144582481949
 20
73.417442124258571
 11
225.91561420720191
 21
73.60325009193545
  0
LINE
  8
_0-1_1_5
  6
DASHED1
 62
    7
 10
225.91561420720191
 20
73.60325009193545
 11
225.0619006653283
 21
73.754291264207822
  0
LINE
  8
_0-1_1_5
  6
DASHED1
 62
    7
 10
225.0619006653283
 20
73.754291264207822
 11
224.11624485316852
 21
73.865976331486721
  0
LINE
  8
_0-1_1_5
  6
DASHED1
 62
    7
 10
224.11624485316852
 20
73.865976331486721
 11
223.10738004405016
 21
73.934911799518247
  0
LINE
  8
_0-1_1_5
  6
DASHED1
 62
    7
 10
223.10738004405016
 20
73.934911799518247
 11
222.06596008468807
 21
73.959003098989299
  0
LINE
  8
_0-1_1_5
  6
DASHED1
 62
    7
 10
222.06596008468807
 20
73.959003098989299
 11
222.03594043837791
 21
73.959021873672725
  0
LINE
  8
_0-1_1_5
  6
DASHED1
 62
    7
 10
230.87768737103789
 20
79.002379237054143
 11
230.87768737103789
 21
79.002379237054143
  0
LINE
  8
_0-1_1_5
  6
DASHED1
 62
    7
 10
230.87768737103789
 20
79.002379237054143
 11
229.33452435634788
 21
79.355403230801116
  0
LINE
  8
_0-1_1_5
  6
DASHED1
 62
    7
 10
229.33452435634788
 20
79.355403230801116
 11
227.56959756257203
 21
79.636072135506467
  0
LINE
  8
_0-1_1_5
  6
DASHED1
 62
    7
 10
227.56959756257203
 20
79.636072135506467
 11
225.63653339724314
 21
79.835857968526085
  0
LINE
  8
_0-1_1_5
  6
DASHED1
 62
    7
 10
225.63653339724314
 20
79.835857968526085
 11
223.59406703684709
 21
79.948690338420136
  0
LINE
  8
_0-1_1_5
  6
DASHED1
 62
    7
 10
223.59406703684709
 20
79.948690338420136
 11
223.37730507160063
 21
79.955285791489445
  0
LINE
  8
_0-1_1_5
  6
DASHED1
 62
    7
 10
228.03537654635159
 20
72.479586385491643
 11
228.03571837535117
 21
65.549261950725679
  0
LINE
  8
_0-1_1_5
  6
DASHED1
 62
    7
 10
222.03594043837791
 20
64.062167150763855
 11
222.03594043837791
 21
64.062167150763855
  0
LINE
  8
_0-1_1_5
  6
DASHED1
 62
    7
 10
222.03594043837791
 20
64.062167150763855
 11
223.07782950437948
 21
64.084955521245547
  0
LINE
  8
_0-1_1_5
  6
DASHED1
 62
    7
 10
223.07782950437948
 20
64.084955521245547
 11
224.08806129833192
 21
64.152628219584997
  0
LINE
  8
_0-1_1_5
  6
DASHED1
 62
    7
 10
224.08806129833192
 20
64.152628219584997
 11
225.03594043837791
 21
64.263129045087197
  0
LINE
  8
_0-1_1_5
  6
DASHED1
 62
    7
 10
225.03594043837791
 20
64.263129045087197
 11
225.89266609649715
 21
64.413100486085384
  0
LINE
  8
_0-1_1_5
  6
DASHED1
 62
    7
 10
225.89266609649715
 20
64.413100486085384
 11
226.63220709709177
 21
64.597985736234051
  0
LINE
  8
_0-1_1_5
  6
DASHED1
 62
    7
 10
226.63220709709177
 20
64.597985736234051
 11
227.23209286108454
 21
64.812167150763855
  0
LINE
  8
_0-1_1_5
  6
DASHED1
 62
    7
 10
227.23209286108454
 20
64.812167150763855
 11
227.67409616309337
 21
65.049136935775351
  0
LINE
  8
_0-1_1_5
  6
DASHED1
 62
    7
 10
227.67409616309337
 20
65.049136935775351
 11
227.94478695645117
 21
65.301694884263455
  0
LINE
  8
_0-1_1_5
  6
DASHED1
 62
    7
 10
227.94478695645117
 20
65.301694884263455
 11
228.03594043837791
 21
65.562167150763855
  0
LINE
  8
_0-1_1_5
  6
DASHED1
 62
    7
 10
228.03594043837791
 20
65.562167150763855
 11
228.0358653396442
 21
65.569672062341397
  0
LINE
  8
_0-1_1_5
  6
DASHED1
 62
    7
 10
106.01522638388985
 20
64.047102036708168
 11
222.01615792758344
 21
64.0469479253847
  0
LINE
  8
_0-1_1_5
  6
DASHED1
 62
    7
 10
106.01522638388985
 20
58.047102036708168
 11
222.01615792758344
 21
58.0469479253847
  0
LINE
  8
_0-1_1_5
  6
DASHED1
 62
    7
 10
222.03594043837791
 20
58.047102036708168
 11
222.03594043837791
 21
58.047102036708168
  0
LINE
  8
_0-1_1_5
  6
DASHED1
 62
    7
 10
222.03594043837791
 20
58.047102036708168
 11
224.11971857038108
 21
58.092678777671544
  0
LINE
  8
_0-1_1_5
  6
DASHED1
 62
    7
 10
224.11971857038108
 20
58.092678777671544
 11
226.14018215828594
 21
58.228024174350445
  0
LINE
  8
_0-1_1_5
  6
DASHED1
 62
    7
 10
226.14018215828594
 20
58.228024174350445
 11
228.03594043837791
 21
58.449025825354852
  0
LINE
  8
_0-1_1_5
  6
DASHED1
 62
    7
 10
228.03594043837791
 20
58.449025825354852
 11
229.74939175461637
 21
58.748968707351231
  0
LINE
  8
_0-1_1_5
  6
DASHED1
 62
    7
 10
229.74939175461637
 20
58.748968707351231
 11
231.01522638388985
 21
59.056932070525448
  0
CIRCLE
  8
_0-1_1_5
  6
DASHED1
 62
    7
 10
106.49568968033964
 20
61.047102036708168
 40
2
  0
ARC
  8
_0-1_1_5
  6
CONTINUOUS
 62
    7
 10
338.71847955459691
 20
246.37308891028459
 40
3
 50
344.62494237992325
 51
163.94507379055406
  0
ARC
  8
_0-1_1_5
  6
DASHED1
 62
    7
 10
338.72812125498626
 20
246.4073559305744
 40
3
 50
164.62494237992325
 51
343.94507379055403
  0
LINE
  8
_0-1_1_5
  6
CONTINUOUS
 62
    7
 10
371.23060368549125
 20
241.37308891028459
 11
340.51347420174773
 21
241.37308891028459
  0
LINE
  8
_0-1_1_5
  6
DASHED1
 62
    7
 10
340.51347420174773
 20
241.37308891028459
 11
338.67237479729806
 21
241.37308891028459
  0
LINE
  8
_0-1_1_5
  6
CENTER2
 62
    7
 10
77.015226383889853
 20
226.37308891028459
 11
80.015226383890081
 21
229.37308891028459
  0
LINE
  8
_0-1_1_5
  6
CENTER2
 62
    7
 10
80.015226383890081
 20
112.45528579148954
 11
52.015226383889853
 21
112.45528579148954
  0
LINE
  8
_0-1_1_5
  6
DASHED1
 62
    7
 10
52.015226383889853
 20
112.45528579148954
 11
52.015226383889853
 21
118.95528579148954
  0
LINE
  8
_0-1_1_5
  6
DASHED1
 62
    7
 10
80.015226383890081
 20
112.45528579148954
 11
80.015226383890081
 21
118.95528579148954
  0
TEXT
  8
_0-3_
 62
    7
 10
135.16691074515126
 20
-54.188953352434794
 40
6.1081542968750009
 41
1
 50
0
  1
ポリッシュ
  0
TEXT
  8
_0-3_
 62
    7
 10
321.93216695212038
 20
-41.80563917926429
 40
6.1081542968750009
 41
1
 50
0
  1
TFP43-C100-003
  0
ENDSEC
  0
EOF
