  0
SECTION
  2
HEADER
  9
$ACADVER
  1
AC1021
  9
$ACADMAINTVER
 70
    25
  9
$DWGCODEPAGE
  3
ANSI_932
  9
$LASTSAVEDBY
  1
tform
  9
$INSBASE
 10
0.0
 20
0.0
 30
0.0
  9
$EXTMIN
 10
-87.01990673880675
 20
-84.24062991642131
 30
0.0
  9
$EXTMAX
 10
506.9800932611932
 20
335.7593700835787
 30
0.0
  9
$LIMMIN
 10
0.0
 20
0.0
  9
$LIMMAX
 10
594.0
 20
420.0
  9
$ORTHOMODE
 70
     0
  9
$REGENMODE
 70
     1
  9
$FILLMODE
 70
     1
  9
$QTEXTMODE
 70
     0
  9
$MIRRTEXT
 70
     1
  9
$LTSCALE
 40
2.0
  9
$ATTMODE
 70
     1
  9
$TEXTSIZE
 40
0.2
  9
$TRACEWID
 40
0.05
  9
$TEXTSTYLE
  7
STANDARD
  9
$CLAYER
  8
0
  9
$CELTYPE
  6
ByBlock
  9
$CECOLOR
 62
   256
  9
$CELTSCALE
 40
1.0
  9
$DISPSILH
 70
     0
  9
$DIMSCALE
 40
1.0
  9
$DIMASZ
 40
0.18
  9
$DIMEXO
 40
0.0625
  9
$DIMDLI
 40
0.38
  9
$DIMRND
 40
0.0
  9
$DIMDLE
 40
0.0
  9
$DIMEXE
 40
0.18
  9
$DIMTP
 40
0.0
  9
$DIMTM
 40
0.0
  9
$DIMTXT
 40
0.18
  9
$DIMCEN
 40
0.09
  9
$DIMTSZ
 40
0.0
  9
$DIMTOL
 70
     0
  9
$DIMLIM
 70
     0
  9
$DIMTIH
 70
     1
  9
$DIMTOH
 70
     1
  9
$DIMSE1
 70
     0
  9
$DIMSE2
 70
     0
  9
$DIMTAD
 70
     0
  9
$DIMZIN
 70
     0
  9
$DIMBLK
  1

  9
$DIMASO
 70
     1
  9
$DIMSHO
 70
     1
  9
$DIMPOST
  1

  9
$DIMAPOST
  1

  9
$DIMALT
 70
     0
  9
$DIMALTD
 70
     2
  9
$DIMALTF
 40
25.4
  9
$DIMLFAC
 40
1.0
  9
$DIMTOFL
 70
     0
  9
$DIMTVP
 40
0.0
  9
$DIMTIX
 70
     0
  9
$DIMSOXD
 70
     0
  9
$DIMSAH
 70
     0
  9
$DIMBLK1
  1

  9
$DIMBLK2
  1

  9
$DIMSTYLE
  2
Standard
  9
$DIMCLRD
 70
     0
  9
$DIMCLRE
 70
     0
  9
$DIMCLRT
 70
     0
  9
$DIMTFAC
 40
1.0
  9
$DIMGAP
 40
0.09
  9
$DIMJUST
 70
     0
  9
$DIMSD1
 70
     0
  9
$DIMSD2
 70
     0
  9
$DIMTOLJ
 70
     1
  9
$DIMTZIN
 70
     0
  9
$DIMALTZ
 70
     0
  9
$DIMALTTZ
 70
     0
  9
$DIMUPT
 70
     0
  9
$DIMDEC
 70
     4
  9
$DIMTDEC
 70
     4
  9
$DIMALTU
 70
     2
  9
$DIMALTTD
 70
     2
  9
$DIMTXSTY
  7
STANDARD
  9
$DIMAUNIT
 70
     0
  9
$DIMADEC
 70
     0
  9
$DIMALTRND
 40
0.0
  9
$DIMAZIN
 70
     0
  9
$DIMDSEP
 70
    46
  9
$DIMATFIT
 70
     3
  9
$DIMFRAC
 70
     0
  9
$DIMLDRBLK
  1

  9
$DIMLUNIT
 70
     2
  9
$DIMLWD
 70
    -2
  9
$DIMLWE
 70
    -2
  9
$DIMTMOVE
 70
     2
  9
$DIMFXL
 40
1.0
  9
$DIMFXLON
 70
     0
  9
$DIMJOGANG
 40
0.7853981633974483
  9
$DIMTFILL
 70
     0
  9
$DIMTFILLCLR
 70
     0
  9
$DIMARCSYM
 70
     0
  9
$DIMLTYPE
  6

  9
$DIMLTEX1
  6

  9
$DIMLTEX2
  6

  9
$LUNITS
 70
     2
  9
$LUPREC
 70
     4
  9
$SKETCHINC
 40
0.1
  9
$FILLETRAD
 40
0.5
  9
$AUNITS
 70
     0
  9
$AUPREC
 70
     0
  9
$MENU
  1
.
  9
$ELEVATION
 40
0.0
  9
$PELEVATION
 40
0.0
  9
$THICKNESS
 40
0.0
  9
$LIMCHECK
 70
     0
  9
$CHAMFERA
 40
0.0
  9
$CHAMFERB
 40
0.0
  9
$CHAMFERC
 40
0.0
  9
$CHAMFERD
 40
0.0
  9
$SKPOLY
 70
     0
  9
$TDCREATE
 40
2457960.754469144
  9
$TDUCREATE
 40
2457960.379469144
  9
$TDUPDATE
 40
2457960.764327245
  9
$TDUUPDATE
 40
2457960.389327245
  9
$TDINDWG
 40
0.002946088
  9
$TDUSRTIMER
 40
2457960.386844248
  9
$USRTIMER
 70
     1
  9
$ANGBASE
 50
0.0
  9
$ANGDIR
 70
     0
  9
$PDMODE
 70
     0
  9
$PDSIZE
 40
0.0
  9
$PLINEWID
 40
0.0
  9
$SPLFRAME
 70
     0
  9
$SPLINETYPE
 70
     6
  9
$SPLINESEGS
 70
     8
  9
$HANDSEED
  5
2C3
  9
$SURFTAB1
 70
     6
  9
$SURFTAB2
 70
     6
  9
$SURFTYPE
 70
     6
  9
$SURFU
 70
     6
  9
$SURFV
 70
     6
  9
$UCSBASE
  2

  9
$UCSNAME
  2

  9
$UCSORG
 10
0.0
 20
0.0
 30
0.0
  9
$UCSXDIR
 10
1.0
 20
0.0
 30
0.0
  9
$UCSYDIR
 10
0.0
 20
1.0
 30
0.0
  9
$UCSORTHOREF
  2

  9
$UCSORTHOVIEW
 70
     0
  9
$UCSORGTOP
 10
0.0
 20
0.0
 30
0.0
  9
$UCSORGBOTTOM
 10
0.0
 20
0.0
 30
0.0
  9
$UCSORGLEFT
 10
0.0
 20
0.0
 30
0.0
  9
$UCSORGRIGHT
 10
0.0
 20
0.0
 30
0.0
  9
$UCSORGFRONT
 10
0.0
 20
0.0
 30
0.0
  9
$UCSORGBACK
 10
0.0
 20
0.0
 30
0.0
  9
$PUCSBASE
  2

  9
$PUCSNAME
  2

  9
$PUCSORG
 10
0.0
 20
0.0
 30
0.0
  9
$PUCSXDIR
 10
1.0
 20
0.0
 30
0.0
  9
$PUCSYDIR
 10
0.0
 20
1.0
 30
0.0
  9
$PUCSORTHOREF
  2

  9
$PUCSORTHOVIEW
 70
     0
  9
$PUCSORGTOP
 10
0.0
 20
0.0
 30
0.0
  9
$PUCSORGBOTTOM
 10
0.0
 20
0.0
 30
0.0
  9
$PUCSORGLEFT
 10
0.0
 20
0.0
 30
0.0
  9
$PUCSORGRIGHT
 10
0.0
 20
0.0
 30
0.0
  9
$PUCSORGFRONT
 10
0.0
 20
0.0
 30
0.0
  9
$PUCSORGBACK
 10
0.0
 20
0.0
 30
0.0
  9
$USERI1
 70
     0
  9
$USERI2
 70
     0
  9
$USERI3
 70
     0
  9
$USERI4
 70
     0
  9
$USERI5
 70
     0
  9
$USERR1
 40
0.0
  9
$USERR2
 40
0.0
  9
$USERR3
 40
0.0
  9
$USERR4
 40
0.0
  9
$USERR5
 40
0.0
  9
$WORLDVIEW
 70
     1
  9
$SHADEDGE
 70
     3
  9
$SHADEDIF
 70
    70
  9
$TILEMODE
 70
     1
  9
$MAXACTVP
 70
    64
  9
$PINSBASE
 10
0.0
 20
0.0
 30
0.0
  9
$PLIMCHECK
 70
     0
  9
$PEXTMIN
 10
1.000000000000000E+20
 20
1.000000000000000E+20
 30
1.000000000000000E+20
  9
$PEXTMAX
 10
-1.000000000000000E+20
 20
-1.000000000000000E+20
 30
-1.000000000000000E+20
  9
$PLIMMIN
 10
0.0
 20
0.0
  9
$PLIMMAX
 10
0.0
 20
0.0
  9
$UNITMODE
 70
     0
  9
$VISRETAIN
 70
     1
  9
$PLINEGEN
 70
     0
  9
$PSLTSCALE
 70
     1
  9
$TREEDEPTH
 70
  3020
  9
$CMLSTYLE
  2
Standard
  9
$CMLJUST
 70
     0
  9
$CMLSCALE
 40
1.0
  9
$PROXYGRAPHICS
 70
     1
  9
$MEASUREMENT
 70
     0
  9
$CELWEIGHT
370
    -1
  9
$ENDCAPS
280
     0
  9
$JOINSTYLE
280
     0
  9
$LWDISPLAY
290
     0
  9
$INSUNITS
 70
     0
  9
$HYPERLINKBASE
  1

  9
$STYLESHEET
  1

  9
$XEDIT
290
     1
  9
$CEPSNTYPE
380
     0
  9
$PSTYLEMODE
290
     1
  9
$FINGERPRINTGUID
  2
{217FE92B-ADE9-4273-A0B1-4732D5E68108}
  9
$VERSIONGUID
  2
{FAEB1C32-E019-11D5-929B-00C0DF256EC4}
  9
$EXTNAMES
290
     1
  9
$PSVPSCALE
 40
0.0
  9
$OLESTARTUP
290
     0
  9
$SORTENTS
280
   127
  9
$INDEXCTL
280
     0
  9
$HIDETEXT
280
     1
  9
$XCLIPFRAME
290
     0
  9
$HALOGAP
280
     0
  9
$OBSCOLOR
 70
   257
  9
$OBSLTYPE
280
     0
  9
$INTERSECTIONDISPLAY
280
     0
  9
$INTERSECTIONCOLOR
 70
   257
  9
$DIMASSOC
280
     2
  9
$PROJECTNAME
  1

  9
$CAMERADISPLAY
290
     0
  9
$LENSLENGTH
 40
50.0
  9
$CAMERAHEIGHT
 40
0.0
  9
$STEPSPERSEC
 40
2.0
  9
$STEPSIZE
 40
6.0
  9
$3DDWFPREC
 40
2.0
  9
$PSOLWIDTH
 40
0.25
  9
$PSOLHEIGHT
 40
4.0
  9
$LOFTANG1
 40
1.570796326794897
  9
$LOFTANG2
 40
1.570796326794897
  9
$LOFTMAG1
 40
0.0
  9
$LOFTMAG2
 40
0.0
  9
$LOFTPARAM
 70
     7
  9
$LOFTNORMALS
280
     1
  9
$LATITUDE
 40
37.795
  9
$LONGITUDE
 40
-122.394
  9
$NORTHDIRECTION
 40
0.0
  9
$TIMEZONE
 70
 -8000
  9
$LIGHTGLYPHDISPLAY
280
     1
  9
$TILEMODELIGHTSYNCH
280
     1
  9
$SOLIDHIST
280
     0
  9
$SHOWHIST
280
     1
  9
$DWFFRAME
280
     2
  9
$DGNFRAME
280
     2
  9
$REALWORLDSCALE
290
     1
  9
$INTERFERECOLOR
 62
   256
  9
$CSHADOW
280
     0
  9
$SHADOWPLANELOCATION
 40
0.0
  0
ENDSEC
  0
SECTION
  2
CLASSES
  0
CLASS
  1
ACDBDICTIONARYWDFLT
  2
AcDbDictionaryWithDefault
  3
ObjectDBX Classes
 90
        0
 91
        5
280
     0
281
     0
  0
CLASS
  1
SCALE
  2
AcDbScale
  3
ObjectDBX Classes
 90
     1153
 91
        5
280
     0
281
     0
  0
CLASS
  1
VISUALSTYLE
  2
AcDbVisualStyle
  3
ObjectDBX Classes
 90
     4095
 91
        5
280
     0
281
     0
  0
CLASS
  1
MATERIAL
  2
AcDbMaterial
  3
ObjectDBX Classes
 90
     1153
 91
        5
280
     0
281
     0
  0
CLASS
  1
TABLESTYLE
  2
AcDbTableStyle
  3
ObjectDBX Classes
 90
     4095
 91
        5
280
     0
281
     0
  0
CLASS
  1
MLEADERSTYLE
  2
AcDbMLeaderStyle
  3
ACDB_MLEADERSTYLE_CLASS
 90
     4095
 91
        5
280
     0
281
     0
  0
CLASS
  1
SUN
  2
AcDbSun
  3
SCENEOE
 90
     1153
 91
        5
280
     0
281
     0
  0
CLASS
  1
RASTERVARIABLES
  2
AcDbRasterVariables
  3
ISM
 90
        0
 91
        5
280
     0
281
     0
  0
CLASS
  1
DICTIONARYVAR
  2
AcDbDictionaryVar
  3
ObjectDBX Classes
 90
        0
 91
        5
280
     0
281
     0
  0
CLASS
  1
CELLSTYLEMAP
  2
AcDbCellStyleMap
  3
ObjectDBX Classes
 90
     1152
 91
        5
280
     0
281
     0
  0
ENDSEC
  0
SECTION
  2
TABLES
  0
TABLE
  2
VPORT
  5
8
330
0
100
AcDbSymbolTable
 70
     1
  0
VPORT
  5
56
330
8
100
AcDbSymbolTableRecord
100
AcDbViewportTableRecord
  2
*Active
 70
     0
 10
0.0
 20
0.0
 11
1.0
 21
1.0
 12
148.7882061975973
 22
107.3793980668646
 13
0.0
 23
0.0
 14
0.5
 24
0.5
 15
0.5
 25
0.5
 16
0.0
 26
0.0
 36
1.0
 17
0.0
 27
0.0
 37
0.0
 40
499.6003610813205
 41
2.239263803680982
 42
50.0
 43
0.0
 44
0.0
 50
0.0
 51
0.0
 71
    16
 72
   100
 73
     1
 74
     3
 75
     0
 76
     0
 77
     0
 78
     0
281
     0
 65
     1
110
0.0
120
0.0
130
0.0
111
1.0
121
0.0
131
0.0
112
0.0
122
1.0
132
0.0
 79
     0
146
0.0
348
21F
 60
     3
 61
     5
292
     1
282
     1
141
0.0
142
0.0
 63
   250
361
23C
  0
ENDTAB
  0
TABLE
  2
LTYPE
  5
5
330
0
100
AcDbSymbolTable
 70
    45
  0
LTYPE
  5
14
330
5
100
AcDbSymbolTableRecord
100
AcDbLinetypeTableRecord
  2
ByBlock
 70
     0
  3

 72
    65
 73
     0
 40
0.0
  0
LTYPE
  5
15
330
5
100
AcDbSymbolTableRecord
100
AcDbLinetypeTableRecord
  2
ByLayer
 70
     0
  3

 72
    65
 73
     0
 40
0.0
  0
LTYPE
  5
16
330
5
100
AcDbSymbolTableRecord
100
AcDbLinetypeTableRecord
  2
CONTINUOUS
 70
     0
  3
実線
 72
    65
 73
     0
 40
0.0
  0
LTYPE
  5
21
330
5
100
AcDbSymbolTableRecord
100
AcDbLinetypeTableRecord
  2
DASHED1
 70
     0
  3
--  --  --  --  --  --  --  --  
 72
    65
 73
     2
 40
2.5
 49
1.25
 74
     0
 49
-1.25
 74
     0
  0
LTYPE
  5
22
330
5
100
AcDbSymbolTableRecord
100
AcDbLinetypeTableRecord
  2
DASHED2
 70
     0
  3
----    ----    ----    ----    
 72
    65
 73
     2
 40
5.0
 49
2.5
 74
     0
 49
-2.5
 74
     0
  0
LTYPE
  5
23
330
5
100
AcDbSymbolTableRecord
100
AcDbLinetypeTableRecord
  2
DASHED3
 70
     0
  3
------  ------  ------  ------  
 72
    65
 73
     2
 40
5.0
 49
3.75
 74
     0
 49
-1.25
 74
     0
  0
LTYPE
  5
24
330
5
100
AcDbSymbolTableRecord
100
AcDbLinetypeTableRecord
  2
CENTER1
 70
     0
  3
----- - ----- - ----- - ----- - 
 72
    65
 73
     4
 40
10.0
 49
6.25
 74
     0
 49
-1.25
 74
     0
 49
1.25
 74
     0
 49
-1.25
 74
     0
  0
LTYPE
  5
25
330
5
100
AcDbSymbolTableRecord
100
AcDbLinetypeTableRecord
  2
CENTER2
 70
     0
  3
----------  --  ----------  --  
 72
    65
 73
     4
 40
20.0
 49
12.5
 74
     0
 49
-2.5
 74
     0
 49
2.5
 74
     0
 49
-2.5
 74
     0
  0
LTYPE
  5
26
330
5
100
AcDbSymbolTableRecord
100
AcDbLinetypeTableRecord
  2
PHANTOM1
 70
     0
  3
--- - - --- - - --- - - --- - - 
 72
    65
 73
     6
 40
9.5
 49
3.25
 74
     0
 49
-1.25
 74
     0
 49
1.25
 74
     0
 49
-1.25
 74
     0
 49
1.25
 74
     0
 49
-1.25
 74
     0
  0
LTYPE
  5
27
330
5
100
AcDbSymbolTableRecord
100
AcDbLinetypeTableRecord
  2
PHANTOM2
 70
     0
  3
--------  -  -  --------  -  -  
 72
    65
 73
     6
 40
20.0
 49
10.0
 74
     0
 49
-2.5
 74
     0
 49
1.25
 74
     0
 49
-2.5
 74
     0
 49
1.25
 74
     0
 49
-2.5
 74
     0
  0
LTYPE
  5
28
330
5
100
AcDbSymbolTableRecord
100
AcDbLinetypeTableRecord
  2
DOT
 70
     0
  3
-   -   -   -   -   -   -   -   
 72
    65
 73
     2
 40
2.5
 49
0.625
 74
     0
 49
-1.875
 74
     0
  0
LTYPE
  5
29
330
5
100
AcDbSymbolTableRecord
100
AcDbLinetypeTableRecord
  2
DUMMY
 70
     0
  3
ダミー
 72
    65
 73
     0
 40
0.0
  0
LTYPE
  5
2A
330
5
100
AcDbSymbolTableRecord
100
AcDbLinetypeTableRecord
  2
RAND1
 70
     0
  3
ランダム線1
 72
    65
 73
     4
 40
10.0
 49
1.0
 74
     0
 49
-2.0
 74
     0
 49
3.0
 74
     0
 49
-4.0
 74
     0
  0
LTYPE
  5
2B
330
5
100
AcDbSymbolTableRecord
100
AcDbLinetypeTableRecord
  2
RAND2
 70
     0
  3
ランダム線2
 72
    65
 73
     4
 40
14.0
 49
2.0
 74
     0
 49
-3.0
 74
     0
 49
4.0
 74
     0
 49
-5.0
 74
     0
  0
LTYPE
  5
2C
330
5
100
AcDbSymbolTableRecord
100
AcDbLinetypeTableRecord
  2
RAND3
 70
     0
  3
ランダム線3
 72
    65
 73
     4
 40
18.0
 49
3.0
 74
     0
 49
-4.0
 74
     0
 49
5.0
 74
     0
 49
-6.0
 74
     0
  0
LTYPE
  5
2D
330
5
100
AcDbSymbolTableRecord
100
AcDbLinetypeTableRecord
  2
RAND4
 70
     0
  3
ランダム線4
 72
    65
 73
     4
 40
22.0
 49
4.0
 74
     0
 49
-5.0
 74
     0
 49
6.0
 74
     0
 49
-7.0
 74
     0
  0
LTYPE
  5
2E
330
5
100
AcDbSymbolTableRecord
100
AcDbLinetypeTableRecord
  2
RAND5
 70
     0
  3
ランダム線5
 72
    65
 73
     4
 40
26.0
 49
5.0
 74
     0
 49
-6.0
 74
     0
 49
7.0
 74
     0
 49
-8.0
 74
     0
  0
LTYPE
  5
2F
330
5
100
AcDbSymbolTableRecord
100
AcDbLinetypeTableRecord
  2
LONG1
 70
     0
  3
----------  --  ----------  --  
 72
    65
 73
     4
 40
40.0
 49
32.5
 74
     0
 49
-2.5
 74
     0
 49
2.5
 74
     0
 49
-2.5
 74
     0
  0
LTYPE
  5
30
330
5
100
AcDbSymbolTableRecord
100
AcDbLinetypeTableRecord
  2
LONG2
 70
     0
  3
--------  -  -  --------  -  -  
 72
    65
 73
     6
 40
40.0
 49
30.0
 74
     0
 49
-2.5
 74
     0
 49
1.25
 74
     0
 49
-2.5
 74
     0
 49
1.25
 74
     0
 49
-2.5
 74
     0
  0
LTYPE
  5
31
330
5
100
AcDbSymbolTableRecord
100
AcDbLinetypeTableRecord
  2
LONG3
 70
     0
  3
+++++++++++++++..+++++++++++++++
 72
    65
 73
     2
 40
40.0
 49
37.5
 74
     0
 49
-2.5
 74
     0
  0
LTYPE
  5
32
330
5
100
AcDbSymbolTableRecord
100
AcDbLinetypeTableRecord
  2
LONG4
 70
     0
  3
+++++++++++++++..+++++++++++++++
 72
    65
 73
     2
 40
80.0
 49
75.0
 74
     0
 49
-5.0
 74
     0
  0
LTYPE
  5
33
330
5
100
AcDbSymbolTableRecord
100
AcDbLinetypeTableRecord
  2
LONG5
 70
     0
  3
----------  --  ----------  --  
 72
    65
 73
     4
 40
60.0
 49
37.5
 74
     0
 49
-7.5
 74
     0
 49
7.5
 74
     0
 49
-7.5
 74
     0
  0
LTYPE
  5
34
330
5
100
AcDbSymbolTableRecord
100
AcDbLinetypeTableRecord
  2
dashed
 70
     0
  3
-------   -------------   ------
 72
    65
 73
     2
 40
7.5
 49
6.0
 74
     0
 49
-1.5
 74
     0
  0
LTYPE
  5
35
330
5
100
AcDbSymbolTableRecord
100
AcDbLinetypeTableRecord
  2
dashed_spaced
 70
     0
  3
----        --------        ----
 72
    65
 73
     2
 40
12.0
 49
6.0
 74
     0
 49
-6.0
 74
     0
  0
LTYPE
  5
36
330
5
100
AcDbSymbolTableRecord
100
AcDbLinetypeTableRecord
  2
long_dashed_dotted
 70
     0
  3
------------- --- --------------
 72
    65
 73
     4
 40
15.25
 49
12.0
 74
     0
 49
-1.5
 74
     0
 49
0.25
 74
     0
 49
-1.5
 74
     0
  0
LTYPE
  5
37
330
5
100
AcDbSymbolTableRecord
100
AcDbLinetypeTableRecord
  2
long_dashed_double-dotted
 70
     0
  3
----------- --- --- ------------
 72
    65
 73
     6
 40
17.0
 49
12.0
 74
     0
 49
-1.5
 74
     0
 49
0.25
 74
     0
 49
-1.5
 74
     0
 49
0.25
 74
     0
 49
-1.5
 74
     0
  0
LTYPE
  5
38
330
5
100
AcDbSymbolTableRecord
100
AcDbLinetypeTableRecord
  2
long_dashed_triplicate-dotted
 70
     0
  3
--------- --- --- --- ----------
 72
    65
 73
     8
 40
18.75
 49
12.0
 74
     0
 49
-1.5
 74
     0
 49
0.25
 74
     0
 49
-1.5
 74
     0
 49
0.25
 74
     0
 49
-1.5
 74
     0
 49
0.25
 74
     0
 49
-1.5
 74
     0
  0
LTYPE
  5
39
330
5
100
AcDbSymbolTableRecord
100
AcDbLinetypeTableRecord
  2
dotted
 70
     0
  3
   -       -       -       -    
 72
    65
 73
     2
 40
1.75
 49
0.25
 74
     0
 49
-1.5
 74
     0
  0
LTYPE
  5
3A
330
5
100
AcDbSymbolTableRecord
100
AcDbLinetypeTableRecord
  2
chain
 70
     0
  3
-------------- -- --------------
 72
    65
 73
     4
 40
18.5
 49
12.0
 74
     0
 49
-1.5
 74
     0
 49
3.5
 74
     0
 49
-1.5
 74
     0
  0
LTYPE
  5
3B
330
5
100
AcDbSymbolTableRecord
100
AcDbLinetypeTableRecord
  2
chain_double_dash
 70
     0
  3
------------ -- -- -------------
 72
    65
 73
     6
 40
23.5
 49
12.0
 74
     0
 49
-1.5
 74
     0
 49
3.5
 74
     0
 49
-1.5
 74
     0
 49
3.5
 74
     0
 49
-1.5
 74
     0
  0
LTYPE
  5
3C
330
5
100
AcDbSymbolTableRecord
100
AcDbLinetypeTableRecord
  2
dashed_dotted
 70
     0
  3
-----------     -     ----------
 72
    65
 73
     4
 40
9.25
 49
6.0
 74
     0
 49
-1.5
 74
     0
 49
0.25
 74
     0
 49
-1.5
 74
     0
  0
LTYPE
  5
3D
330
5
100
AcDbSymbolTableRecord
100
AcDbLinetypeTableRecord
  2
double-dashed_dotted
 70
     0
  3
------   -----------   -   -----
 72
    65
 73
     6
 40
16.75
 49
6.0
 74
     0
 49
-1.5
 74
     0
 49
6.0
 74
     0
 49
-1.5
 74
     0
 49
0.25
 74
     0
 49
-1.5
 74
     0
  0
LTYPE
  5
3E
330
5
100
AcDbSymbolTableRecord
100
AcDbLinetypeTableRecord
  2
dashed_double-dotted
 70
     0
  3
---------    -    -    ---------
 72
    65
 73
     6
 40
11.0
 49
6.0
 74
     0
 49
-1.5
 74
     0
 49
0.25
 74
     0
 49
-1.5
 74
     0
 49
0.25
 74
     0
 49
-1.5
 74
     0
  0
LTYPE
  5
3F
330
5
100
AcDbSymbolTableRecord
100
AcDbLinetypeTableRecord
  2
double-dashed_double-dotted
 70
     0
  3
-----   ---------   -   -   ----
 72
    65
 73
     8
 40
18.5
 49
6.0
 74
     0
 49
-1.5
 74
     0
 49
6.0
 74
     0
 49
-1.5
 74
     0
 49
0.25
 74
     0
 49
-1.5
 74
     0
 49
0.25
 74
     0
 49
-1.5
 74
     0
  0
LTYPE
  5
40
330
5
100
AcDbSymbolTableRecord
100
AcDbLinetypeTableRecord
  2
dashed_triplicate-dotted
 70
     0
  3
-------    -    -    -    ------
 72
    65
 73
     8
 40
12.75
 49
6.0
 74
     0
 49
-1.5
 74
     0
 49
0.25
 74
     0
 49
-1.5
 74
     0
 49
0.25
 74
     0
 49
-1.5
 74
     0
 49
0.25
 74
     0
 49
-1.5
 74
     0
  0
LTYPE
  5
41
330
5
100
AcDbSymbolTableRecord
100
AcDbLinetypeTableRecord
  2
double-dashed_triplicate-dotted
 70
     0
  3
-----  ---------  -  -  -  -----
 72
    65
 73
    10
 40
20.25
 49
6.0
 74
     0
 49
-1.5
 74
     0
 49
6.0
 74
     0
 49
-1.5
 74
     0
 49
0.25
 74
     0
 49
-1.5
 74
     0
 49
0.25
 74
     0
 49
-1.5
 74
     0
 49
0.25
 74
     0
 49
-1.5
 74
     0
  0
LTYPE
  5
42
330
5
100
AcDbSymbolTableRecord
100
AcDbLinetypeTableRecord
  2
undefined
 70
     0
  3
--------------------------------
 72
    65
 73
     0
 40
0.0
  0
LTYPE
  5
43
330
5
100
AcDbSymbolTableRecord
100
AcDbLinetypeTableRecord
  2
STYLE_01
 70
     0
  3
----        --------        ----
 72
    65
 73
     2
 40
0.4166399999999998
 49
0.2082799999999999
 74
     0
 49
-0.2083599999999999
 74
     0
  0
LTYPE
  5
44
330
5
100
AcDbSymbolTableRecord
100
AcDbLinetypeTableRecord
  2
STYLE_02
 70
     0
  3
------     -----------     -----
 72
    65
 73
     2
 40
0.6944250000000001
 49
0.48607
 74
     0
 49
-0.2083550000000001
 74
     0
  0
LTYPE
  5
45
330
5
100
AcDbSymbolTableRecord
100
AcDbLinetypeTableRecord
  2
STYLE_03
 70
     0
  3
-------   -------------   ------
 72
    65
 73
     2
 40
1.25
 49
1.04164
 74
     0
 49
-0.2083599999999999
 74
     0
  0
LTYPE
  5
46
330
5
100
AcDbSymbolTableRecord
100
AcDbLinetypeTableRecord
  2
STYLE_04
 70
     0
  3
-------  --------------  -------
 72
    65
 73
     2
 40
1.52771
 49
1.319425
 74
     0
 49
-0.208285
 74
     0
  0
LTYPE
  5
47
330
5
100
AcDbSymbolTableRecord
100
AcDbLinetypeTableRecord
  2
STYLE_05
 70
     0
  3
---           -----           --
 72
    65
 73
     2
 40
0.20828
 49
0.069425
 74
     0
 49
-0.138855
 74
     0
  0
LTYPE
  5
48
330
5
100
AcDbSymbolTableRecord
100
AcDbLinetypeTableRecord
  2
STYLE_06
 70
     0
  3
----------      --    ----------
 72
    65
 73
     4
 40
1.04164
 49
0.625
 74
     0
 49
-0.2082799999999999
 74
     0
 49
0.06943
 74
     0
 49
-0.13893
 74
     0
  0
LTYPE
  5
49
330
5
100
AcDbSymbolTableRecord
100
AcDbLinetypeTableRecord
  2
STYLE_07
 70
     0
  3
-----    -----------    -  -----
 72
    65
 73
     6
 40
1.875
 49
0.625
 74
     0
 49
-0.2082799999999999
 74
     0
 49
0.6250000000000001
 74
     0
 49
-0.2083599999999999
 74
     0
 49
0.06943
 74
     0
 49
-0.1389299999999998
 74
     0
  0
LTYPE
  5
4A
330
5
100
AcDbSymbolTableRecord
100
AcDbLinetypeTableRecord
  2
STYLE_08
 70
     0
  3
--------     --    --    -------
 72
    65
 73
     6
 40
1.25
 49
0.625
 74
     0
 49
-0.2082799999999999
 74
     0
 49
0.06943
 74
     0
 49
-0.13893
 74
     0
 49
0.0694299999999997
 74
     0
 49
-0.13893
 74
     0
  0
LTYPE
  5
4B
330
5
100
AcDbSymbolTableRecord
100
AcDbLinetypeTableRecord
  2
STYLE_09
 70
     0
  3
------------  ----  ------------
 72
    65
 73
     4
 40
5.0
 49
3.75
 74
     0
 49
-0.2777849999999997
 74
     0
 49
0.6944300000000003
 74
     0
 49
-0.2777849999999997
 74
     0
  0
LTYPE
  5
4C
330
5
100
AcDbSymbolTableRecord
100
AcDbLinetypeTableRecord
  2
STYLE_10
 70
     0
  3
----------- ---- ---  ----------
 72
    65
 73
     6
 40
5.9375
 49
3.75
 74
     0
 49
-0.2777849999999997
 74
     0
 49
0.6944300000000003
 74
     0
 49
-0.2777849999999997
 74
     0
 49
0.625
 74
     0
 49
-0.3125
 74
     0
  0
ENDTAB
  0
TABLE
  2
LAYER
  5
2
102
{ACAD_XDICTIONARY
360
26B
102
}
330
0
100
AcDbSymbolTable
 70
     8
  0
LAYER
  5
10
330
2
100
AcDbSymbolTableRecord
100
AcDbLayerTableRecord
  2
0
 70
     0
 62
     7
  6
CONTINUOUS
370
    -3
390
F
347
236
  0
LAYER
  5
4F
330
2
100
AcDbSymbolTableRecord
100
AcDbLayerTableRecord
  2
_0-0_0
 70
     0
 62
     7
  6
CONTINUOUS
370
    -3
390
F
347
236
  0
LAYER
  5
50
330
2
100
AcDbSymbolTableRecord
100
AcDbLayerTableRecord
  2
_0-1_1_5
 70
     0
 62
     7
  6
CONTINUOUS
370
    -3
390
F
347
236
  0
LAYER
  5
51
330
2
100
AcDbSymbolTableRecord
100
AcDbLayerTableRecord
  2
_0-2_ADD_LINE
 70
     0
 62
     7
  6
CONTINUOUS
370
    -3
390
F
347
236
  0
LAYER
  5
52
330
2
100
AcDbSymbolTableRecord
100
AcDbLayerTableRecord
  2
_0-3_
 70
     0
 62
     7
  6
CONTINUOUS
370
    -3
390
F
347
236
  0
LAYER
  5
53
330
2
100
AcDbSymbolTableRecord
100
AcDbLayerTableRecord
  2
_0-4_
 70
     0
 62
     7
  6
CONTINUOUS
370
    -3
390
F
347
236
  0
LAYER
  5
54
330
2
100
AcDbSymbolTableRecord
100
AcDbLayerTableRecord
  2
ADD_LINE
 70
     0
 62
     7
  6
CONTINUOUS
370
    -3
390
F
347
236
  0
LAYER
  5
27F
330
2
100
AcDbSymbolTableRecord
100
AcDbLayerTableRecord
  2
Defpoints
 70
     0
 62
     7
  6
CONTINUOUS
290
     0
370
    -3
390
F
347
236
  0
ENDTAB
  0
TABLE
  2
STYLE
  5
3
330
0
100
AcDbSymbolTable
 70
     3
  0
STYLE
  5
11
330
3
100
AcDbSymbolTableRecord
100
AcDbTextStyleTableRecord
  2
STANDARD
 70
     0
 40
0.0
 41
1.0
 50
0.0
 71
     0
 42
0.2
  3
txt
  4
bigfont.shx
  0
STYLE
  5
4E
330
3
100
AcDbSymbolTableRecord
100
AcDbTextStyleTableRecord
  2
TATEGAKI
 70
     4
 40
0.0
 41
1.0
 50
0.0
 71
     0
 42
1.0
  3
txt
  4
bigfont.shx
  0
STYLE
  5
243
330
3
100
AcDbSymbolTableRecord
100
AcDbTextStyleTableRecord
  2
ＭＳ ゴシック
 70
     0
 40
0.0
 41
1.0
 50
0.0
 71
     0
 42
0.2
  3
msgothic.ttc
  4
ＭＳ ゴシック
1001
ACAD
1000
ＭＳ ゴシック
1071
        0
  0
ENDTAB
  0
TABLE
  2
VIEW
  5
6
330
0
100
AcDbSymbolTable
 70
     0
  0
ENDTAB
  0
TABLE
  2
UCS
  5
7
330
0
100
AcDbSymbolTable
 70
     0
  0
ENDTAB
  0
TABLE
  2
APPID
  5
9
330
0
100
AcDbSymbolTable
 70
     2
  0
APPID
  5
12
330
9
100
AcDbSymbolTableRecord
100
AcDbRegAppTableRecord
  2
ACAD
 70
     0
  0
APPID
  5
2C1
330
9
100
AcDbSymbolTableRecord
100
AcDbRegAppTableRecord
  2
ACAD_MLEADERVER
 70
     0
  0
ENDTAB
  0
TABLE
  2
DIMSTYLE
  5
A
330
0
100
AcDbSymbolTable
 70
     1
100
AcDbDimStyleTable
  0
DIMSTYLE
105
55
330
A
100
AcDbSymbolTableRecord
100
AcDbDimStyleTableRecord
  2
Standard
 70
     0
178
     0
340
11
  0
ENDTAB
  0
TABLE
  2
BLOCK_RECORD
  5
1
330
0
100
AcDbSymbolTable
 70
     3
  0
BLOCK_RECORD
  5
1D
330
1
100
AcDbSymbolTableRecord
100
AcDbBlockTableRecord
  2
*Model_Space
340
1E
 70
     0
280
     1
281
     0
  0
BLOCK_RECORD
  5
1B
330
1
100
AcDbSymbolTableRecord
100
AcDbBlockTableRecord
  2
*Paper_Space
340
1C
 70
     0
280
     1
281
     0
  0
BLOCK_RECORD
  5
58
330
1
100
AcDbSymbolTableRecord
100
AcDbBlockTableRecord
  2
-000-ペ__パ__
340
0
102
{BLKREFS
331
130
102
}
 70
     0
280
     1
281
     0
  0
ENDTAB
  0
ENDSEC
  0
SECTION
  2
BLOCKS
  0
BLOCK
  5
216
330
1D
100
AcDbEntity
  8
0
100
AcDbBlockBegin
  2
*Model_Space
 70
     0
 10
0.0
 20
0.0
 30
0.0
  3
*Model_Space
  1

  0
ENDBLK
  5
217
330
1D
100
AcDbEntity
  8
0
100
AcDbBlockEnd
  0
BLOCK
  5
218
330
1B
100
AcDbEntity
 67
     1
  8
0
100
AcDbBlockBegin
  2
*Paper_Space
 70
     0
 10
0.0
 20
0.0
 30
0.0
  3
*Paper_Space
  1

  0
ENDBLK
  5
219
330
1B
100
AcDbEntity
 67
     1
  8
0
100
AcDbBlockEnd
  0
BLOCK
  5
57
330
58
100
AcDbEntity
  8
0
100
AcDbBlockBegin
  2
-000-ペ__パ__
 70
     0
 10
0.0
 20
0.0
 30
0.0
  3
-000-ペ__パ__
  1

  0
CIRCLE
  5
59
330
58
100
AcDbEntity
  8
_0-3_
  6
DASHED2
 62
     7
100
AcDbCircle
 10
0.0
 20
0.0
 30
0.0
 40
19.0
  0
CIRCLE
  5
5A
330
58
100
AcDbEntity
  8
_0-3_
  6
DASHED2
 62
     7
100
AcDbCircle
 10
0.0
 20
0.0
 30
0.0
 40
57.0
  0
ENDBLK
  5
5B
330
58
100
AcDbEntity
  8
0
100
AcDbBlockEnd
  0
ENDSEC
  0
SECTION
  2
ENTITIES
  0
TEXT
  5
5C
330
1D
100
AcDbEntity
  8
_0-3_
 62
     7
100
AcDbText
 10
135.1669107451513
 20
-66.29024416093051
 30
0.0
 40
6.108154296875001
  1
ステンレススチール
  7
ＭＳ ゴシック
100
AcDbText
  0
LINE
  5
5D
330
1D
100
AcDbEntity
  8
_0-0_0
  6
Continuous
 62
     7
100
AcDbLine
 10
-87.01990673880675
 20
335.7593700835787
 30
0.0
 11
-87.01990673880675
 21
-84.24062991642126
 31
0.0
  0
LINE
  5
5E
330
1D
100
AcDbEntity
  8
_0-0_0
  6
Continuous
 62
     7
100
AcDbLine
 10
-87.01990673880675
 20
-84.24062991642126
 30
0.0
 11
506.9800932611932
 21
-84.24062991642131
 31
0.0
  0
LINE
  5
5F
330
1D
100
AcDbEntity
  8
_0-0_0
  6
Continuous
 62
     7
100
AcDbLine
 10
506.9800932611932
 20
-84.24062991642131
 30
0.0
 11
506.9800932611932
 21
335.7593700835787
 31
0.0
  0
LINE
  5
60
330
1D
100
AcDbEntity
  8
_0-0_0
  6
Continuous
 62
     7
100
AcDbLine
 10
506.9800932611932
 20
335.7593700835787
 30
0.0
 11
-87.01990673880675
 21
335.7593700835787
 31
0.0
  0
TEXT
  5
61
330
1D
100
AcDbEntity
  8
_0-3_
 62
     7
100
AcDbText
 10
121.2574144743394
 20
-62.900519036373
 30
0.0
 40
4.0
  1
材質
100
AcDbText
  0
TEXT
  5
62
330
1D
100
AcDbEntity
  8
_0-3_
 62
     7
100
AcDbText
 10
121.2574144743394
 20
-50.41778546170906
 30
0.0
 40
4.0
  1
仕上げ
100
AcDbText
  0
TEXT
  5
63
330
1D
100
AcDbEntity
  8
_0-3_
 62
     7
100
AcDbText
 10
121.2574144743394
 20
-38.55918856577836
 30
0.0
 40
4.0
  1
品名
100
AcDbText
  0
LINE
  5
64
330
1D
100
AcDbEntity
  8
_0-3_
  6
Continuous
 62
     7
100
AcDbLine
 10
305.3333333200483
 20
-68.80054147174008
 30
0.0
 11
305.3333333200483
 21
-32.80054147174002
 31
0.0
  0
LINE
  5
65
330
1D
100
AcDbEntity
  8
_0-3_
  6
Continuous
 62
     7
100
AcDbLine
 10
492.0000000000483
 20
-32.80054147174002
 30
0.0
 11
118.3055748847648
 21
-32.80054147174002
 31
0.0
  0
LINE
  5
66
330
1D
100
AcDbEntity
  8
_0-3_
  6
Continuous
 62
     7
100
AcDbLine
 10
492.0000000000483
 20
-44.80054147174002
 30
0.0
 11
118.3055748847648
 21
-44.80054147174002
 31
0.0
  0
LINE
  5
67
330
1D
100
AcDbEntity
  8
_0-3_
  6
Continuous
 62
     7
100
AcDbLine
 10
492.0000000000483
 20
-56.80054147174002
 30
0.0
 11
118.3055748847648
 21
-56.80054147174002
 31
0.0
  0
LINE
  5
68
330
1D
100
AcDbEntity
  8
_0-3_
  6
Continuous
 62
     7
100
AcDbLine
 10
118.3055748847648
 20
-68.80054147174002
 30
0.0
 11
118.3055748847648
 21
-32.80054147174002
 31
0.0
  0
TEXT
  5
69
330
1D
100
AcDbEntity
  8
_0-3_
 62
     7
100
AcDbText
 10
307.9064466930687
 20
-39.06031944540865
 30
0.0
 40
4.0
  1
品番
100
AcDbText
  0
TEXT
  5
6A
330
1D
100
AcDbEntity
  8
_0-3_
 62
     7
100
AcDbText
 10
307.9064466930687
 20
-50.73904216410074
 30
0.0
 40
4.0
  1
縮尺
100
AcDbText
  0
TEXT
  5
6B
330
1D
100
AcDbEntity
  8
_0-3_
 62
     7
100
AcDbText
 10
-66.88809398656463
 20
-76.72518315284276
 30
0.0
 40
5.0
  1
120718SH
  7
ＭＳ ゴシック
100
AcDbText
  0
LINE
  5
6C
330
1D
100
AcDbEntity
  8
_0-3_
  6
Continuous
 62
     7
100
AcDbLine
 10
-67.99999999995168
 20
321.1994585282601
 30
0.0
 11
-67.99999999995168
 21
-68.80054147174002
 31
0.0
  0
LINE
  5
6D
330
1D
100
AcDbEntity
  8
_0-3_
  6
Continuous
 62
     7
100
AcDbLine
 10
-67.99999999995168
 20
-68.80054147174002
 30
0.0
 11
492.0000000000483
 21
-68.80054147174008
 31
0.0
  0
LINE
  5
6E
330
1D
100
AcDbEntity
  8
_0-3_
  6
Continuous
 62
     7
100
AcDbLine
 10
492.0000000000483
 20
-68.80054147174008
 30
0.0
 11
492.0000000000483
 21
321.19945852826
 31
0.0
  0
LINE
  5
6F
330
1D
100
AcDbEntity
  8
_0-3_
  6
Continuous
 62
     7
100
AcDbLine
 10
492.0000000000483
 20
321.19945852826
 30
0.0
 11
-67.99999999995168
 21
321.1994585282601
 31
0.0
  0
TEXT
  5
70
330
1D
100
AcDbEntity
  8
_0-3_
 62
     7
100
AcDbText
 10
321.8436278512773
 20
-66.99685989441855
 30
0.0
 40
6.2
  1
大洋金物株式会社  ティーエフプラス事業部
  7
ＭＳ ゴシック
100
AcDbText
  0
TEXT
  5
71
330
1D
100
AcDbEntity
  8
_0-3_
 62
     7
100
AcDbText
 10
322.2564915247007
 20
-54.00036632388912
 30
0.0
 40
6.108154296875001
  1
1/2
  7
ＭＳ ゴシック
100
AcDbText
  0
LINE
  5
73
330
1D
100
AcDbEntity
  8
_0-1_1_5
  6
Continuous
 62
     7
100
AcDbLine
 10
30.97402669337282
 20
208.8312948047635
 30
0.0
 11
30.97402669337282
 21
210.2044519849487
 31
0.0
  0
LINE
  5
74
330
1D
100
AcDbEntity
  8
_0-1_1_5
  6
Continuous
 62
     7
100
AcDbLine
 10
27.77402669337278
 20
203.6578611759269
 30
0.0
 11
27.77402669337278
 21
214.7173326073112
 31
0.0
  0
LINE
  5
75
330
1D
100
AcDbEntity
  8
_0-1_1_5
  6
Continuous
 62
     7
100
AcDbLine
 10
30.97402669337282
 20
208.8312948047635
 30
0.0
 11
30.97402669337282
 21
255.5760248602026
 31
0.0
  0
LINE
  5
76
330
1D
100
AcDbEntity
  8
_0-1_1_5
  6
Continuous
 62
     7
100
AcDbLine
 10
33.83246087779969
 20
208.8103925422645
 30
0.0
 11
151.9740266933734
 21
208.8103925422645
 31
0.0
  0
LINE
  5
77
330
1D
100
AcDbEntity
  8
_0-1_1_5
  6
DASHED1
 62
     7
100
AcDbLine
 10
31.37402669337268
 20
253.4044519849483
 30
0.0
 11
47.97402669337305
 21
253.4044519849483
 31
0.0
  0
LINE
  5
78
330
1D
100
AcDbEntity
  8
_0-1_1_5
  6
DASHED1
 62
     7
100
AcDbLine
 10
154.9740266933734
 20
253.4044519849483
 30
0.0
 11
137.974026693373
 21
253.4044519849483
 31
0.0
  0
ARC
  5
79
330
1D
100
AcDbEntity
  8
_0-1_1_5
  6
Continuous
 62
     7
100
AcDbCircle
 10
31.37402669337268
 20
253.8044519849483
 30
0.0
 40
0.3999999999999773
100
AcDbArc
 50
180.0
 51
270.0
  0
LINE
  5
7A
330
1D
100
AcDbEntity
  8
_0-1_1_5
  6
Continuous
 62
     7
100
AcDbLine
 10
137.9740266933732
 20
265.4516059916531
 30
0.0
 11
137.974026693373
 21
269.4044519849483
 31
0.0
  0
LINE
  5
7B
330
1D
100
AcDbEntity
  8
_0-1_1_5
  6
Continuous
 62
     7
100
AcDbLine
 10
138.9740266933733
 20
269.4044519849483
 30
0.0
 11
138.9740266933733
 21
264.4516059916531
 31
0.0
  0
LINE
  5
7C
330
1D
100
AcDbEntity
  8
_0-1_1_5
  6
Continuous
 62
     7
100
AcDbLine
 10
138.9740266933733
 20
264.4516059916531
 30
0.0
 11
151.9536718430918
 21
264.4516059916531
 31
0.0
  0
ARC
  5
7D
330
1D
100
AcDbEntity
  8
_0-1_1_5
  6
Continuous
 62
     7
100
AcDbCircle
 10
138.9740266933732
 20
265.4516059916531
 30
0.0
 40
1.0
100
AcDbArc
 50
180.0
 51
270.0000000000049
  0
ARC
  5
7E
330
1D
100
AcDbEntity
  8
_0-1_1_5
  6
Continuous
 62
     7
100
AcDbCircle
 10
151.9740266933735
 20
261.45167504577
 30
0.0
 40
2.999999999999915
100
AcDbArc
 50
0.0
 51
90.00000000000162
  0
LINE
  5
7F
330
1D
100
AcDbEntity
  8
_0-1_1_5
  6
Continuous
 62
     7
100
AcDbLine
 10
47.97402669337293
 20
265.4516059916531
 30
0.0
 11
47.97402669337305
 21
269.4044519849483
 31
0.0
  0
LINE
  5
80
330
1D
100
AcDbEntity
  8
_0-1_1_5
  6
Continuous
 62
     7
100
AcDbLine
 10
46.97402669337282
 20
264.4516059916531
 30
0.0
 11
46.97402669337282
 21
269.4044519849483
 31
0.0
  0
ARC
  5
81
330
1D
100
AcDbEntity
  8
_0-1_1_5
  6
Continuous
 62
     7
100
AcDbCircle
 10
46.97402669337282
 20
265.4516059916531
 30
0.0
 40
1.0
100
AcDbArc
 50
270.0
 51
359.9999999999968
  0
ARC
  5
82
330
1D
100
AcDbEntity
  8
_0-1_1_5
  6
Continuous
 62
     7
100
AcDbCircle
 10
33.97402669337282
 20
261.4497905510807
 30
0.0
 40
3.000000000000057
100
AcDbArc
 50
90.0
 51
179.9999999999978
  0
LINE
  5
83
330
1D
100
AcDbEntity
  8
_0-1_1_5
  6
Continuous
 62
     7
100
AcDbLine
 10
33.97402669337282
 20
264.4497905510808
 30
0.0
 11
46.97402669337282
 21
264.4516059916531
 31
0.0
  0
LINE
  5
84
330
1D
100
AcDbEntity
  8
_0-1_1_5
  6
Continuous
 62
     7
100
AcDbLine
 10
158.1740266933734
 20
209.1675762487473
 30
0.0
 11
158.1740266933734
 21
255.5760248602026
 31
0.0
  0
LINE
  5
85
330
1D
100
AcDbEntity
  8
_0-1_1_5
  6
Continuous
 62
     7
100
AcDbLine
 10
154.9740266933734
 20
208.8312948047634
 30
0.0
 11
154.9740266933734
 21
255.5760248602026
 31
0.0
  0
ARC
  5
86
330
1D
100
AcDbEntity
  8
_0-1_1_5
  6
Continuous
 62
     7
100
AcDbCircle
 10
33.97493886758627
 20
211.8103925422645
 30
0.0
 40
3.0
100
AcDbArc
 50
180.0
 51
267.2778468556892
  0
ARC
  5
87
330
1D
100
AcDbEntity
  8
_0-1_1_5
  6
Continuous
 62
     7
100
AcDbCircle
 10
33.97493886758627
 20
211.5103925422646
 30
0.0
 40
3.0
100
AcDbArc
 50
180.0
 51
270.0
  0
LINE
  5
88
330
1D
100
AcDbEntity
  8
_0-1_1_5
  6
Continuous
 62
     7
100
AcDbLine
 10
33.97493886758627
 20
208.5103925422646
 30
0.0
 11
34.51990869861754
 21
208.5103925422646
 31
0.0
  0
LINE
  5
89
330
1D
100
AcDbEntity
  8
_0-1_1_5
  6
Continuous
 62
     7
100
AcDbLine
 10
151.9740266933734
 20
208.8103925422645
 30
0.0
 11
151.9740266933734
 21
208.8103925422645
 31
0.0
  0
LINE
  5
8A
330
1D
100
AcDbEntity
  8
_0-1_1_5
  6
Continuous
 62
     7
100
AcDbLine
 10
151.9740266933734
 20
208.8103925422645
 30
0.0
 11
152.4949712263742
 21
208.8559692832279
 31
0.0
  0
LINE
  5
8B
330
1D
100
AcDbEntity
  8
_0-1_1_5
  6
Continuous
 62
     7
100
AcDbLine
 10
152.4949712263742
 20
208.8559692832279
 30
0.0
 11
153.0000871233504
 21
208.9913146799068
 31
0.0
  0
LINE
  5
8C
330
1D
100
AcDbEntity
  8
_0-1_1_5
  6
Continuous
 62
     7
100
AcDbLine
 10
153.0000871233504
 20
208.9913146799068
 30
0.0
 11
153.4740266933734
 21
209.2123163309112
 31
0.0
  0
LINE
  5
8D
330
1D
100
AcDbEntity
  8
_0-1_1_5
  6
Continuous
 62
     7
100
AcDbLine
 10
153.4740266933734
 20
209.2123163309112
 30
0.0
 11
153.902389522433
 21
209.5122592129076
 31
0.0
  0
LINE
  5
8E
330
1D
100
AcDbEntity
  8
_0-1_1_5
  6
Continuous
 62
     7
100
AcDbLine
 10
153.902389522433
 20
209.5122592129076
 30
0.0
 11
154.2721600227303
 21
209.8820297132049
 31
0.0
  0
LINE
  5
8F
330
1D
100
AcDbEntity
  8
_0-1_1_5
  6
Continuous
 62
     7
100
AcDbLine
 10
154.2721600227303
 20
209.8820297132049
 30
0.0
 11
154.5721029047267
 21
210.3103925422645
 31
0.0
  0
LINE
  5
90
330
1D
100
AcDbEntity
  8
_0-1_1_5
  6
Continuous
 62
     7
100
AcDbLine
 10
154.5721029047267
 20
210.3103925422645
 30
0.0
 11
154.7931045557311
 21
210.7843321122875
 31
0.0
  0
LINE
  5
91
330
1D
100
AcDbEntity
  8
_0-1_1_5
  6
Continuous
 62
     7
100
AcDbLine
 10
154.7931045557311
 20
210.7843321122875
 30
0.0
 11
154.92844995241
 21
211.2894480092637
 31
0.0
  0
LINE
  5
92
330
1D
100
AcDbEntity
  8
_0-1_1_5
  6
Continuous
 62
     7
100
AcDbLine
 10
154.92844995241
 20
211.2894480092637
 30
0.0
 11
154.9740266933734
 21
211.8103925422645
 31
0.0
  0
LINE
  5
93
330
1D
100
AcDbEntity
  8
_0-1_1_5
  6
Continuous
 62
     7
100
AcDbLine
 10
151.9740266933734
 20
208.5103925422646
 30
0.0
 11
151.9740266933734
 21
208.5103925422646
 31
0.0
  0
LINE
  5
94
330
1D
100
AcDbEntity
  8
_0-1_1_5
  6
Continuous
 62
     7
100
AcDbLine
 10
151.9740266933734
 20
208.5103925422646
 30
0.0
 11
152.4949712263742
 21
208.555969283228
 31
0.0
  0
LINE
  5
95
330
1D
100
AcDbEntity
  8
_0-1_1_5
  6
Continuous
 62
     7
100
AcDbLine
 10
152.4949712263742
 20
208.555969283228
 30
0.0
 11
153.0000871233504
 21
208.6913146799069
 31
0.0
  0
LINE
  5
96
330
1D
100
AcDbEntity
  8
_0-1_1_5
  6
Continuous
 62
     7
100
AcDbLine
 10
153.0000871233504
 20
208.6913146799069
 30
0.0
 11
153.4740266933734
 21
208.9123163309113
 31
0.0
  0
LINE
  5
97
330
1D
100
AcDbEntity
  8
_0-1_1_5
  6
Continuous
 62
     7
100
AcDbLine
 10
153.4740266933734
 20
208.9123163309113
 30
0.0
 11
153.902389522433
 21
209.2122592129076
 31
0.0
  0
LINE
  5
98
330
1D
100
AcDbEntity
  8
_0-1_1_5
  6
Continuous
 62
     7
100
AcDbLine
 10
153.902389522433
 20
209.2122592129076
 30
0.0
 11
154.2721600227303
 21
209.582029713205
 31
0.0
  0
LINE
  5
99
330
1D
100
AcDbEntity
  8
_0-1_1_5
  6
Continuous
 62
     7
100
AcDbLine
 10
154.2721600227303
 20
209.582029713205
 30
0.0
 11
154.5721029047267
 21
210.0103925422646
 31
0.0
  0
LINE
  5
9A
330
1D
100
AcDbEntity
  8
_0-1_1_5
  6
Continuous
 62
     7
100
AcDbLine
 10
154.5721029047267
 20
210.0103925422646
 30
0.0
 11
154.7931045557311
 21
210.4843321122876
 31
0.0
  0
LINE
  5
9B
330
1D
100
AcDbEntity
  8
_0-1_1_5
  6
Continuous
 62
     7
100
AcDbLine
 10
154.7931045557311
 20
210.4843321122876
 30
0.0
 11
154.92844995241
 21
210.9894480092638
 31
0.0
  0
LINE
  5
9C
330
1D
100
AcDbEntity
  8
_0-1_1_5
  6
Continuous
 62
     7
100
AcDbLine
 10
154.92844995241
 20
210.9894480092638
 30
0.0
 11
154.9740266933734
 21
211.5103925422646
 31
0.0
  0
LINE
  5
9D
330
1D
100
AcDbEntity
  8
_0-1_1_5
  6
Continuous
 62
     7
100
AcDbLine
 10
30.97402669337282
 20
234.8839475546547
 30
0.0
 11
30.97493886758627
 21
234.8839475546547
 31
0.0
  0
LINE
  5
9E
330
1D
100
AcDbEntity
  8
_0-1_1_5
  6
Continuous
 62
     7
100
AcDbLine
 10
31.47493886758627
 20
234.8839475546547
 30
0.0
 11
154.9740266933734
 21
234.8839475546547
 31
0.0
  0
LINE
  5
9F
330
1D
100
AcDbEntity
  8
_0-1_1_5
  6
Continuous
 62
     7
100
AcDbLine
 10
154.9740266933734
 20
255.5760248602026
 30
0.0
 11
154.9740266933734
 21
269.4044519849483
 31
0.0
  0
LINE
  5
A0
330
1D
100
AcDbEntity
  8
_0-1_1_5
  6
Continuous
 62
     7
100
AcDbLine
 10
158.1740266933734
 20
255.5760248602026
 30
0.0
 11
158.1740266933734
 21
269.4044519849483
 31
0.0
  0
LINE
  5
A1
330
1D
100
AcDbEntity
  8
_0-1_1_5
  6
Continuous
 62
     7
100
AcDbLine
 10
30.97402669337282
 20
253.4044519849486
 30
0.0
 11
30.97402669337282
 21
269.0044519849483
 31
0.0
  0
LINE
  5
A2
330
1D
100
AcDbEntity
  8
_0-1_1_5
  6
Continuous
 62
     7
100
AcDbLine
 10
30.97402669337282
 20
255.5760248602026
 30
0.0
 11
30.97402669337282
 21
268.6302796211086
 31
0.0
  0
LINE
  5
A3
330
1D
100
AcDbEntity
  8
_0-1_1_5
  6
Continuous
 62
     7
100
AcDbLine
 10
154.9740266933734
 20
269.4044519849483
 30
0.0
 11
154.9740266933734
 21
255.5431214540725
 31
0.0
  0
LINE
  5
A4
330
1D
100
AcDbEntity
  8
_0-1_1_5
  6
Continuous
 62
     7
100
AcDbLine
 10
154.9740266933734
 20
269.4044519849483
 30
0.0
 11
158.1740266933733
 21
269.4044519849483
 31
0.0
  0
LINE
  5
A5
330
1D
100
AcDbEntity
  8
_0-1_1_5
  6
Continuous
 62
     7
100
AcDbLine
 10
158.1740266933733
 20
203.2675762487473
 30
0.0
 11
158.1740266933733
 21
269.4044519849483
 31
0.0
  0
LINE
  5
A6
330
1D
100
AcDbEntity
  8
_0-1_1_5
  6
Continuous
 62
     7
100
AcDbLine
 10
31.37402669337268
 20
269.4044519849483
 30
0.0
 11
34.17402669337332
 21
269.4044519849483
 31
0.0
  0
LINE
  5
A7
330
1D
100
AcDbEntity
  8
_0-1_1_5
  6
Continuous
 62
     7
100
AcDbLine
 10
31.37402669337268
 20
269.4044519849483
 30
0.0
 11
47.97402669337305
 21
269.4044519849483
 31
0.0
  0
ARC
  5
A8
330
1D
100
AcDbEntity
  8
_0-1_1_5
  6
Continuous
 62
     7
100
AcDbCircle
 10
31.37402669337268
 20
269.0044519849483
 30
0.0
 40
0.3999999999999773
100
AcDbArc
 50
90.0
 51
180.0
  0
LINE
  5
A9
330
1D
100
AcDbEntity
  8
_0-1_1_5
  6
Continuous
 62
     7
100
AcDbLine
 10
154.9740266933734
 20
269.4044519849483
 30
0.0
 11
137.974026693373
 21
269.4044519849483
 31
0.0
  0
LINE
  5
AA
330
1D
100
AcDbEntity
  8
_0-1_1_5
  6
Continuous
 62
     7
100
AcDbLine
 10
47.97402669337305
 20
269.4044519849483
 30
0.0
 11
137.974026693373
 21
269.4044519849483
 31
0.0
  0
LINE
  5
AB
330
1D
100
AcDbEntity
  8
_0-1_1_5
  6
Continuous
 62
     7
100
AcDbLine
 10
34.47402669337282
 20
208.5103925422646
 30
0.0
 11
151.4290568623421
 21
208.5103925422646
 31
0.0
  0
LINE
  5
AC
330
1D
100
AcDbEntity
  8
_0-1_1_5
  6
Continuous
 62
     7
100
AcDbLine
 10
151.9740266933734
 20
205.8312948047634
 30
0.0
 11
33.97402669337271
 21
205.8312948047634
 31
0.0
  0
LINE
  5
AD
330
1D
100
AcDbEntity
  8
_0-1_1_5
  6
Continuous
 62
     7
100
AcDbLine
 10
151.9740266933734
 20
197.4578611759268
 30
0.0
 11
33.97402669337271
 21
197.4578611759268
 31
0.0
  0
LINE
  5
AE
330
1D
100
AcDbEntity
  8
_0-1_1_5
  6
Continuous
 62
     7
100
AcDbLine
 10
151.2816894320538
 20
202.9675762487473
 30
0.0
 11
33.97402669337271
 21
202.9675762487473
 31
0.0
  0
LINE
  5
AF
330
1D
100
AcDbEntity
  8
_0-1_1_5
  6
Continuous
 62
     7
100
AcDbLine
 10
27.77402669337278
 20
214.7173326073112
 30
0.0
 11
30.97402669337282
 21
214.7173326073112
 31
0.0
  0
LINE
  5
B0
330
1D
100
AcDbEntity
  8
_0-1_1_5
  6
DASHED1
 62
     7
100
AcDbLine
 10
138.9740266933733
 20
264.4516059916531
 30
0.0
 11
138.9740266933733
 21
253.4044519849483
 31
0.0
  0
LINE
  5
B1
330
1D
100
AcDbEntity
  8
_0-1_1_5
  6
DASHED1
 62
     7
100
AcDbLine
 10
137.9740266933732
 20
265.4516059916531
 30
0.0
 11
137.9740266933732
 21
253.4044519849483
 31
0.0
  0
LINE
  5
B2
330
1D
100
AcDbEntity
  8
_0-1_1_5
  6
DASHED1
 62
     7
100
AcDbLine
 10
47.97402669337282
 20
265.4516059916531
 30
0.0
 11
47.97402669337282
 21
253.4044519849483
 31
0.0
  0
LINE
  5
B3
330
1D
100
AcDbEntity
  8
_0-1_1_5
  6
DASHED1
 62
     7
100
AcDbLine
 10
46.97402669337282
 20
264.4516059916531
 30
0.0
 11
46.97402669337282
 21
253.4042596410488
 31
0.0
  0
LINE
  5
B4
330
1D
100
AcDbEntity
  8
_0-1_1_5
  6
DASHED1
 62
     7
100
AcDbLine
 10
31.37402669337268
 20
253.4044519849483
 30
0.0
 11
154.9740266933734
 21
253.4044519849483
 31
0.0
  0
ARC
  5
B5
330
1D
100
AcDbEntity
  8
_0-1_1_5
  6
Continuous
 62
     7
100
AcDbCircle
 10
151.9740266933734
 20
209.1675762487473
 30
0.0
 40
6.2
100
AcDbArc
 50
270.0
 51
0.0
  0
LINE
  5
B6
330
1D
100
AcDbEntity
  8
_0-1_1_5
  6
Continuous
 62
     7
100
AcDbLine
 10
151.9740266933734
 20
202.9675762487473
 30
0.0
 11
151.7717674635919
 21
202.9675762487473
 31
0.0
  0
LINE
  5
B7
330
1D
100
AcDbEntity
  8
_0-1_1_5
  6
Continuous
 62
     7
100
AcDbLine
 10
151.7717674635919
 20
202.9675762487473
 30
0.0
 11
151.2816894320538
 21
202.9675762487473
 31
0.0
  0
LINE
  5
B8
330
1D
100
AcDbEntity
  8
_0-1_1_5
  6
Continuous
 62
     7
100
AcDbLine
 10
158.1740266933733
 20
203.6578611759268
 30
0.0
 11
158.1740266933733
 21
220.5656839628006
 31
0.0
  0
ARC
  5
B9
330
1D
100
AcDbEntity
  8
_0-1_1_5
  6
Continuous
 62
     7
100
AcDbCircle
 10
151.9740266933734
 20
203.6578611759268
 30
0.0
 40
6.2
100
AcDbArc
 50
270.0
 51
0.0
  0
ARC
  5
BA
330
1D
100
AcDbEntity
  8
_0-1_1_5
  6
Continuous
 62
     7
100
AcDbCircle
 10
151.9740266933734
 20
208.8312948047634
 30
0.0
 40
3.0
100
AcDbArc
 50
270.0
 51
0.0
  0
LINE
  5
BB
330
1D
100
AcDbEntity
  8
_0-1_1_5
  6
Continuous
 62
     7
100
AcDbLine
 10
31.37402669337268
 20
269.4044519849483
 30
0.0
 11
154.9740266933734
 21
269.4044519849483
 31
0.0
  0
ARC
  5
BC
330
1D
100
AcDbEntity
  8
_0-1_1_5
  6
Continuous
 62
     7
100
AcDbCircle
 10
33.97402669337271
 20
208.8312948047635
 30
0.0
 40
3.0
100
AcDbArc
 50
180.0
 51
270.0
  0
ARC
  5
BD
330
1D
100
AcDbEntity
  8
_0-1_1_5
  6
Continuous
 62
     7
100
AcDbCircle
 10
33.97402669337271
 20
203.6578611759269
 30
0.0
 40
6.2
100
AcDbArc
 50
180.0
 51
270.0
  0
ARC
  5
BE
330
1D
100
AcDbEntity
  8
_0-1_1_5
  6
Continuous
 62
     7
100
AcDbCircle
 10
33.97402669337271
 20
209.1675762487473
 30
0.0
 40
6.2
100
AcDbArc
 50
180.0
 51
270.0
  0
LINE
  5
BF
330
1D
100
AcDbEntity
  8
_0-1_1_5
  6
CENTER2
 62
     7
100
AcDbLine
 10
33.97402669337282
 20
261.4044519849483
 30
0.0
 11
43.97402669337282
 21
261.4044519849483
 31
0.0
  0
LINE
  5
C0
330
1D
100
AcDbEntity
  8
_0-1_1_5
  6
CENTER2
 62
     7
100
AcDbLine
 10
38.97402669337282
 20
256.4044519849483
 30
0.0
 11
38.97402669337282
 21
266.4044519849483
 31
0.0
  0
LINE
  5
C1
330
1D
100
AcDbEntity
  8
_0-1_1_5
  6
CENTER2
 62
     7
100
AcDbLine
 10
146.9740266933728
 20
256.4044519849483
 30
0.0
 11
146.9740266933728
 21
266.4044519849483
 31
0.0
  0
LINE
  5
C2
330
1D
100
AcDbEntity
  8
_0-1_1_5
  6
CENTER2
 62
     7
100
AcDbLine
 10
141.9740266933728
 20
261.4044519849483
 30
0.0
 11
151.9740266933728
 21
261.4044519849483
 31
0.0
  0
LINE
  5
C3
330
1D
100
AcDbEntity
  8
_0-1_1_5
  6
Continuous
 62
     7
100
AcDbLine
 10
323.0741605651261
 20
264.5055143922204
 30
0.0
 11
323.5436321279121
 21
263.6225667993616
 31
0.0
  0
LINE
  5
C4
330
1D
100
AcDbEntity
  8
_0-1_1_5
  6
Continuous
 62
     7
100
AcDbLine
 10
386.2956931229795
 20
253.4044519849486
 30
0.0
 11
339.8973534286572
 21
253.4044519849486
 31
0.0
  0
LINE
  5
C5
330
1D
100
AcDbEntity
  8
_0-1_1_5
  6
Continuous
 62
     7
100
AcDbLine
 10
386.2956931229795
 20
269.4044519849483
 30
0.0
 11
386.2956931229795
 21
253.4044519849486
 31
0.0
  0
LINE
  5
C6
330
1D
100
AcDbEntity
  8
_0-1_1_5
  6
Continuous
 62
     7
100
AcDbLine
 10
334.2956931229796
 20
269.4044519849483
 30
0.0
 11
386.2956931229795
 21
269.4044519849483
 31
0.0
  0
LINE
  5
C7
330
1D
100
AcDbEntity
  8
_0-1_1_5
  6
Continuous
 62
     7
100
AcDbLine
 10
327.5897508607617
 20
265.7668295907732
 30
0.0
 11
268.7042067437328
 21
234.4568303952304
 31
0.0
  0
LINE
  5
C8
330
1D
100
AcDbEntity
  8
_0-1_1_5
  6
Continuous
 62
     7
100
AcDbLine
 10
330.5399206206923
 20
268.4680327278197
 30
0.0
 11
267.4684245400072
 21
234.9323233927191
 31
0.0
  0
LINE
  5
C9
330
1D
100
AcDbEntity
  8
_0-1_1_5
  6
Continuous
 62
     7
100
AcDbLine
 10
268.198244143069
 20
234.1878053083895
 30
0.0
 11
253.9084603501622
 21
208.558768380329
 31
0.0
  0
LINE
  5
CA
330
1D
100
AcDbEntity
  8
_0-1_1_5
  6
Continuous
 62
     7
100
AcDbLine
 10
268.683565073287
 20
234.4458550243691
 30
0.0
 11
268.198244143069
 21
234.1878053083895
 31
0.0
  0
LINE
  5
CB
330
1D
100
AcDbEntity
  8
_0-1_1_5
  6
Continuous
 62
     7
100
AcDbLine
 10
268.7042067437328
 20
234.4568303952304
 30
0.0
 11
268.683565073287
 21
234.4458550243691
 31
0.0
  0
LINE
  5
CC
330
1D
100
AcDbEntity
  8
_0-1_1_5
  6
Continuous
 62
     7
100
AcDbLine
 10
267.4684245400072
 20
234.9323233927191
 30
0.0
 11
253.0350278661783
 21
209.045713650274
 31
0.0
  0
LINE
  5
CD
330
1D
100
AcDbEntity
  8
_0-1_1_5
  6
Continuous
 62
     7
100
AcDbLine
 10
253.0350278661783
 20
209.045713650274
 30
0.0
 11
253.9084603501622
 21
208.558768380329
 31
0.0
  0
LINE
  5
CE
330
1D
100
AcDbEntity
  8
_0-1_1_5
  6
Continuous
 62
     7
100
AcDbLine
 10
326.7781521566923
 20
264.1406131315538
 30
0.0
 11
304.5810448548565
 21
203.1545620425488
 31
0.0
  0
ARC
  5
CF
330
1D
100
AcDbEntity
  8
_0-1_1_5
  6
Continuous
 62
     7
100
AcDbCircle
 10
334.2956931229795
 20
261.4044519849483
 30
0.0
 40
8.000000000000028
100
AcDbArc
 50
70.0
 51
159.9999999999986
  0
ARC
  5
D0
330
1D
100
AcDbEntity
  8
_0-1_1_5
  6
Continuous
 62
     7
100
AcDbCircle
 10
334.2956931229796
 20
261.4044519849484
 30
0.0
 40
7.999999999999829
100
AcDbArc
 50
340.0000000000001
 51
70.00000000000104
  0
LINE
  5
D1
330
1D
100
AcDbEntity
  8
_0-1_1_5
  6
Continuous
 62
     7
100
AcDbLine
 10
319.616126787431
 20
197.6822397493381
 30
0.0
 11
341.8132340892668
 21
258.6682908383431
 31
0.0
  0
ARC
  5
D2
330
1D
100
AcDbEntity
  8
_0-1_1_5
  6
Continuous
 62
     7
100
AcDbCircle
 10
304.8720165907798
 20
203.0486569916599
 30
0.0
 40
0.2999999999999545
100
AcDbArc
 50
160.0
 51
250.0
  0
ARC
  5
D3
330
1D
100
AcDbEntity
  8
_0-1_1_5
  6
STYLE_01
 62
     7
100
AcDbCircle
 10
307.9645439374265
 20
189.1430839841391
 30
0.0
 40
25.99999999999978
100
AcDbArc
 50
59.77382430698544
 51
80.22617569301464
  0
ARC
  5
D4
330
1D
100
AcDbEntity
  8
_0-1_1_5
  6
STYLE_01
 62
     7
100
AcDbCircle
 10
318.507461467409
 20
207.8761964323675
 30
0.0
 40
4.5
100
AcDbArc
 50
340.0000000000001
 51
70.0
  0
ARC
  5
D5
330
1D
100
AcDbEntity
  8
_0-1_1_5
  6
STYLE_01
 62
     7
100
AcDbCircle
 10
311.9296131219077
 20
210.2703374356472
 30
0.0
 40
4.500000000000057
100
AcDbArc
 50
70.0
 51
160.0
  0
LINE
  5
D6
330
1D
100
AcDbEntity
  8
_0-1_1_5
  6
STYLE_02
 62
     7
100
AcDbLine
 10
305.5729032705009
 20
205.8796706428278
 30
0.0
 11
320.6079852030755
 21
200.4073483496171
 31
0.0
  0
LINE
  5
D7
330
1D
100
AcDbEntity
  8
_0-1_1_5
  6
Continuous
 62
     7
100
AcDbLine
 10
319.231613113781
 20
197.5029379494723
 30
0.0
 11
304.7603465980945
 21
202.7700482133154
 31
0.0
  0
ARC
  5
D8
330
1D
100
AcDbEntity
  8
_0-1_1_5
  6
Continuous
 62
     7
100
AcDbCircle
 10
319.3251550515076
 20
197.7881448002269
 30
0.0
 40
0.2999999999999545
100
AcDbArc
 50
250.0
 51
340.0000000000001
  0
LINE
  5
D9
330
1D
100
AcDbEntity
  8
_0-1_1_5
  6
STYLE_01
 62
     7
100
AcDbLine
 10
381.7956931229799
 20
256.4044519849484
 30
0.0
 11
381.7956931229799
 21
266.4044519849484
 31
0.0
  0
LINE
  5
DA
330
1D
100
AcDbEntity
  8
_0-1_1_5
  6
STYLE_01
 62
     7
100
AcDbLine
 10
378.7956931229795
 20
266.4044519849484
 30
0.0
 11
378.7956931229795
 21
256.4044519849484
 31
0.0
  0
LINE
  5
DB
330
1D
100
AcDbEntity
  8
_0-1_1_5
  6
STYLE_01
 62
     7
100
AcDbLine
 10
381.7956931229799
 20
266.4044519849484
 30
0.0
 11
380.2956931229796
 21
264.9044519849485
 31
0.0
  0
LINE
  5
DC
330
1D
100
AcDbEntity
  8
_0-1_1_5
  6
STYLE_01
 62
     7
100
AcDbLine
 10
378.7956931229795
 20
266.4044519849484
 30
0.0
 11
380.2956931229796
 21
264.9044519849485
 31
0.0
  0
LINE
  5
DD
330
1D
100
AcDbEntity
  8
_0-1_1_5
  6
STYLE_01
 62
     7
100
AcDbLine
 10
381.7956931229799
 20
256.4044519849484
 30
0.0
 11
380.2956931229796
 21
257.9044519849484
 31
0.0
  0
LINE
  5
DE
330
1D
100
AcDbEntity
  8
_0-1_1_5
  6
STYLE_01
 62
     7
100
AcDbLine
 10
378.7956931229795
 20
256.4044519849484
 30
0.0
 11
380.2956931229796
 21
257.9044519849484
 31
0.0
  0
LINE
  5
DF
330
1D
100
AcDbEntity
  8
_0-1_1_5
  6
STYLE_01
 62
     7
100
AcDbLine
 10
374.2956931229799
 20
266.4044519849484
 30
0.0
 11
378.7956931229795
 21
266.4044519849484
 31
0.0
  0
LINE
  5
E0
330
1D
100
AcDbEntity
  8
_0-1_1_5
  6
STYLE_01
 62
     7
100
AcDbLine
 10
374.2956931229799
 20
256.4044519849484
 30
0.0
 11
374.2956931229799
 21
266.4044519849484
 31
0.0
  0
LINE
  5
E1
330
1D
100
AcDbEntity
  8
_0-1_1_5
  6
STYLE_01
 62
     7
100
AcDbLine
 10
378.7956931229795
 20
256.4044519849484
 30
0.0
 11
374.2956931229799
 21
256.4044519849484
 31
0.0
  0
LINE
  5
E2
330
1D
100
AcDbEntity
  8
_0-1_1_5
  6
STYLE_01
 62
     7
100
AcDbLine
 10
386.2956931229795
 20
256.4044519849484
 30
0.0
 11
381.7956931229799
 21
256.4044519849484
 31
0.0
  0
LINE
  5
E3
330
1D
100
AcDbEntity
  8
_0-1_1_5
  6
STYLE_01
 62
     7
100
AcDbLine
 10
386.2956931229795
 20
266.4044519849484
 30
0.0
 11
386.2956931229795
 21
256.4044519849484
 31
0.0
  0
LINE
  5
E4
330
1D
100
AcDbEntity
  8
_0-1_1_5
  6
STYLE_01
 62
     7
100
AcDbLine
 10
381.7956931229799
 20
266.4044519849484
 30
0.0
 11
386.2956931229795
 21
266.4044519849484
 31
0.0
  0
LINE
  5
E5
330
1D
100
AcDbEntity
  8
_0-1_1_5
  6
Continuous
 62
     7
100
AcDbLine
 10
389.3076210951585
 20
259.7713602436964
 30
0.0
 11
390.713853784888
 21
263.2711642322882
 31
0.0
  0
LINE
  5
E6
330
1D
100
AcDbEntity
  8
_0-1_1_5
  6
Continuous
 62
     7
100
AcDbLine
 10
387.9013884054283
 20
259.7713602436964
 30
0.0
 11
389.3076210951585
 21
263.2711642322882
 31
0.0
  0
LINE
  5
E7
330
1D
100
AcDbEntity
  8
_0-1_1_5
  6
Continuous
 62
     7
100
AcDbLine
 10
386.4951557156988
 20
259.7713602436964
 30
0.0
 11
387.9013884054283
 21
263.2711642322882
 31
0.0
  0
LINE
  5
E8
330
1D
100
AcDbEntity
  8
_0-1_1_5
  6
STYLE_01
 62
     7
100
AcDbLine
 10
376.0457911286838
 20
263.1543539792443
 30
0.0
 11
376.0457911286838
 21
259.6545499906525
 31
0.0
  0
LINE
  5
E9
330
1D
100
AcDbEntity
  8
_0-1_1_5
  6
STYLE_01
 62
     7
100
AcDbLine
 10
374.2956931229799
 20
257.9044519849485
 30
0.0
 11
376.0457911286837
 21
259.6545499906525
 31
0.0
  0
LINE
  5
EA
330
1D
100
AcDbEntity
  8
_0-1_1_5
  6
STYLE_01
 62
     7
100
AcDbLine
 10
374.2956931229799
 20
264.9044519849485
 30
0.0
 11
376.0457911286838
 21
263.1543539792443
 31
0.0
  0
LINE
  5
EB
330
1D
100
AcDbEntity
  8
_0-1_1_5
  6
STYLE_01
 62
     7
100
AcDbLine
 10
376.0457911286838
 20
261.639526750939
 30
0.0
 11
376.7013884054286
 21
263.2711642322882
 31
0.0
  0
LINE
  5
EC
330
1D
100
AcDbEntity
  8
_0-1_1_5
  6
STYLE_01
 62
     7
100
AcDbLine
 10
376.695155715699
 20
259.7713602436964
 30
0.0
 11
378.1013884054289
 21
263.2711642322882
 31
0.0
  0
LINE
  5
ED
330
1D
100
AcDbEntity
  8
_0-1_1_5
  6
STYLE_01
 62
     7
100
AcDbLine
 10
378.095155715699
 20
259.7713602436964
 30
0.0
 11
379.5013884054288
 21
263.2711642322882
 31
0.0
  0
LINE
  5
EE
330
1D
100
AcDbEntity
  8
_0-1_1_5
  6
STYLE_01
 62
     7
100
AcDbLine
 10
379.4951557156992
 20
259.7713602436964
 30
0.0
 11
380.9013884054286
 21
263.2711642322882
 31
0.0
  0
LINE
  5
EF
330
1D
100
AcDbEntity
  8
_0-1_1_5
  6
STYLE_01
 62
     7
100
AcDbLine
 10
380.895155715699
 20
259.7713602436964
 30
0.0
 11
382.3013884054287
 21
263.2711642322882
 31
0.0
  0
LINE
  5
F0
330
1D
100
AcDbEntity
  8
_0-1_1_5
  6
STYLE_01
 62
     7
100
AcDbLine
 10
382.2951557156989
 20
259.7713602436964
 30
0.0
 11
383.7013884054286
 21
263.2711642322882
 31
0.0
  0
LINE
  5
F1
330
1D
100
AcDbEntity
  8
_0-1_1_5
  6
STYLE_01
 62
     7
100
AcDbLine
 10
383.695155715699
 20
259.7713602436964
 30
0.0
 11
385.1013884054286
 21
263.2711642322882
 31
0.0
  0
LINE
  5
F2
330
1D
100
AcDbEntity
  8
_0-1_1_5
  6
STYLE_01
 62
     7
100
AcDbLine
 10
385.0951557156989
 20
259.7713602436964
 30
0.0
 11
386.5013884054284
 21
263.2711642322882
 31
0.0
  0
LINE
  5
F3
330
1D
100
AcDbEntity
  8
_0-1_1_5
  6
Continuous
 62
     7
100
AcDbLine
 10
396.3387845438069
 20
259.7713602436964
 30
0.0
 11
397.7450172335367
 21
263.2711642322882
 31
0.0
  0
LINE
  5
F4
330
1D
100
AcDbEntity
  8
_0-1_1_5
  6
Continuous
 62
     7
100
AcDbLine
 10
410.4011114411046
 20
259.7713602436964
 30
0.0
 11
411.8073441308343
 21
263.2711642322882
 31
0.0
  0
LINE
  5
F5
330
1D
100
AcDbEntity
  8
_0-1_1_5
  6
Continuous
 62
     7
100
AcDbLine
 10
413.2135768205641
 20
259.7713602436964
 30
0.0
 11
414.6198095102935
 21
263.2711642322882
 31
0.0
  0
LINE
  5
F6
330
1D
100
AcDbEntity
  8
_0-1_1_5
  6
Continuous
 62
     7
100
AcDbLine
 10
411.8073441308343
 20
259.7713602436964
 30
0.0
 11
413.2135768205641
 21
263.2711642322882
 31
0.0
  0
LINE
  5
F7
330
1D
100
AcDbEntity
  8
_0-1_1_5
  6
Continuous
 62
     7
100
AcDbLine
 10
408.9948787513746
 20
259.7713602436964
 30
0.0
 11
410.4011114411046
 21
263.2711642322882
 31
0.0
  0
LINE
  5
F8
330
1D
100
AcDbEntity
  8
_0-1_1_5
  6
Continuous
 62
     7
100
AcDbLine
 10
394.9325518540775
 20
259.7713602436964
 30
0.0
 11
396.3387845438069
 21
263.2711642322882
 31
0.0
  0
LINE
  5
F9
330
1D
100
AcDbEntity
  8
_0-1_1_5
  6
Continuous
 62
     7
100
AcDbLine
 10
407.588646061645
 20
259.7713602436964
 30
0.0
 11
408.9948787513746
 21
263.2711642322882
 31
0.0
  0
LINE
  5
FA
330
1D
100
AcDbEntity
  8
_0-1_1_5
  6
Continuous
 62
     7
100
AcDbLine
 10
406.1824133719153
 20
259.7713602436964
 30
0.0
 11
407.588646061645
 21
263.2711642322882
 31
0.0
  0
LINE
  5
FB
330
1D
100
AcDbEntity
  8
_0-1_1_5
  6
Continuous
 62
     7
100
AcDbLine
 10
404.7761806821854
 20
259.7713602436964
 30
0.0
 11
406.1824133719153
 21
263.2711642322882
 31
0.0
  0
LINE
  5
FC
330
1D
100
AcDbEntity
  8
_0-1_1_5
  6
Continuous
 62
     7
100
AcDbLine
 10
403.3699479924556
 20
259.7713602436964
 30
0.0
 11
404.7761806821854
 21
263.2711642322882
 31
0.0
  0
LINE
  5
FD
330
1D
100
AcDbEntity
  8
_0-1_1_5
  6
Continuous
 62
     7
100
AcDbLine
 10
401.9637153027261
 20
259.7713602436964
 30
0.0
 11
403.3699479924556
 21
263.2711642322882
 31
0.0
  0
LINE
  5
FE
330
1D
100
AcDbEntity
  8
_0-1_1_5
  6
Continuous
 62
     7
100
AcDbLine
 10
400.5574826129964
 20
259.7713602436964
 30
0.0
 11
401.9637153027261
 21
263.2711642322882
 31
0.0
  0
LINE
  5
FF
330
1D
100
AcDbEntity
  8
_0-1_1_5
  6
Continuous
 62
     7
100
AcDbLine
 10
397.7450172335367
 20
259.7713602436964
 30
0.0
 11
399.1512499232667
 21
263.2711642322882
 31
0.0
  0
LINE
  5
100
330
1D
100
AcDbEntity
  8
_0-1_1_5
  6
Continuous
 62
     7
100
AcDbLine
 10
399.1512499232667
 20
259.7713602436964
 30
0.0
 11
400.5574826129964
 21
263.2711642322882
 31
0.0
  0
LINE
  5
101
330
1D
100
AcDbEntity
  8
_0-1_1_5
  6
Continuous
 62
     7
100
AcDbLine
 10
393.5263191643472
 20
259.7713602436964
 30
0.0
 11
394.9325518540775
 21
263.2711642322882
 31
0.0
  0
LINE
  5
102
330
1D
100
AcDbEntity
  8
_0-1_1_5
  6
Continuous
 62
     7
100
AcDbLine
 10
392.1200864746178
 20
259.7713602436964
 30
0.0
 11
393.5263191643472
 21
263.2711642322882
 31
0.0
  0
LINE
  5
103
330
1D
100
AcDbEntity
  8
_0-1_1_5
  6
Continuous
 62
     7
100
AcDbLine
 10
390.713853784888
 20
259.7713602436964
 30
0.0
 11
392.1200864746178
 21
263.2711642322882
 31
0.0
  0
LINE
  5
104
330
1D
100
AcDbEntity
  8
_0-1_1_5
  6
Continuous
 62
     7
100
AcDbLine
 10
376.0826134056106
 20
263.1543539792443
 30
0.0
 11
414.6192555816458
 21
263.1543539792443
 31
0.0
  0
LINE
  5
105
330
1D
100
AcDbEntity
  8
_0-1_1_5
  6
Continuous
 62
     7
100
AcDbLine
 10
376.0457911286837
 20
259.6545499906525
 30
0.0
 11
414.6198095102935
 21
259.6545499906525
 31
0.0
  0
LINE
  5
106
330
1D
100
AcDbEntity
  8
_0-1_1_5
  6
Continuous
 62
     7
100
AcDbLine
 10
420.2447402692128
 20
261.4044519849484
 30
0.0
 11
414.6198095102935
 21
259.6545499906525
 31
0.0
  0
LINE
  5
107
330
1D
100
AcDbEntity
  8
_0-1_1_5
  6
Continuous
 62
     7
100
AcDbLine
 10
420.2447402692128
 20
261.4044519849484
 30
0.0
 11
414.6198095102935
 21
263.1543539792443
 31
0.0
  0
LINE
  5
108
330
1D
100
AcDbEntity
  8
_0-2_ADD_LINE
  6
Continuous
 62
     7
100
AcDbLine
 10
30.97402669337282
 20
289.2727362058238
 30
0.0
 11
30.97402669337282
 21
272.6302796211086
 31
0.0
  0
LINE
  5
109
330
1D
100
AcDbEntity
  8
_0-3_
  6
Continuous
 62
     7
100
AcDbLine
 10
27.77402669337278
 20
299.2794781149241
 30
0.0
 11
158.1740266933733
 21
299.2794781149241
 31
0.0
  0
TEXT
  5
10A
330
1D
100
AcDbEntity
  8
_0-0_0
 62
     4
100
AcDbText
 10
86.72402669337305
 20
300.2794781149241
 30
0.0
 40
5.0
  1
130.4
  7
ＭＳ ゴシック
100
AcDbText
  0
LINE
  5
10B
330
1D
100
AcDbEntity
  8
_0-2_ADD_LINE
  6
Continuous
 62
     7
100
AcDbLine
 10
158.1740266933733
 20
299.2794781149241
 30
0.0
 11
158.1740266933733
 21
273.4044519849483
 31
0.0
  0
LINE
  5
10C
330
1D
100
AcDbEntity
  8
_0-2_ADD_LINE
  6
Continuous
 62
     7
100
AcDbLine
 10
27.77402669337278
 20
299.2794781149241
 30
0.0
 11
27.77402669337278
 21
273.2794781149241
 31
0.0
  0
POINT
  5
10D
330
1D
100
AcDbEntity
  8
_0-2_ADD_LINE
 62
     7
100
AcDbPoint
 10
158.1740266933733
 20
299.2794781149241
 30
0.0
  0
POINT
  5
10E
330
1D
100
AcDbEntity
  8
_0-2_ADD_LINE
 62
     7
100
AcDbPoint
 10
27.77402669337278
 20
299.2794781149241
 30
0.0
  0
LINE
  5
10F
330
1D
100
AcDbEntity
  8
_0-3_
  6
Continuous
 62
     7
100
AcDbLine
 10
30.97402669337282
 20
289.2727362058238
 30
0.0
 11
154.9740266933734
 21
289.2727362058238
 31
0.0
  0
TEXT
  5
110
330
1D
100
AcDbEntity
  8
_0-0_0
 62
     4
100
AcDbText
 10
89.2240266933731
 20
290.2727362058238
 30
0.0
 40
5.0
  1
124
  7
ＭＳ ゴシック
100
AcDbText
  0
LINE
  5
111
330
1D
100
AcDbEntity
  8
_0-2_ADD_LINE
  6
Continuous
 62
     7
100
AcDbLine
 10
154.9740266933734
 20
289.2727362058238
 30
0.0
 11
154.9740266933734
 21
273.4044519849483
 31
0.0
  0
POINT
  5
112
330
1D
100
AcDbEntity
  8
_0-2_ADD_LINE
 62
     7
100
AcDbPoint
 10
154.9740266933734
 20
289.2727362058238
 30
0.0
  0
POINT
  5
113
330
1D
100
AcDbEntity
  8
_0-2_ADD_LINE
 62
     7
100
AcDbPoint
 10
30.97402669337282
 20
289.2727362058238
 30
0.0
  0
POINT
  5
114
330
1D
100
AcDbEntity
  8
_0-2_ADD_LINE
 62
     7
100
AcDbPoint
 10
38.97402669337282
 20
281.3310809747099
 30
0.0
  0
POINT
  5
115
330
1D
100
AcDbEntity
  8
_0-2_ADD_LINE
 62
     7
100
AcDbPoint
 10
146.9740266933728
 20
281.3310809747099
 30
0.0
  0
LINE
  5
116
330
1D
100
AcDbEntity
  8
_0-2_ADD_LINE
  6
Continuous
 62
     7
100
AcDbLine
 10
38.97402669337282
 20
281.3310809747099
 30
0.0
 11
38.97402669337282
 21
273.4044519849483
 31
0.0
  0
LINE
  5
117
330
1D
100
AcDbEntity
  8
_0-2_ADD_LINE
  6
Continuous
 62
     7
100
AcDbLine
 10
146.9740266933728
 20
281.3310809747099
 30
0.0
 11
146.9740266933728
 21
273.4044519849483
 31
0.0
  0
LINE
  5
118
330
1D
100
AcDbEntity
  8
_0-1_1_5
  6
Continuous
 62
     7
100
AcDbLine
 10
38.97402669337282
 20
281.3310809747099
 30
0.0
 11
146.9740266933728
 21
281.3310809747099
 31
0.0
  0
TEXT
  5
119
330
1D
100
AcDbEntity
  8
_0-1_1_5
 62
     4
100
AcDbText
 10
89.22402669337282
 20
282.3310809747099
 30
0.0
 40
5.0
  1
108
  7
ＭＳ ゴシック
100
AcDbText
  0
POINT
  5
11A
330
1D
100
AcDbEntity
  8
_0-2_ADD_LINE
 62
     7
100
AcDbPoint
 10
326.2956931229795
 20
289.2727362058238
 30
0.0
  0
POINT
  5
11B
330
1D
100
AcDbEntity
  8
_0-2_ADD_LINE
 62
     7
100
AcDbPoint
 10
386.2956931229795
 20
289.2727362058238
 30
0.0
  0
LINE
  5
11C
330
1D
100
AcDbEntity
  8
_0-2_ADD_LINE
  6
Continuous
 62
     7
100
AcDbLine
 10
326.2956931229795
 20
289.2727362058238
 30
0.0
 11
326.2956931229795
 21
273.4044519849483
 31
0.0
  0
LINE
  5
11D
330
1D
100
AcDbEntity
  8
_0-2_ADD_LINE
  6
Continuous
 62
     7
100
AcDbLine
 10
386.2956931229795
 20
289.2727362058238
 30
0.0
 11
386.2956931229795
 21
273.4044519849483
 31
0.0
  0
LINE
  5
11E
330
1D
100
AcDbEntity
  8
_0-1_1_5
  6
Continuous
 62
     7
100
AcDbLine
 10
326.2956931229795
 20
289.2727362058238
 30
0.0
 11
386.2956931229795
 21
289.2727362058238
 31
0.0
  0
TEXT
  5
11F
330
1D
100
AcDbEntity
  8
_0-1_1_5
 62
     4
100
AcDbText
 10
353.7956931229795
 20
290.2727362058238
 30
0.0
 40
5.0
  1
60
  7
ＭＳ ゴシック
100
AcDbText
  0
LINE
  5
120
330
1D
100
AcDbEntity
  8
_0-2_ADD_LINE
  6
Continuous
 62
     7
100
AcDbLine
 10
354.458558775604
 20
254.0657690498848
 30
0.0
 11
347.629515224929
 21
256.5513376308381
 31
0.0
  0
POINT
  5
121
330
1D
100
AcDbEntity
  8
_0-2_ADD_LINE
 62
     7
100
AcDbPoint
 10
354.458558775604
 20
254.0657690498848
 30
0.0
  0
LINE
  5
122
330
1D
100
AcDbEntity
  8
_0-2_ADD_LINE
  6
Continuous
 62
     7
100
AcDbLine
 10
343.8707447417854
 20
257.9194182041408
 30
0.0
 11
354.5684609652816
 21
254.0257679241615
 31
0.0
  0
POINT
  5
123
330
1D
100
AcDbEntity
  8
_0-2_ADD_LINE
 62
     7
100
AcDbPoint
 10
333.2533098894126
 20
195.8048265611584
 30
0.0
  0
LINE
  5
124
330
1D
100
AcDbEntity
  8
_0-2_ADD_LINE
  6
Continuous
 62
     7
100
AcDbLine
 10
322.6654958555939
 20
199.6584757154144
 30
0.0
 11
333.3632120790901
 21
195.7648254354351
 31
0.0
  0
LINE
  5
125
330
1D
100
AcDbEntity
  8
_0-1_1_5
  6
Continuous
 62
     7
100
AcDbLine
 10
354.458558775604
 20
254.0657690498848
 30
0.0
 11
333.2533098894126
 21
195.8048265611584
 31
0.0
  0
TEXT
  5
126
330
1D
100
AcDbEntity
  8
_0-1_1_5
 62
     4
100
AcDbText
 10
342.0611913534083
 20
222.9280863968825
 30
0.0
 40
5.0
  1
62
 50
69.99999999999997
  7
ＭＳ ゴシック
100
AcDbText
  0
POINT
  5
127
330
1D
100
AcDbEntity
  8
_0-2_ADD_LINE
 62
     7
100
AcDbPoint
 10
313.14834423531
 20
179.9121532334432
 30
0.0
  0
POINT
  5
128
330
1D
100
AcDbEntity
  8
_0-2_ADD_LINE
 62
     7
100
AcDbPoint
 10
298.1132623027356
 20
185.3844755266539
 30
0.0
  0
LINE
  5
129
330
1D
100
AcDbEntity
  8
_0-1_1_5
  6
Continuous
 62
     7
100
AcDbLine
 10
313.14834423531
 20
179.9121532334432
 30
0.0
 11
298.1132623027356
 21
185.3844755266539
 31
0.0
  0
TEXT
  5
12A
330
1D
100
AcDbEntity
  8
_0-1_1_5
 62
     4
100
AcDbText
 10
303.6235918603837
 20
184.4430573591486
 30
0.0
 40
5.0
  1
16
 50
339.9999999999999
  7
ＭＳ ゴシック
100
AcDbText
  0
LINE
  5
12B
330
1D
100
AcDbEntity
  8
_0-2_ADD_LINE
  6
Continuous
 62
     7
100
AcDbLine
 10
313.14834423531
 20
179.9121532334432
 30
0.0
 11
318.2480462141283
 21
193.9234692661944
 31
0.0
  0
LINE
  5
12C
330
1D
100
AcDbEntity
  8
_0-2_ADD_LINE
  6
Continuous
 62
     7
100
AcDbLine
 10
298.1132623027356
 20
185.3844755266539
 30
0.0
 11
303.2129642815538
 21
199.3957915594052
 31
0.0
  0
LINE
  5
12D
330
1D
100
AcDbEntity
  8
_0-2_ADD_LINE
  6
Continuous
 62
     7
100
AcDbLine
 10
409.8972290553043
 20
261.3721666532414
 30
0.0
 11
409.8972290553043
 21
233.9441105791847
 31
0.0
  0
TEXT
  5
12E
330
1D
100
AcDbEntity
  8
_0-2_ADD_LINE
 62
     7
100
AcDbText
 10
407.0489464943801
 20
225.0569245879144
 30
0.0
 40
6.0
  1
タッピングビス
  7
ＭＳ ゴシック
100
AcDbText
  0
TEXT
  5
12F
330
1D
100
AcDbEntity
  8
_0-2_ADD_LINE
 62
     7
100
AcDbText
 10
407.7972915640134
 20
217.5456726654785
 30
0.0
 40
6.0
  1
3.5×45
  7
ＭＳ ゴシック
100
AcDbText
  0
INSERT
  5
130
330
1D
100
AcDbEntity
  8
_0-4_
100
AcDbBlockReference
  2
-000-ペ__パ__
 10
307.0965927460809
 20
187.0645802611756
 30
0.0
  0
LINE
  5
131
330
1D
100
AcDbEntity
  8
_0-1_1_5
  6
STYLE_01
 62
     7
100
AcDbLine
 10
43.94569049440304
 20
137.5023371712858
 30
0.0
 11
33.94569049440304
 21
137.5023371712858
 31
0.0
  0
LINE
  5
132
330
1D
100
AcDbEntity
  8
_0-1_1_5
  6
STYLE_01
 62
     7
100
AcDbLine
 10
33.94569049440304
 20
134.5023371712854
 30
0.0
 11
43.94569049440304
 21
134.5023371712854
 31
0.0
  0
LINE
  5
133
330
1D
100
AcDbEntity
  8
_0-1_1_5
  6
STYLE_01
 62
     7
100
AcDbLine
 10
33.94569049440304
 20
137.5023371712858
 30
0.0
 11
35.44569049440304
 21
136.0023371712855
 31
0.0
  0
LINE
  5
134
330
1D
100
AcDbEntity
  8
_0-1_1_5
  6
STYLE_01
 62
     7
100
AcDbLine
 10
33.94569049440304
 20
134.5023371712854
 30
0.0
 11
35.44569049440304
 21
136.0023371712855
 31
0.0
  0
LINE
  5
135
330
1D
100
AcDbEntity
  8
_0-1_1_5
  6
STYLE_01
 62
     7
100
AcDbLine
 10
43.94569049440304
 20
137.5023371712858
 30
0.0
 11
42.44569049440304
 21
136.0023371712855
 31
0.0
  0
LINE
  5
136
330
1D
100
AcDbEntity
  8
_0-1_1_5
  6
STYLE_01
 62
     7
100
AcDbLine
 10
43.94569049440304
 20
134.5023371712854
 30
0.0
 11
42.44569049440304
 21
136.0023371712855
 31
0.0
  0
LINE
  5
137
330
1D
100
AcDbEntity
  8
_0-1_1_5
  6
STYLE_01
 62
     7
100
AcDbLine
 10
33.94569049440304
 20
130.0023371712858
 30
0.0
 11
33.94569049440304
 21
134.5023371712854
 31
0.0
  0
LINE
  5
138
330
1D
100
AcDbEntity
  8
_0-1_1_5
  6
STYLE_01
 62
     7
100
AcDbLine
 10
43.94569049440304
 20
130.0023371712858
 30
0.0
 11
33.94569049440304
 21
130.0023371712858
 31
0.0
  0
LINE
  5
139
330
1D
100
AcDbEntity
  8
_0-1_1_5
  6
STYLE_01
 62
     7
100
AcDbLine
 10
43.94569049440304
 20
134.5023371712854
 30
0.0
 11
43.94569049440304
 21
130.0023371712858
 31
0.0
  0
LINE
  5
13A
330
1D
100
AcDbEntity
  8
_0-1_1_5
  6
STYLE_01
 62
     7
100
AcDbLine
 10
43.94569049440304
 20
142.0023371712854
 30
0.0
 11
43.94569049440304
 21
137.5023371712858
 31
0.0
  0
LINE
  5
13B
330
1D
100
AcDbEntity
  8
_0-1_1_5
  6
STYLE_01
 62
     7
100
AcDbLine
 10
33.94569049440304
 20
137.5023371712858
 30
0.0
 11
33.94569049440304
 21
142.0023371712854
 31
0.0
  0
LINE
  5
13C
330
1D
100
AcDbEntity
  8
_0-1_1_5
  6
Continuous
 62
     7
100
AcDbLine
 10
40.57878223565501
 20
152.0454285921128
 30
0.0
 11
37.07897824706322
 21
153.4516612818426
 31
0.0
  0
LINE
  5
13D
330
1D
100
AcDbEntity
  8
_0-1_1_5
  6
Continuous
 62
     7
100
AcDbLine
 10
40.57878223565501
 20
166.1077554894105
 30
0.0
 11
37.07897824706322
 21
167.5139881791402
 31
0.0
  0
LINE
  5
13E
330
1D
100
AcDbEntity
  8
_0-1_1_5
  6
Continuous
 62
     7
100
AcDbLine
 10
40.57878223565501
 20
168.92022086887
 30
0.0
 11
37.07897824706322
 21
170.3264535585994
 31
0.0
  0
LINE
  5
13F
330
1D
100
AcDbEntity
  8
_0-1_1_5
  6
Continuous
 62
     7
100
AcDbLine
 10
40.57878223565501
 20
167.5139881791402
 30
0.0
 11
37.07897824706322
 21
168.92022086887
 31
0.0
  0
LINE
  5
140
330
1D
100
AcDbEntity
  8
_0-1_1_5
  6
Continuous
 62
     7
100
AcDbLine
 10
40.57878223565501
 20
164.7015227996805
 30
0.0
 11
37.07897824706322
 21
166.1077554894105
 31
0.0
  0
LINE
  5
141
330
1D
100
AcDbEntity
  8
_0-1_1_5
  6
Continuous
 62
     7
100
AcDbLine
 10
40.57878223565501
 20
150.6391959023834
 30
0.0
 11
37.07897824706322
 21
152.0454285921128
 31
0.0
  0
LINE
  5
142
330
1D
100
AcDbEntity
  8
_0-1_1_5
  6
Continuous
 62
     7
100
AcDbLine
 10
40.57878223565501
 20
163.2952901099509
 30
0.0
 11
37.07897824706322
 21
164.7015227996805
 31
0.0
  0
LINE
  5
143
330
1D
100
AcDbEntity
  8
_0-1_1_5
  6
Continuous
 62
     7
100
AcDbLine
 10
40.57878223565501
 20
161.8890574202213
 30
0.0
 11
37.07897824706322
 21
163.2952901099509
 31
0.0
  0
LINE
  5
144
330
1D
100
AcDbEntity
  8
_0-1_1_5
  6
Continuous
 62
     7
100
AcDbLine
 10
40.57878223565501
 20
160.4828247304914
 30
0.0
 11
37.07897824706322
 21
161.8890574202213
 31
0.0
  0
LINE
  5
145
330
1D
100
AcDbEntity
  8
_0-1_1_5
  6
Continuous
 62
     7
100
AcDbLine
 10
40.57878223565501
 20
159.0765920407616
 30
0.0
 11
37.07897824706322
 21
160.4828247304914
 31
0.0
  0
LINE
  5
146
330
1D
100
AcDbEntity
  8
_0-1_1_5
  6
Continuous
 62
     7
100
AcDbLine
 10
40.57878223565501
 20
157.670359351032
 30
0.0
 11
37.07897824706322
 21
159.0765920407616
 31
0.0
  0
LINE
  5
147
330
1D
100
AcDbEntity
  8
_0-1_1_5
  6
Continuous
 62
     7
100
AcDbLine
 10
40.57878223565501
 20
156.2641266613023
 30
0.0
 11
37.07897824706322
 21
157.670359351032
 31
0.0
  0
LINE
  5
148
330
1D
100
AcDbEntity
  8
_0-1_1_5
  6
Continuous
 62
     7
100
AcDbLine
 10
40.57878223565501
 20
153.4516612818426
 30
0.0
 11
37.07897824706322
 21
154.8578939715727
 31
0.0
  0
LINE
  5
149
330
1D
100
AcDbEntity
  8
_0-1_1_5
  6
Continuous
 62
     7
100
AcDbLine
 10
40.57878223565501
 20
154.8578939715727
 30
0.0
 11
37.07897824706322
 21
156.2641266613023
 31
0.0
  0
LINE
  5
14A
330
1D
100
AcDbEntity
  8
_0-1_1_5
  6
Continuous
 62
     7
100
AcDbLine
 10
40.57878223565501
 20
149.2329632126531
 30
0.0
 11
37.07897824706322
 21
150.6391959023834
 31
0.0
  0
LINE
  5
14B
330
1D
100
AcDbEntity
  8
_0-1_1_5
  6
Continuous
 62
     7
100
AcDbLine
 10
40.57878223565501
 20
147.8267305229237
 30
0.0
 11
37.07897824706322
 21
149.2329632126531
 31
0.0
  0
LINE
  5
14C
330
1D
100
AcDbEntity
  8
_0-1_1_5
  6
Continuous
 62
     7
100
AcDbLine
 10
40.57878223565501
 20
146.4204978331939
 30
0.0
 11
37.07897824706322
 21
147.8267305229237
 31
0.0
  0
LINE
  5
14D
330
1D
100
AcDbEntity
  8
_0-1_1_5
  6
Continuous
 62
     7
100
AcDbLine
 10
40.57878223565501
 20
145.0142651434645
 30
0.0
 11
37.07897824706322
 21
146.4204978331939
 31
0.0
  0
LINE
  5
14E
330
1D
100
AcDbEntity
  8
_0-1_1_5
  6
Continuous
 62
     7
100
AcDbLine
 10
40.57878223565501
 20
143.6080324537342
 30
0.0
 11
37.07897824706322
 21
145.0142651434645
 31
0.0
  0
LINE
  5
14F
330
1D
100
AcDbEntity
  8
_0-1_1_5
  6
Continuous
 62
     7
100
AcDbLine
 10
40.57878223565501
 20
142.2017997640048
 30
0.0
 11
37.07897824706322
 21
143.6080324537342
 31
0.0
  0
LINE
  5
150
330
1D
100
AcDbEntity
  8
_0-1_1_5
  6
STYLE_01
 62
     7
100
AcDbLine
 10
37.19578850010714
 20
131.7524351769898
 30
0.0
 11
40.69559248869894
 21
131.7524351769898
 31
0.0
  0
LINE
  5
151
330
1D
100
AcDbEntity
  8
_0-1_1_5
  6
Continuous
 62
     7
100
AcDbLine
 10
37.19578850010714
 20
131.7892574539165
 30
0.0
 11
37.19578850010714
 21
170.3258996299517
 31
0.0
  0
LINE
  5
152
330
1D
100
AcDbEntity
  8
_0-1_1_5
  6
Continuous
 62
     7
100
AcDbLine
 10
40.69559248869894
 20
131.7524351769896
 30
0.0
 11
40.69559248869894
 21
170.3264535585994
 31
0.0
  0
LINE
  5
153
330
1D
100
AcDbEntity
  8
_0-1_1_5
  6
Continuous
 62
     7
100
AcDbLine
 10
38.94569049440304
 20
175.9513843175187
 30
0.0
 11
40.69559248869894
 21
170.3264535585994
 31
0.0
  0
LINE
  5
154
330
1D
100
AcDbEntity
  8
_0-1_1_5
  6
Continuous
 62
     7
100
AcDbLine
 10
38.94569049440304
 20
175.9513843175187
 30
0.0
 11
37.19578850010714
 21
170.3264535585994
 31
0.0
  0
LINE
  5
155
330
1D
100
AcDbEntity
  8
_0-1_1_5
  6
STYLE_01
 62
     7
100
AcDbLine
 10
42.44569049440304
 20
130.0023371712858
 30
0.0
 11
40.69559248869894
 21
131.7524351769896
 31
0.0
  0
LINE
  5
156
330
1D
100
AcDbEntity
  8
_0-1_1_5
  6
STYLE_01
 62
     7
100
AcDbLine
 10
35.44569049440304
 20
130.0023371712858
 30
0.0
 11
37.19578850010714
 21
131.7524351769898
 31
0.0
  0
LINE
  5
157
330
1D
100
AcDbEntity
  8
_0-1_1_5
  6
STYLE_01
 62
     7
100
AcDbLine
 10
38.71061572841256
 20
131.7524351769898
 30
0.0
 11
37.07897824706322
 21
132.4080324537345
 31
0.0
  0
LINE
  5
158
330
1D
100
AcDbEntity
  8
_0-1_1_5
  6
STYLE_01
 62
     7
100
AcDbLine
 10
40.57878223565501
 20
132.4017997640049
 30
0.0
 11
37.07897824706322
 21
133.8080324537348
 31
0.0
  0
LINE
  5
159
330
1D
100
AcDbEntity
  8
_0-1_1_5
  6
STYLE_01
 62
     7
100
AcDbLine
 10
40.57878223565501
 20
133.8017997640049
 30
0.0
 11
37.07897824706322
 21
135.2080324537347
 31
0.0
  0
LINE
  5
15A
330
1D
100
AcDbEntity
  8
_0-1_1_5
  6
STYLE_01
 62
     7
100
AcDbLine
 10
40.57878223565501
 20
135.2017997640051
 30
0.0
 11
37.07897824706322
 21
136.6080324537346
 31
0.0
  0
LINE
  5
15B
330
1D
100
AcDbEntity
  8
_0-1_1_5
  6
STYLE_01
 62
     7
100
AcDbLine
 10
40.57878223565501
 20
136.601799764005
 30
0.0
 11
37.07897824706322
 21
138.0080324537346
 31
0.0
  0
LINE
  5
15C
330
1D
100
AcDbEntity
  8
_0-1_1_5
  6
STYLE_01
 62
     7
100
AcDbLine
 10
40.57878223565501
 20
138.0017997640048
 30
0.0
 11
37.07897824706322
 21
139.4080324537345
 31
0.0
  0
LINE
  5
15D
330
1D
100
AcDbEntity
  8
_0-1_1_5
  6
STYLE_01
 62
     7
100
AcDbLine
 10
40.57878223565501
 20
139.4017997640049
 30
0.0
 11
37.07897824706322
 21
140.8080324537345
 31
0.0
  0
LINE
  5
15E
330
1D
100
AcDbEntity
  8
_0-1_1_5
  6
STYLE_01
 62
     7
100
AcDbLine
 10
40.57878223565501
 20
140.8017997640048
 30
0.0
 11
37.07897824706322
 21
142.2080324537343
 31
0.0
  0
LINE
  5
15F
330
1D
100
AcDbEntity
  8
_0-1_1_5
  6
Continuous
 62
     7
100
AcDbLine
 10
30.94569049440327
 20
23.17506858831308
 30
0.0
 11
154.9551285807888
 21
23.17506858831308
 31
0.0
  0
LINE
  5
160
330
1D
100
AcDbEntity
  8
_0-1_1_5
  6
Continuous
 62
     7
100
AcDbLine
 10
154.9551285807888
 20
11.74167191448424
 30
0.0
 11
154.9551285807888
 21
76.21630383851209
 31
0.0
  0
LINE
  5
161
330
1D
100
AcDbEntity
  8
_0-1_1_5
  6
Continuous
 62
     7
100
AcDbLine
 10
30.94569049440327
 20
11.74167191448424
 30
0.0
 11
30.94569049440327
 21
75.41630383851214
 31
0.0
  0
ARC
  5
162
330
1D
100
AcDbEntity
  8
_0-1_1_5
  6
Continuous
 62
     7
100
AcDbCircle
 10
33.94569049440327
 20
11.74167191448424
 30
0.0
 40
3.0
100
AcDbArc
 50
180.0
 51
270.0
  0
ARC
  5
163
330
1D
100
AcDbEntity
  8
_0-1_1_5
  6
Continuous
 62
     7
100
AcDbCircle
 10
151.9551285807888
 20
11.74167191448424
 30
0.0
 40
3.0
100
AcDbArc
 50
270.0
 51
0.0
  0
LINE
  5
164
330
1D
100
AcDbEntity
  8
_0-1_1_5
  6
Continuous
 62
     7
100
AcDbLine
 10
46.94569049440327
 20
82.00233717128555
 30
0.0
 11
30.94569049440327
 21
82.00233717128555
 31
0.0
  0
LINE
  5
165
330
1D
100
AcDbEntity
  8
_0-1_1_5
  6
Continuous
 62
     7
100
AcDbLine
 10
154.9456904944035
 20
100.7405802521579
 30
0.0
 11
154.9456904944035
 21
118.7405802521579
 31
0.0
  0
ARC
  5
166
330
1D
100
AcDbEntity
  8
_0-1_1_5
  6
Continuous
 62
     7
100
AcDbCircle
 10
46.94569049440327
 20
80.21630383851209
 30
0.0
 40
1.0
100
AcDbArc
 50
270.0
 51
0.0
  0
ARC
  5
167
330
1D
100
AcDbEntity
  8
_0-1_1_5
  6
Continuous
 62
     7
100
AcDbCircle
 10
46.94569049440327
 20
79.41630383851214
 30
0.0
 40
1.0
100
AcDbArc
 50
270.0
 51
0.0
  0
LINE
  5
168
330
1D
100
AcDbEntity
  8
_0-1_1_5
  6
Continuous
 62
     7
100
AcDbLine
 10
33.94569049440327
 20
79.21630383851209
 30
0.0
 11
46.94569049440327
 21
79.21630383851209
 31
0.0
  0
ARC
  5
169
330
1D
100
AcDbEntity
  8
_0-1_1_5
  6
Continuous
 62
     7
100
AcDbCircle
 10
33.94569049440327
 20
76.21630383851209
 30
0.0
 40
3.0
100
AcDbArc
 50
90.0
 51
180.0
  0
ARC
  5
16A
330
1D
100
AcDbEntity
  8
_0-1_1_5
  6
Continuous
 62
     7
100
AcDbCircle
 10
33.94569049440327
 20
75.41630383851214
 30
0.0
 40
3.0
100
AcDbArc
 50
90.0
 51
180.0
  0
LINE
  5
16B
330
1D
100
AcDbEntity
  8
_0-1_1_5
  6
Continuous
 62
     7
100
AcDbLine
 10
30.94569049440327
 20
82.00233717128555
 30
0.0
 11
30.94569049440327
 21
98.00233717128481
 31
0.0
  0
LINE
  5
16C
330
1D
100
AcDbEntity
  8
_0-1_1_5
  6
Continuous
 62
     7
100
AcDbLine
 10
30.5456904944034
 20
82.40233717128552
 30
0.0
 11
30.94569049440327
 21
82.00233717128555
 31
0.0
  0
LINE
  5
16D
330
1D
100
AcDbEntity
  8
_0-1_1_5
  6
Continuous
 62
     7
100
AcDbLine
 10
30.5456904944034
 20
97.60233717128483
 30
0.0
 11
30.5456904944034
 21
82.40233717128552
 31
0.0
  0
LINE
  5
16E
330
1D
100
AcDbEntity
  8
_0-1_1_5
  6
Continuous
 62
     7
100
AcDbLine
 10
30.94569049440327
 20
98.00233717128481
 30
0.0
 11
30.5456904944034
 21
97.60233717128483
 31
0.0
  0
LINE
  5
16F
330
1D
100
AcDbEntity
  8
_0-1_1_5
  6
Continuous
 62
     7
100
AcDbLine
 10
30.94569049440327
 20
90.00233717128543
 30
0.0
 11
30.94569049440327
 21
142.0023371712854
 31
0.0
  0
LINE
  5
170
330
1D
100
AcDbEntity
  8
_0-1_1_5
  6
Continuous
 62
     7
100
AcDbLine
 10
46.94569049440327
 20
90.00233717128543
 30
0.0
 11
30.94569049440327
 21
90.00233717128543
 31
0.0
  0
LINE
  5
171
330
1D
100
AcDbEntity
  8
_0-1_1_5
  6
Continuous
 62
     7
100
AcDbLine
 10
46.94569049440327
 20
142.0023371712854
 30
0.0
 11
46.94569049440327
 21
90.00233717128543
 31
0.0
  0
LINE
  5
172
330
1D
100
AcDbEntity
  8
_0-1_1_5
  6
Continuous
 62
     7
100
AcDbLine
 10
30.94569049440327
 20
142.0023371712854
 30
0.0
 11
46.94569049440327
 21
142.0023371712854
 31
0.0
  0
LINE
  5
173
330
1D
100
AcDbEntity
  8
_0-1_1_5
  6
Continuous
 62
     7
100
AcDbLine
 10
46.94569049440327
 20
82.00233717128555
 30
0.0
 11
46.94569049440327
 21
98.00233717128481
 31
0.0
  0
LINE
  5
174
330
1D
100
AcDbEntity
  8
_0-1_1_5
  6
Continuous
 62
     7
100
AcDbLine
 10
47.94569049440327
 20
82.00233717128555
 30
0.0
 11
46.94569049440327
 21
82.00233717128555
 31
0.0
  0
LINE
  5
175
330
1D
100
AcDbEntity
  8
_0-1_1_5
  6
Continuous
 62
     7
100
AcDbLine
 10
47.94569049440327
 20
98.00233717128481
 30
0.0
 11
47.94569049440327
 21
82.00233717128555
 31
0.0
  0
LINE
  5
176
330
1D
100
AcDbEntity
  8
_0-1_1_5
  6
Continuous
 62
     7
100
AcDbLine
 10
46.94569049440327
 20
98.00233717128481
 30
0.0
 11
47.94569049440327
 21
98.00233717128481
 31
0.0
  0
LINE
  5
177
330
1D
100
AcDbEntity
  8
_0-1_1_5
  6
Continuous
 62
     7
100
AcDbLine
 10
33.94569049440327
 20
78.41630383851214
 30
0.0
 11
46.94569049440327
 21
78.41630383851214
 31
0.0
  0
ARC
  5
178
330
1D
100
AcDbEntity
  8
_0-1_1_5
  6
Continuous
 62
     7
100
AcDbCircle
 10
138.9456904944034
 20
80.21630383851209
 30
0.0
 40
1.0
100
AcDbArc
 50
180.0
 51
270.0
  0
ARC
  5
179
330
1D
100
AcDbEntity
  8
_0-1_1_5
  6
Continuous
 62
     7
100
AcDbCircle
 10
138.9456904944034
 20
79.41630383851214
 30
0.0
 40
1.0
100
AcDbArc
 50
180.0
 51
270.0
  0
ARC
  5
17A
330
1D
100
AcDbEntity
  8
_0-1_1_5
  6
Continuous
 62
     7
100
AcDbCircle
 10
151.9551285807888
 20
76.21630383851209
 30
0.0
 40
3.0
100
AcDbArc
 50
0.0
 51
90.0
  0
ARC
  5
17B
330
1D
100
AcDbEntity
  8
_0-1_1_5
  6
Continuous
 62
     7
100
AcDbCircle
 10
151.9551285807888
 20
75.41630383851214
 30
0.0
 40
3.0
100
AcDbArc
 50
0.0
 51
90.0
  0
LINE
  5
17C
330
1D
100
AcDbEntity
  8
_0-1_1_5
  6
Continuous
 62
     7
100
AcDbLine
 10
151.9551285807888
 20
79.21630383851209
 30
0.0
 11
138.9551285807888
 21
79.21630383851209
 31
0.0
  0
LINE
  5
17D
330
1D
100
AcDbEntity
  8
_0-1_1_5
  6
Continuous
 62
     7
100
AcDbLine
 10
138.9456904944034
 20
90.00233717128543
 30
0.0
 11
138.9456904944034
 21
142.0023371712854
 31
0.0
  0
LINE
  5
17E
330
1D
100
AcDbEntity
  8
_0-1_1_5
  6
Continuous
 62
     7
100
AcDbLine
 10
154.9456904944034
 20
90.00233717128543
 30
0.0
 11
138.9456904944034
 21
90.00233717128543
 31
0.0
  0
LINE
  5
17F
330
1D
100
AcDbEntity
  8
_0-1_1_5
  6
Continuous
 62
     7
100
AcDbLine
 10
154.9456904944034
 20
142.0023371712854
 30
0.0
 11
154.9456904944034
 21
90.00233717128543
 31
0.0
  0
LINE
  5
180
330
1D
100
AcDbEntity
  8
_0-1_1_5
  6
Continuous
 62
     7
100
AcDbLine
 10
138.9456904944034
 20
142.0023371712854
 30
0.0
 11
154.9456904944034
 21
142.0023371712854
 31
0.0
  0
LINE
  5
181
330
1D
100
AcDbEntity
  8
_0-1_1_5
  6
Continuous
 62
     7
100
AcDbLine
 10
137.9456904944034
 20
82.00233717128555
 30
0.0
 11
137.9456904944034
 21
98.00233717128481
 31
0.0
  0
LINE
  5
182
330
1D
100
AcDbEntity
  8
_0-1_1_5
  6
Continuous
 62
     7
100
AcDbLine
 10
138.9456904944034
 20
82.00233717128555
 30
0.0
 11
137.9456904944034
 21
82.00233717128555
 31
0.0
  0
LINE
  5
183
330
1D
100
AcDbEntity
  8
_0-1_1_5
  6
Continuous
 62
     7
100
AcDbLine
 10
138.9456904944034
 20
98.00233717128481
 30
0.0
 11
138.9456904944034
 21
82.00233717128555
 31
0.0
  0
LINE
  5
184
330
1D
100
AcDbEntity
  8
_0-1_1_5
  6
Continuous
 62
     7
100
AcDbLine
 10
137.9456904944034
 20
98.00233717128481
 30
0.0
 11
138.9456904944034
 21
98.00233717128481
 31
0.0
  0
LINE
  5
185
330
1D
100
AcDbEntity
  8
_0-1_1_5
  6
Continuous
 62
     7
100
AcDbLine
 10
138.9551285807888
 20
78.41630383851214
 30
0.0
 11
151.9551285807888
 21
78.41630383851214
 31
0.0
  0
LINE
  5
186
330
1D
100
AcDbEntity
  8
_0-1_1_5
  6
Continuous
 62
     7
100
AcDbLine
 10
47.94569049440349
 20
98.00233717128481
 30
0.0
 11
47.94569049440349
 21
79.41630383851214
 31
0.0
  0
LINE
  5
187
330
1D
100
AcDbEntity
  8
_0-1_1_5
  6
Continuous
 62
     7
100
AcDbLine
 10
137.9456904944034
 20
98.00233717128481
 30
0.0
 11
47.94569049440349
 21
98.00233717128481
 31
0.0
  0
LINE
  5
188
330
1D
100
AcDbEntity
  8
_0-1_1_5
  6
Continuous
 62
     7
100
AcDbLine
 10
137.9456904944034
 20
79.41630383851214
 30
0.0
 11
137.9456904944034
 21
98.00233717128481
 31
0.0
  0
LINE
  5
189
330
1D
100
AcDbEntity
  8
_0-1_1_5
  6
Continuous
 62
     7
100
AcDbLine
 10
27.77402669337278
 20
78.83421141700993
 30
0.0
 11
27.77402669337278
 21
62.21596847400616
 31
0.0
  0
LINE
  5
18A
330
1D
100
AcDbEntity
  8
_0-1_1_5
  6
Continuous
 62
     7
100
AcDbLine
 10
27.7456904944036
 20
62.41727774146914
 30
0.0
 11
27.7456904944036
 21
62.41727774146914
 31
0.0
  0
LINE
  5
18B
330
1D
100
AcDbEntity
  8
_0-1_1_5
  6
Continuous
 62
     7
100
AcDbLine
 10
27.7456904944036
 20
62.41727774146914
 30
0.0
 11
27.83988242572791
 21
62.05122738294725
 31
0.0
  0
LINE
  5
18C
330
1D
100
AcDbEntity
  8
_0-1_1_5
  6
Continuous
 62
     7
100
AcDbLine
 10
27.83988242572791
 20
62.05122738294725
 30
0.0
 11
28.11959624553097
 21
61.69629927933863
 31
0.0
  0
LINE
  5
18D
330
1D
100
AcDbEntity
  8
_0-1_1_5
  6
Continuous
 62
     7
100
AcDbLine
 10
28.11959624553097
 20
61.69629927933863
 30
0.0
 11
28.57633299094009
 21
61.36327774146915
 31
0.0
  0
LINE
  5
18E
330
1D
100
AcDbEntity
  8
_0-1_1_5
  6
Continuous
 62
     7
100
AcDbLine
 10
28.57633299094009
 20
61.36327774146915
 30
0.0
 11
29.19621494706594
 21
61.06228146024992
 31
0.0
  0
LINE
  5
18F
330
1D
100
AcDbEntity
  8
_0-1_1_5
  6
Continuous
 62
     7
100
AcDbLine
 10
29.19621494706594
 20
61.06228146024992
 30
0.0
 11
29.96040731434707
 21
60.80245605537434
 31
0.0
  0
LINE
  5
190
330
1D
100
AcDbEntity
  8
_0-1_1_5
  6
Continuous
 62
     7
100
AcDbLine
 10
29.96040731434707
 20
60.80245605537434
 30
0.0
 11
30.84569049440361
 21
60.59169619029155
 31
0.0
  0
LINE
  5
191
330
1D
100
AcDbEntity
  8
_0-1_1_5
  6
Continuous
 62
     7
100
AcDbLine
 10
30.84569049440361
 20
60.59169619029155
 30
0.0
 11
30.93625240801816
 21
60.57426188534446
 31
0.0
  0
LINE
  5
192
330
1D
100
AcDbEntity
  8
_0-1_1_5
  6
Continuous
 62
     7
100
AcDbLine
 10
158.1456904944034
 20
98.00233717128481
 30
0.0
 11
158.1456904944034
 21
62.41727774146918
 31
0.0
  0
LINE
  5
193
330
1D
100
AcDbEntity
  8
_0-1_1_5
  6
Continuous
 62
     7
100
AcDbLine
 10
154.9551285807888
 20
60.5742618853445
 30
0.0
 11
154.9551285807888
 21
60.5742618853445
 31
0.0
  0
LINE
  5
194
330
1D
100
AcDbEntity
  8
_0-1_1_5
  6
Continuous
 62
     7
100
AcDbLine
 10
154.9551285807888
 20
60.5742618853445
 30
0.0
 11
155.8506918212251
 21
60.77993980686394
 31
0.0
  0
LINE
  5
195
330
1D
100
AcDbEntity
  8
_0-1_1_5
  6
Continuous
 62
     7
100
AcDbLine
 10
155.8506918212251
 20
60.77993980686394
 30
0.0
 11
156.627603572372
 21
61.03536741299339
 31
0.0
  0
LINE
  5
196
330
1D
100
AcDbEntity
  8
_0-1_1_5
  6
Continuous
 62
     7
100
AcDbLine
 10
156.627603572372
 20
61.03536741299339
 30
0.0
 11
157.2622577638071
 21
61.3327836651732
 31
0.0
  0
LINE
  5
197
330
1D
100
AcDbEntity
  8
_0-1_1_5
  6
Continuous
 62
     7
100
AcDbLine
 10
157.2622577638071
 20
61.3327836651732
 30
0.0
 11
157.7353707490742
 21
61.66315172108079
 31
0.0
  0
LINE
  5
198
330
1D
100
AcDbEntity
  8
_0-1_1_5
  6
Continuous
 62
     7
100
AcDbLine
 10
157.7353707490742
 20
61.66315172108079
 30
0.0
 11
158.0325672295227
 21
62.0164335145117
 31
0.0
  0
LINE
  5
199
330
1D
100
AcDbEntity
  8
_0-1_1_5
  6
Continuous
 62
     7
100
AcDbLine
 10
158.0325672295227
 20
62.0164335145117
 30
0.0
 11
158.1448170404829
 21
62.38189475694175
 31
0.0
  0
LINE
  5
19A
330
1D
100
AcDbEntity
  8
_0-1_1_5
  6
Continuous
 62
     7
100
AcDbLine
 10
158.1448170404829
 20
62.38189475694175
 30
0.0
 11
158.1456904944034
 21
62.41727774146918
 31
0.0
  0
LINE
  5
19B
330
1D
100
AcDbEntity
  8
_0-1_1_5
  6
Continuous
 62
     7
100
AcDbLine
 10
30.94569049440327
 20
78.79820410560362
 30
0.0
 11
30.94569049440327
 21
74.82732139602439
 31
0.0
  0
LINE
  5
19C
330
1D
100
AcDbEntity
  8
_0-1_1_5
  6
Continuous
 62
     7
100
AcDbLine
 10
27.79906288076529
 20
78.79820410560362
 30
0.0
 11
30.86747224725843
 21
78.79820410560362
 31
0.0
  0
LINE
  5
19D
330
1D
100
AcDbEntity
  8
_0-1_1_5
  6
Continuous
 62
     7
100
AcDbLine
 10
154.9456904944034
 20
90.00233717128543
 30
0.0
 11
154.9456904944034
 21
60.29675285285001
 31
0.0
  0
LINE
  5
19E
330
1D
100
AcDbEntity
  8
_0-1_1_5
  6
Continuous
 62
     7
100
AcDbLine
 10
138.9456904944034
 20
82.00233717128555
 30
0.0
 11
154.9456904944034
 21
82.00233717128555
 31
0.0
  0
LINE
  5
19F
330
1D
100
AcDbEntity
  8
_0-1_1_5
  6
Continuous
 62
     7
100
AcDbLine
 10
154.9456904944034
 20
98.00233717128481
 30
0.0
 11
158.1456904944034
 21
98.00233717128481
 31
0.0
  0
LINE
  5
1A0
330
1D
100
AcDbEntity
  8
_0-1_1_5
  6
Continuous
 62
     7
100
AcDbLine
 10
154.9551285807888
 20
23.17506858831308
 30
0.0
 11
30.94569049440327
 21
23.17506858831308
 31
0.0
  0
LINE
  5
1A1
330
1D
100
AcDbEntity
  8
_0-1_1_5
  6
STYLE_01
 62
     7
100
AcDbLine
 10
33.94569049440304
 20
142.0023371712854
 30
0.0
 11
43.94569049440304
 21
142.0023371712854
 31
0.0
  0
LINE
  5
1A2
330
1D
100
AcDbEntity
  8
_0-1_1_5
  6
STYLE_01
 62
     7
100
AcDbLine
 10
151.9456904944034
 20
137.5023371712858
 30
0.0
 11
141.9456904944034
 21
137.5023371712858
 31
0.0
  0
LINE
  5
1A3
330
1D
100
AcDbEntity
  8
_0-1_1_5
  6
STYLE_01
 62
     7
100
AcDbLine
 10
141.9456904944034
 20
134.5023371712854
 30
0.0
 11
151.9456904944034
 21
134.5023371712854
 31
0.0
  0
LINE
  5
1A4
330
1D
100
AcDbEntity
  8
_0-1_1_5
  6
STYLE_01
 62
     7
100
AcDbLine
 10
141.9456904944034
 20
137.5023371712858
 30
0.0
 11
143.4456904944033
 21
136.0023371712855
 31
0.0
  0
LINE
  5
1A5
330
1D
100
AcDbEntity
  8
_0-1_1_5
  6
STYLE_01
 62
     7
100
AcDbLine
 10
141.9456904944034
 20
134.5023371712854
 30
0.0
 11
143.4456904944033
 21
136.0023371712855
 31
0.0
  0
LINE
  5
1A6
330
1D
100
AcDbEntity
  8
_0-1_1_5
  6
STYLE_01
 62
     7
100
AcDbLine
 10
151.9456904944034
 20
137.5023371712858
 30
0.0
 11
150.4456904944034
 21
136.0023371712855
 31
0.0
  0
LINE
  5
1A7
330
1D
100
AcDbEntity
  8
_0-1_1_5
  6
STYLE_01
 62
     7
100
AcDbLine
 10
151.9456904944034
 20
134.5023371712854
 30
0.0
 11
150.4456904944034
 21
136.0023371712855
 31
0.0
  0
LINE
  5
1A8
330
1D
100
AcDbEntity
  8
_0-1_1_5
  6
STYLE_01
 62
     7
100
AcDbLine
 10
141.9456904944034
 20
130.0023371712858
 30
0.0
 11
141.9456904944034
 21
134.5023371712854
 31
0.0
  0
LINE
  5
1A9
330
1D
100
AcDbEntity
  8
_0-1_1_5
  6
STYLE_01
 62
     7
100
AcDbLine
 10
151.9456904944034
 20
130.0023371712858
 30
0.0
 11
141.9456904944034
 21
130.0023371712858
 31
0.0
  0
LINE
  5
1AA
330
1D
100
AcDbEntity
  8
_0-1_1_5
  6
STYLE_01
 62
     7
100
AcDbLine
 10
151.9456904944034
 20
134.5023371712854
 30
0.0
 11
151.9456904944034
 21
130.0023371712858
 31
0.0
  0
LINE
  5
1AB
330
1D
100
AcDbEntity
  8
_0-1_1_5
  6
STYLE_01
 62
     7
100
AcDbLine
 10
151.9456904944034
 20
142.0023371712854
 30
0.0
 11
151.9456904944034
 21
137.5023371712858
 31
0.0
  0
LINE
  5
1AC
330
1D
100
AcDbEntity
  8
_0-1_1_5
  6
STYLE_01
 62
     7
100
AcDbLine
 10
141.9456904944034
 20
137.5023371712858
 30
0.0
 11
141.9456904944034
 21
142.0023371712854
 31
0.0
  0
LINE
  5
1AD
330
1D
100
AcDbEntity
  8
_0-1_1_5
  6
Continuous
 62
     7
100
AcDbLine
 10
148.5787822356554
 20
152.0454285921128
 30
0.0
 11
145.0789782470636
 21
153.4516612818426
 31
0.0
  0
LINE
  5
1AE
330
1D
100
AcDbEntity
  8
_0-1_1_5
  6
Continuous
 62
     7
100
AcDbLine
 10
148.5787822356554
 20
166.1077554894105
 30
0.0
 11
145.0789782470636
 21
167.5139881791402
 31
0.0
  0
LINE
  5
1AF
330
1D
100
AcDbEntity
  8
_0-1_1_5
  6
Continuous
 62
     7
100
AcDbLine
 10
148.5787822356554
 20
168.92022086887
 30
0.0
 11
145.0789782470636
 21
170.3264535585994
 31
0.0
  0
LINE
  5
1B0
330
1D
100
AcDbEntity
  8
_0-1_1_5
  6
Continuous
 62
     7
100
AcDbLine
 10
148.5787822356554
 20
167.5139881791402
 30
0.0
 11
145.0789782470636
 21
168.92022086887
 31
0.0
  0
LINE
  5
1B1
330
1D
100
AcDbEntity
  8
_0-1_1_5
  6
Continuous
 62
     7
100
AcDbLine
 10
148.5787822356554
 20
164.7015227996805
 30
0.0
 11
145.0789782470636
 21
166.1077554894105
 31
0.0
  0
LINE
  5
1B2
330
1D
100
AcDbEntity
  8
_0-1_1_5
  6
Continuous
 62
     7
100
AcDbLine
 10
148.5787822356554
 20
150.6391959023834
 30
0.0
 11
145.0789782470636
 21
152.0454285921128
 31
0.0
  0
LINE
  5
1B3
330
1D
100
AcDbEntity
  8
_0-1_1_5
  6
Continuous
 62
     7
100
AcDbLine
 10
148.5787822356554
 20
163.2952901099509
 30
0.0
 11
145.0789782470636
 21
164.7015227996805
 31
0.0
  0
LINE
  5
1B4
330
1D
100
AcDbEntity
  8
_0-1_1_5
  6
Continuous
 62
     7
100
AcDbLine
 10
148.5787822356554
 20
161.8890574202213
 30
0.0
 11
145.0789782470636
 21
163.2952901099509
 31
0.0
  0
LINE
  5
1B5
330
1D
100
AcDbEntity
  8
_0-1_1_5
  6
Continuous
 62
     7
100
AcDbLine
 10
148.5787822356554
 20
160.4828247304914
 30
0.0
 11
145.0789782470636
 21
161.8890574202213
 31
0.0
  0
LINE
  5
1B6
330
1D
100
AcDbEntity
  8
_0-1_1_5
  6
Continuous
 62
     7
100
AcDbLine
 10
148.5787822356554
 20
159.0765920407616
 30
0.0
 11
145.0789782470636
 21
160.4828247304914
 31
0.0
  0
LINE
  5
1B7
330
1D
100
AcDbEntity
  8
_0-1_1_5
  6
Continuous
 62
     7
100
AcDbLine
 10
148.5787822356554
 20
157.670359351032
 30
0.0
 11
145.0789782470636
 21
159.0765920407616
 31
0.0
  0
LINE
  5
1B8
330
1D
100
AcDbEntity
  8
_0-1_1_5
  6
Continuous
 62
     7
100
AcDbLine
 10
148.5787822356554
 20
156.2641266613023
 30
0.0
 11
145.0789782470636
 21
157.670359351032
 31
0.0
  0
LINE
  5
1B9
330
1D
100
AcDbEntity
  8
_0-1_1_5
  6
Continuous
 62
     7
100
AcDbLine
 10
148.5787822356554
 20
153.4516612818426
 30
0.0
 11
145.0789782470636
 21
154.8578939715727
 31
0.0
  0
LINE
  5
1BA
330
1D
100
AcDbEntity
  8
_0-1_1_5
  6
Continuous
 62
     7
100
AcDbLine
 10
148.5787822356554
 20
154.8578939715727
 30
0.0
 11
145.0789782470636
 21
156.2641266613023
 31
0.0
  0
LINE
  5
1BB
330
1D
100
AcDbEntity
  8
_0-1_1_5
  6
Continuous
 62
     7
100
AcDbLine
 10
148.5787822356554
 20
149.2329632126531
 30
0.0
 11
145.0789782470636
 21
150.6391959023834
 31
0.0
  0
LINE
  5
1BC
330
1D
100
AcDbEntity
  8
_0-1_1_5
  6
Continuous
 62
     7
100
AcDbLine
 10
148.5787822356554
 20
147.8267305229237
 30
0.0
 11
145.0789782470636
 21
149.2329632126531
 31
0.0
  0
LINE
  5
1BD
330
1D
100
AcDbEntity
  8
_0-1_1_5
  6
Continuous
 62
     7
100
AcDbLine
 10
148.5787822356554
 20
146.4204978331939
 30
0.0
 11
145.0789782470636
 21
147.8267305229237
 31
0.0
  0
LINE
  5
1BE
330
1D
100
AcDbEntity
  8
_0-1_1_5
  6
Continuous
 62
     7
100
AcDbLine
 10
148.5787822356554
 20
145.0142651434645
 30
0.0
 11
145.0789782470636
 21
146.4204978331939
 31
0.0
  0
LINE
  5
1BF
330
1D
100
AcDbEntity
  8
_0-1_1_5
  6
Continuous
 62
     7
100
AcDbLine
 10
148.5787822356554
 20
143.6080324537342
 30
0.0
 11
145.0789782470636
 21
145.0142651434645
 31
0.0
  0
LINE
  5
1C0
330
1D
100
AcDbEntity
  8
_0-1_1_5
  6
Continuous
 62
     7
100
AcDbLine
 10
148.5787822356554
 20
142.2017997640048
 30
0.0
 11
145.0789782470636
 21
143.6080324537342
 31
0.0
  0
LINE
  5
1C1
330
1D
100
AcDbEntity
  8
_0-1_1_5
  6
STYLE_01
 62
     7
100
AcDbLine
 10
145.1957885001075
 20
131.7524351769898
 30
0.0
 11
148.6955924886993
 21
131.7524351769898
 31
0.0
  0
LINE
  5
1C2
330
1D
100
AcDbEntity
  8
_0-1_1_5
  6
Continuous
 62
     7
100
AcDbLine
 10
145.1957885001075
 20
131.7892574539165
 30
0.0
 11
145.1957885001075
 21
170.3258996299517
 31
0.0
  0
LINE
  5
1C3
330
1D
100
AcDbEntity
  8
_0-1_1_5
  6
Continuous
 62
     7
100
AcDbLine
 10
148.6955924886993
 20
131.7524351769896
 30
0.0
 11
148.6955924886993
 21
170.3264535585994
 31
0.0
  0
LINE
  5
1C4
330
1D
100
AcDbEntity
  8
_0-1_1_5
  6
Continuous
 62
     7
100
AcDbLine
 10
146.9456904944034
 20
175.9513843175187
 30
0.0
 11
148.6955924886993
 21
170.3264535585994
 31
0.0
  0
LINE
  5
1C5
330
1D
100
AcDbEntity
  8
_0-1_1_5
  6
Continuous
 62
     7
100
AcDbLine
 10
146.9456904944034
 20
175.9513843175187
 30
0.0
 11
145.1957885001075
 21
170.3264535585994
 31
0.0
  0
LINE
  5
1C6
330
1D
100
AcDbEntity
  8
_0-1_1_5
  6
STYLE_01
 62
     7
100
AcDbLine
 10
150.4456904944033
 20
130.0023371712858
 30
0.0
 11
148.6955924886993
 21
131.7524351769896
 31
0.0
  0
LINE
  5
1C7
330
1D
100
AcDbEntity
  8
_0-1_1_5
  6
STYLE_01
 62
     7
100
AcDbLine
 10
143.4456904944033
 20
130.0023371712858
 30
0.0
 11
145.1957885001075
 21
131.7524351769898
 31
0.0
  0
LINE
  5
1C8
330
1D
100
AcDbEntity
  8
_0-1_1_5
  6
STYLE_01
 62
     7
100
AcDbLine
 10
146.7106157284128
 20
131.7524351769898
 30
0.0
 11
145.0789782470636
 21
132.4080324537345
 31
0.0
  0
LINE
  5
1C9
330
1D
100
AcDbEntity
  8
_0-1_1_5
  6
STYLE_01
 62
     7
100
AcDbLine
 10
148.5787822356554
 20
132.4017997640049
 30
0.0
 11
145.0789782470636
 21
133.8080324537348
 31
0.0
  0
LINE
  5
1CA
330
1D
100
AcDbEntity
  8
_0-1_1_5
  6
STYLE_01
 62
     7
100
AcDbLine
 10
148.5787822356554
 20
133.8017997640049
 30
0.0
 11
145.0789782470636
 21
135.2080324537347
 31
0.0
  0
LINE
  5
1CB
330
1D
100
AcDbEntity
  8
_0-1_1_5
  6
STYLE_01
 62
     7
100
AcDbLine
 10
148.5787822356554
 20
135.2017997640051
 30
0.0
 11
145.0789782470636
 21
136.6080324537346
 31
0.0
  0
LINE
  5
1CC
330
1D
100
AcDbEntity
  8
_0-1_1_5
  6
STYLE_01
 62
     7
100
AcDbLine
 10
148.5787822356554
 20
136.601799764005
 30
0.0
 11
145.0789782470636
 21
138.0080324537346
 31
0.0
  0
LINE
  5
1CD
330
1D
100
AcDbEntity
  8
_0-1_1_5
  6
STYLE_01
 62
     7
100
AcDbLine
 10
148.5787822356554
 20
138.0017997640048
 30
0.0
 11
145.0789782470636
 21
139.4080324537345
 31
0.0
  0
LINE
  5
1CE
330
1D
100
AcDbEntity
  8
_0-1_1_5
  6
STYLE_01
 62
     7
100
AcDbLine
 10
148.5787822356554
 20
139.4017997640049
 30
0.0
 11
145.0789782470636
 21
140.8080324537345
 31
0.0
  0
LINE
  5
1CF
330
1D
100
AcDbEntity
  8
_0-1_1_5
  6
STYLE_01
 62
     7
100
AcDbLine
 10
148.5787822356554
 20
140.8017997640048
 30
0.0
 11
145.0789782470636
 21
142.2080324537343
 31
0.0
  0
LINE
  5
1D0
330
1D
100
AcDbEntity
  8
_0-1_1_5
  6
STYLE_01
 62
     7
100
AcDbLine
 10
141.9456904944034
 20
142.0023371712854
 30
0.0
 11
151.9456904944034
 21
142.0023371712854
 31
0.0
  0
LINE
  5
1D1
330
1D
100
AcDbEntity
  8
_0-3_
  6
Continuous
 62
     7
100
AcDbLine
 10
174.9456904944034
 20
142.0023371712854
 30
0.0
 11
174.9456904944034
 21
82.00233717128555
 31
0.0
  0
TEXT
  5
1D2
330
1D
100
AcDbEntity
  8
_0-2_ADD_LINE
 62
     4
100
AcDbText
 10
173.9456904944034
 20
109.5023371712855
 30
0.0
 40
5.0
  1
60
 50
90.0
  7
ＭＳ ゴシック
100
AcDbText
  0
LINE
  5
1D3
330
1D
100
AcDbEntity
  8
_0-2_ADD_LINE
  6
Continuous
 62
     7
100
AcDbLine
 10
174.9456904944034
 20
82.00233717128555
 30
0.0
 11
162.1456904944034
 21
82.00233717128555
 31
0.0
  0
POINT
  5
1D4
330
1D
100
AcDbEntity
  8
_0-2_ADD_LINE
 62
     7
100
AcDbPoint
 10
174.9456904944034
 20
82.00233717128555
 30
0.0
  0
POINT
  5
1D5
330
1D
100
AcDbEntity
  8
_0-2_ADD_LINE
 62
     7
100
AcDbPoint
 10
174.9456904944034
 20
142.0023371712854
 30
0.0
  0
LINE
  5
1D6
330
1D
100
AcDbEntity
  8
_0-2_ADD_LINE
  6
Continuous
 62
     7
100
AcDbLine
 10
174.9456904944034
 20
142.0023371712854
 30
0.0
 11
158.9456904944034
 21
142.0023371712854
 31
0.0
  0
LINE
  5
1D7
330
1D
100
AcDbEntity
  8
_0-1_1_5
  6
Continuous
 62
     7
100
AcDbLine
 10
33.94569049440327
 20
8.741671914484243
 30
0.0
 11
151.9551285807888
 21
8.741671914484243
 31
0.0
  0
POINT
  5
1D8
330
1D
100
AcDbEntity
  8
_0-2_ADD_LINE
 62
     7
100
AcDbPoint
 10
386.2956931229795
 20
299.2794781149241
 30
0.0
  0
POINT
  5
1D9
330
1D
100
AcDbEntity
  8
_0-2_ADD_LINE
 62
     7
100
AcDbPoint
 10
253.0350278661783
 20
299.2794781149241
 30
0.0
  0
LINE
  5
1DA
330
1D
100
AcDbEntity
  8
_0-1_1_5
  6
Continuous
 62
     7
100
AcDbLine
 10
386.2956931229795
 20
299.2794781149241
 30
0.0
 11
253.0350278661783
 21
299.2794781149241
 31
0.0
  0
TEXT
  5
1DB
330
1D
100
AcDbEntity
  8
_0-1_1_5
 62
     4
100
AcDbText
 10
315.9153604945789
 20
300.2794781149241
 30
0.0
 40
5.0
  1
133
  7
ＭＳ ゴシック
100
AcDbText
  0
LINE
  5
1DC
330
1D
100
AcDbEntity
  8
_0-2_ADD_LINE
  6
Continuous
 62
     7
100
AcDbLine
 10
386.2956931229795
 20
299.2794781149241
 30
0.0
 11
386.2956931229795
 21
273.4044519849483
 31
0.0
  0
LINE
  5
1DD
330
1D
100
AcDbEntity
  8
_0-2_ADD_LINE
  6
Continuous
 62
     7
100
AcDbLine
 10
253.0350278661783
 20
299.2794781149241
 30
0.0
 11
253.0350278661783
 21
213.045713650274
 31
0.0
  0
POINT
  5
1DE
330
1D
100
AcDbEntity
  8
_0-2_ADD_LINE
 62
     7
100
AcDbPoint
 10
406.2956931229795
 20
269.4044519849483
 30
0.0
  0
POINT
  5
1DF
330
1D
100
AcDbEntity
  8
_0-2_ADD_LINE
 62
     7
100
AcDbPoint
 10
406.2956931229795
 20
253.4044519849486
 30
0.0
  0
LINE
  5
1E0
330
1D
100
AcDbEntity
  8
_0-1_1_5
  6
Continuous
 62
     7
100
AcDbLine
 10
406.2956931229795
 20
269.4044519849483
 30
0.0
 11
406.2956931229795
 21
253.4044519849486
 31
0.0
  0
TEXT
  5
1E1
330
1D
100
AcDbEntity
  8
_0-1_1_5
 62
     4
100
AcDbText
 10
405.4216341982972
 20
271.7976055900404
 30
0.0
 40
5.0
  1
16
 50
90.0
  7
ＭＳ ゴシック
100
AcDbText
  0
LINE
  5
1E2
330
1D
100
AcDbEntity
  8
_0-2_ADD_LINE
  6
Continuous
 62
     7
100
AcDbLine
 10
406.2956931229795
 20
253.4044519849486
 30
0.0
 11
390.2956931229795
 21
253.4044519849486
 31
0.0
  0
LINE
  5
1E3
330
1D
100
AcDbEntity
  8
_0-2_ADD_LINE
  6
Continuous
 62
     7
100
AcDbLine
 10
406.2956931229795
 20
269.4044519849483
 30
0.0
 11
390.2956931229795
 21
269.4044519849483
 31
0.0
  0
POINT
  5
1E4
330
1D
100
AcDbEntity
  8
_0-2_ADD_LINE
 62
     7
100
AcDbPoint
 10
138.9456904944034
 20
157.5163554110244
 30
0.0
  0
LINE
  5
1E5
330
1D
100
AcDbEntity
  8
_0-1_1_5
  6
Continuous
 62
     7
100
AcDbLine
 10
138.9456904944034
 20
157.5163554110244
 30
0.0
 11
154.9456904944034
 21
157.5163554110244
 31
0.0
  0
TEXT
  5
1E6
330
1D
100
AcDbEntity
  8
_0-2_ADD_LINE
 62
     4
100
AcDbText
 10
131.5499083209567
 20
158.3907594059282
 30
0.0
 40
5.0
  1
16
  7
ＭＳ ゴシック
100
AcDbText
  0
POINT
  5
1E7
330
1D
100
AcDbEntity
  8
_0-2_ADD_LINE
 62
     7
100
AcDbPoint
 10
154.9456904944034
 20
157.5163554110244
 30
0.0
  0
LINE
  5
1E8
330
1D
100
AcDbEntity
  8
_0-2_ADD_LINE
  6
Continuous
 62
     7
100
AcDbLine
 10
138.9456904944034
 20
157.5163554110244
 30
0.0
 11
138.9456904944034
 21
146.0023371712854
 31
0.0
  0
LINE
  5
1E9
330
1D
100
AcDbEntity
  8
_0-2_ADD_LINE
  6
Continuous
 62
     7
100
AcDbLine
 10
154.9456904944034
 20
157.5163554110244
 30
0.0
 11
154.9456904944034
 21
146.0023371712854
 31
0.0
  0
LINE
  5
1EA
330
1D
100
AcDbEntity
  8
_0-2_ADD_LINE
  6
Continuous
 62
     7
100
AcDbLine
 10
138.9456904944034
 20
157.5163554110244
 30
0.0
 11
130.3774115423608
 21
157.5163554110244
 31
0.0
  0
POINT
  5
1EB
330
1D
100
AcDbEntity
  8
_0-2_ADD_LINE
 62
     7
100
AcDbPoint
 10
154.9551285807888
 20
-11.25832808551576
 30
0.0
  0
POINT
  5
1EC
330
1D
100
AcDbEntity
  8
_0-2_ADD_LINE
 62
     7
100
AcDbPoint
 10
30.94569049440327
 20
-11.25832808551576
 30
0.0
  0
LINE
  5
1ED
330
1D
100
AcDbEntity
  8
_0-1_1_5
  6
Continuous
 62
     7
100
AcDbLine
 10
154.9551285807888
 20
-11.25832808551576
 30
0.0
 11
30.94569049440327
 21
-11.25832808551576
 31
0.0
  0
TEXT
  5
1EE
330
1D
100
AcDbEntity
  8
_0-1_1_5
 62
     4
100
AcDbText
 10
89.20040953759604
 20
-10.25832808551576
 30
0.0
 40
5.0
  1
124
  7
ＭＳ ゴシック
100
AcDbText
  0
LINE
  5
1EF
330
1D
100
AcDbEntity
  8
_0-2_ADD_LINE
  6
Continuous
 62
     7
100
AcDbLine
 10
154.9551285807888
 20
-11.25832808551576
 30
0.0
 11
154.9551285807888
 21
7.741671914484243
 31
0.0
  0
LINE
  5
1F0
330
1D
100
AcDbEntity
  8
_0-2_ADD_LINE
  6
Continuous
 62
     7
100
AcDbLine
 10
30.94569049440327
 20
-11.25832808551576
 30
0.0
 11
30.94569049440327
 21
7.741671914484243
 31
0.0
  0
LINE
  5
1F1
330
1D
100
AcDbEntity
  8
_0-2_ADD_LINE
  6
Continuous
 62
     7
100
AcDbLine
 10
406.2956931229795
 20
269.4044519849483
 30
0.0
 11
406.2956931229795
 21
276.5178625907012
 31
0.0
  0
TEXT
  5
1F2
330
1D
100
AcDbEntity
  8
_0-3_
 62
     7
100
AcDbText
 10
135.1669107451513
 20
-41.88174961571394
 30
0.0
 40
6.108154296875001
  1
ペーパーホルダー
  7
ＭＳ ゴシック
100
AcDbText
  0
TEXT
  5
1F3
330
1D
100
AcDbEntity
  8
_0-3_
 62
     7
100
AcDbText
 10
321.9321669521204
 20
-41.80563917926429
 30
0.0
 40
6.108154296875001
  1
TFP43-D100
  7
ＭＳ ゴシック
100
AcDbText
  0
TEXT
  5
270
330
1D
100
AcDbEntity
  8
_0-3_
 62
     7
100
AcDbText
 10
321.9721637082876
 20
-21.7603171847245
 30
0.0
 40
6.1
  1
TFP43-D100-00W
  7
ＭＳ ゴシック
100
AcDbText
  0
TEXT
  5
271
330
1D
100
AcDbEntity
  8
_0-3_
 62
     7
100
AcDbText
 10
321.9721637082876
 20
-9.383856864517682
 30
0.0
 40
6.1
  1
TFP43-D100-00B
  7
ＭＳ ゴシック
100
AcDbText
  0
TEXT
  5
272
330
1D
100
AcDbEntity
  8
_0-3_
 62
     7
100
AcDbText
 10
383.4271042097472
 20
-21.7603171847245
 30
0.0
 40
6.1
  1
ホワイト
  7
ＭＳ ゴシック
100
AcDbText
  0
TEXT
  5
273
330
1D
100
AcDbEntity
  8
_0-3_
 62
     7
100
AcDbText
 10
383.4271042097472
 20
-8.61251608186069
 30
0.0
 40
6.1
  1
ブラック
  7
ＭＳ ゴシック
100
AcDbText
  0
TEXT
  5
274
330
1D
100
AcDbEntity
  8
_0-3_
 62
     7
100
AcDbText
 10
321.9721637082876
 20
3.551686814631623
 30
0.0
 40
6.1
  1
TFP43-D100-003
  7
ＭＳ ゴシック
100
AcDbText
  0
TEXT
  5
275
330
1D
100
AcDbEntity
  8
_0-3_
 62
     7
100
AcDbText
 10
321.9721637082876
 20
15.85741322864103
 30
0.0
 40
6.1
  1
TFP43-D100-002
  7
ＭＳ ゴシック
100
AcDbText
  0
TEXT
  5
276
330
1D
100
AcDbEntity
  8
_0-3_
 62
     7
100
AcDbText
 10
383.4271042097472
 20
3.551686814631623
 30
0.0
 40
6.1
  1
ポリッシュ
  7
ＭＳ ゴシック
100
AcDbText
  0
TEXT
  5
277
330
1D
100
AcDbEntity
  8
_0-3_
 62
     7
100
AcDbText
 10
383.4271042097472
 20
15.85741322864103
 30
0.0
 40
6.1
  1
サテン
  7
ＭＳ ゴシック
100
AcDbText
  0
TEXT
  5
2BA
330
1D
100
AcDbEntity
  8
_0-3_
 62
     7
100
AcDbText
 10
134.8000034619008
 20
-53.42489761745257
 30
0.0
 40
6.1
  1
サテン/ポリッシュ/ブラック/ホワイト
  7
ＭＳ ゴシック
100
AcDbText
  0
ENDSEC
  0
SECTION
  2
OBJECTS
  0
DICTIONARY
  5
C
330
0
100
AcDbDictionary
281
     1
  3
ACAD_COLOR
350
245
  3
ACAD_DETAILVIEWSTYLE
350
27D
  3
ACAD_GROUP
350
D
  3
ACAD_IMAGE_VARS
350
23D
  3
ACAD_LAYOUT
350
1A
  3
ACAD_MATERIAL
350
233
  3
ACAD_MLEADERSTYLE
350
239
  3
ACAD_MLINESTYLE
350
17
  3
ACAD_PLOTSETTINGS
350
19
  3
ACAD_PLOTSTYLENAME
350
E
  3
ACAD_SCALELIST
350
1F4
  3
ACAD_SECTIONVIEWSTYLE
350
27E
  3
ACAD_TABLESTYLE
350
237
  3
ACAD_VISUALSTYLE
350
21A
  3
ACDB_RECOMPOSE_DATA
350
2C2
  3
AcDbVariableDictionary
350
278
  3
APPDATA
350
23B
  0
SUN
  5
23C
330
56
100
AcDbSun
 90
        1
290
     0
 63
     7
421
 16777215
 40
1.0
291
     1
 91
  2455826
 92
 54000000
292
     0
 70
     2
 71
   256
280
     1
  0
DICTIONARY
  5
26B
330
2
100
AcDbDictionary
280
     1
281
     1
  3
ACAD_LAYERSTATES
360
26C
  0
DICTIONARY
  5
245
102
{ACAD_REACTORS
330
C
102
}
330
C
100
AcDbDictionary
281
     1
  0
DICTIONARY
  5
27D
102
{ACAD_REACTORS
330
C
102
}
330
C
100
AcDbDictionary
281
     1
  0
DICTIONARY
  5
D
102
{ACAD_REACTORS
330
C
102
}
330
C
100
AcDbDictionary
281
     1
  0
RASTERVARIABLES
  5
23D
102
{ACAD_REACTORS
330
C
102
}
330
C
100
AcDbRasterVariables
 90
        0
 70
     1
 71
     1
 72
     0
  0
DICTIONARY
  5
1A
102
{ACAD_REACTORS
330
C
102
}
330
C
100
AcDbDictionary
281
     1
  3
Model
350
1E
  3
シート 1
350
1C
  0
DICTIONARY
  5
233
102
{ACAD_REACTORS
330
C
102
}
330
C
100
AcDbDictionary
281
     1
  3
ByBlock
350
235
  3
ByLayer
350
234
  3
Global
350
236
  0
DICTIONARY
  5
239
102
{ACAD_REACTORS
330
C
102
}
330
C
100
AcDbDictionary
281
     1
  3
Standard
350
23A
  0
DICTIONARY
  5
17
102
{ACAD_REACTORS
330
C
102
}
330
C
100
AcDbDictionary
281
     1
  3
Standard
350
18
  0
DICTIONARY
  5
19
102
{ACAD_REACTORS
330
C
102
}
330
C
100
AcDbDictionary
281
     1
  0
ACDBDICTIONARYWDFLT
  5
E
102
{ACAD_REACTORS
330
C
102
}
330
C
100
AcDbDictionary
281
     1
  3
Normal
350
F
100
AcDbDictionaryWithDefault
340
F
  0
DICTIONARY
  5
1F4
102
{ACAD_REACTORS
330
C
102
}
330
C
100
AcDbDictionary
281
     1
  3
A0
350
1F5
  3
A1
350
1F6
  3
A2
350
1F7
  3
A3
350
1F8
  3
A4
350
1F9
  3
A5
350
1FA
  3
A6
350
1FB
  3
A7
350
1FC
  3
A8
350
1FD
  3
A9
350
1FE
  3
B0
350
1FF
  3
B1
350
200
  3
B2
350
201
  3
B3
350
202
  3
B4
350
203
  3
B5
350
204
  3
B6
350
205
  3
B7
350
206
  3
B8
350
207
  3
B9
350
208
  3
C0
350
209
  3
C1
350
20A
  3
C2
350
20B
  3
C3
350
20C
  3
C4
350
20D
  3
C5
350
20E
  3
C6
350
20F
  3
C7
350
210
  3
C8
350
211
  3
C9
350
212
  3
D0
350
213
  3
D1
350
214
  3
D2
350
215
  0
DICTIONARY
  5
27E
102
{ACAD_REACTORS
330
C
102
}
330
C
100
AcDbDictionary
281
     1
  0
DICTIONARY
  5
237
102
{ACAD_REACTORS
330
C
102
}
330
C
100
AcDbDictionary
281
     1
  3
Standard
350
238
  0
DICTIONARY
  5
21A
102
{ACAD_REACTORS
330
C
102
}
330
C
100
AcDbDictionary
281
     1
  3
2dWireframe
350
21F
  3
Basic
350
222
  3
Brighten
350
226
  3
ColorChange
350
22A
  3
Conceptual
350
224
  3
Dim
350
225
  3
EdgeColorOff
350
22D
  3
Facepattern
350
229
  3
Flat
350
21B
  3
FlatWithEdges
350
21C
  3
Gouraud
350
21D
  3
GouraudWithEdges
350
21E
  3
Hidden
350
221
  3
JitterOff
350
22B
  3
Linepattern
350
228
  3
OverhangOff
350
22C
  3
Realistic
350
223
  3
Shaded
350
232
  3
Shaded with edges
350
231
  3
Shades of Gray
350
22E
  3
Sketchy
350
22F
  3
Thicken
350
227
  3
Wireframe
350
220
  3
X-Ray
350
230
  0
XRECORD
  5
2C2
102
{ACAD_REACTORS
330
C
102
}
330
C
100
AcDbXrecord
280
     1
 90
        1
330
238
  0
DICTIONARY
  5
278
102
{ACAD_REACTORS
330
C
102
}
330
C
100
AcDbDictionary
281
     1
  3
CANNOSCALE
350
279
  3
CMLEADERSTYLE
350
27B
  3
CTABLESTYLE
350
27A
  3
MSLTSCALE
350
27C
  0
DICTIONARY
  5
23B
102
{ACAD_REACTORS
330
C
102
}
330
C
100
AcDbDictionary
281
     1
  0
DICTIONARY
  5
26C
102
{ACAD_REACTORS
330
26B
102
}
330
26B
100
AcDbDictionary
281
     1
  0
LAYOUT
  5
1E
102
{ACAD_REACTORS
330
1A
102
}
330
1A
100
AcDbPlotSettings
  1

  2
none_device
  4
Letter_(8.50_x_11.00_Inches)
  6

 40
6.35
 41
6.35
 42
6.35
 43
6.35
 44
215.9
 45
279.4
 46
0.0
 47
0.0
 48
0.0
 49
0.0
140
0.0
141
0.0
142
1.0
143
1.0
 70
  1712
 72
     0
 73
     0
 74
     0
  7

 75
     0
 76
     0
 77
     2
 78
   300
147
1.0
148
0.0
149
0.0
100
AcDbLayout
  1
Model
 70
     1
 71
     0
 10
0.0
 20
0.0
 11
12.0
 21
9.0
 12
0.0
 22
0.0
 32
0.0
 14
-87.01990673880675
 24
-84.24062991642131
 34
0.0
 15
506.9800932611932
 25
335.7593700835787
 35
0.0
146
0.0
 13
0.0
 23
0.0
 33
0.0
 16
1.0
 26
0.0
 36
0.0
 17
0.0
 27
1.0
 37
0.0
 76
     0
330
1D
331
56
  0
LAYOUT
  5
1C
102
{ACAD_REACTORS
330
1A
102
}
330
1A
100
AcDbPlotSettings
  1

  2
none_device
  4

  6

 40
0.0
 41
0.0
 42
0.0
 43
0.0
 44
0.0
 45
0.0
 46
0.0
 47
0.0
 48
0.0
 49
0.0
140
0.0
141
0.0
142
1.0
143
1.0
 70
   688
 72
     0
 73
     0
 74
     5
  7

 75
    16
 76
     0
 77
     2
 78
   300
147
1.0
148
0.0
149
0.0
100
AcDbLayout
  1
シート 1
 70
     1
 71
     1
 10
0.0
 20
0.0
 11
0.0
 21
0.0
 12
0.0
 22
0.0
 32
0.0
 14
1.000000000000000E+20
 24
1.000000000000000E+20
 34
1.000000000000000E+20
 15
-1.000000000000000E+20
 25
-1.000000000000000E+20
 35
-1.000000000000000E+20
146
0.0
 13
0.0
 23
0.0
 33
0.0
 16
1.0
 26
0.0
 36
0.0
 17
0.0
 27
1.0
 37
0.0
 76
     0
330
1B
  0
MATERIAL
  5
235
102
{ACAD_REACTORS
330
233
102
}
330
233
100
AcDbMaterial
  1
ByBlock
 72
     1
 94
      127
  0
MATERIAL
  5
234
102
{ACAD_REACTORS
330
233
102
}
330
233
100
AcDbMaterial
  1
ByLayer
 72
     1
 94
      127
  0
MATERIAL
  5
236
102
{ACAD_REACTORS
330
233
102
}
330
233
100
AcDbMaterial
  1
Global
 72
     1
 94
      127
  0
MLEADERSTYLE
  5
23A
102
{ACAD_REACTORS
330
239
102
}
330
239
100
AcDbMLeaderStyle
170
     2
171
     1
172
     0
 90
        2
 40
0.0
 41
0.0
173
     1
 91
-1056964608
340
14
 92
       -2
290
     1
 42
0.09
291
     1
 43
0.36
  3
Standard
341
0
 44
0.18
300

342
11
174
     1
178
     1
175
     1
176
     0
 93
-1056964608
 45
0.18
292
     0
297
     0
 46
0.18
343
0
 94
-1056964608
 47
1.0
 49
1.0
140
1.0
293
     1
141
0.0
294
     1
177
     0
142
1.0
295
     0
296
     0
143
0.125
1001
ACAD_MLEADERVER
1070
     2
  0
MLINESTYLE
  5
18
102
{ACAD_REACTORS
330
17
102
}
330
17
100
AcDbMlineStyle
  2
Standard
 70
     0
  3

 62
   256
 51
90.0
 52
90.0
 71
     2
 49
0.5
 62
   256
  6
BYLAYER
 49
-0.5
 62
   256
  6
BYLAYER
  0
ACDBPLACEHOLDER
  5
F
102
{ACAD_REACTORS
330
E
102
}
330
E
  0
SCALE
  5
1F5
102
{ACAD_REACTORS
330
1F4
102
}
330
1F4
100
AcDbScale
 70
     0
300
1:1
140
1.0
141
1.0
290
     1
  0
SCALE
  5
1F6
102
{ACAD_REACTORS
330
1F4
102
}
330
1F4
100
AcDbScale
 70
     0
300
1:2
140
1.0
141
2.0
290
     0
  0
SCALE
  5
1F7
102
{ACAD_REACTORS
330
1F4
102
}
330
1F4
100
AcDbScale
 70
     0
300
1:4
140
1.0
141
4.0
290
     0
  0
SCALE
  5
1F8
102
{ACAD_REACTORS
330
1F4
102
}
330
1F4
100
AcDbScale
 70
     0
300
1:5
140
1.0
141
5.0
290
     0
  0
SCALE
  5
1F9
102
{ACAD_REACTORS
330
1F4
102
}
330
1F4
100
AcDbScale
 70
     0
300
1:8
140
1.0
141
8.0
290
     0
  0
SCALE
  5
1FA
102
{ACAD_REACTORS
330
1F4
102
}
330
1F4
100
AcDbScale
 70
     0
300
1:10
140
1.0
141
10.0
290
     0
  0
SCALE
  5
1FB
102
{ACAD_REACTORS
330
1F4
102
}
330
1F4
100
AcDbScale
 70
     0
300
1:16
140
1.0
141
16.0
290
     0
  0
SCALE
  5
1FC
102
{ACAD_REACTORS
330
1F4
102
}
330
1F4
100
AcDbScale
 70
     0
300
1:20
140
1.0
141
20.0
290
     0
  0
SCALE
  5
1FD
102
{ACAD_REACTORS
330
1F4
102
}
330
1F4
100
AcDbScale
 70
     0
300
1:30
140
1.0
141
30.0
290
     0
  0
SCALE
  5
1FE
102
{ACAD_REACTORS
330
1F4
102
}
330
1F4
100
AcDbScale
 70
     0
300
1:40
140
1.0
141
40.0
290
     0
  0
SCALE
  5
1FF
102
{ACAD_REACTORS
330
1F4
102
}
330
1F4
100
AcDbScale
 70
     0
300
1:50
140
1.0
141
50.0
290
     0
  0
SCALE
  5
200
102
{ACAD_REACTORS
330
1F4
102
}
330
1F4
100
AcDbScale
 70
     0
300
1:100
140
1.0
141
100.0
290
     0
  0
SCALE
  5
201
102
{ACAD_REACTORS
330
1F4
102
}
330
1F4
100
AcDbScale
 70
     0
300
2:1
140
2.0
141
1.0
290
     0
  0
SCALE
  5
202
102
{ACAD_REACTORS
330
1F4
102
}
330
1F4
100
AcDbScale
 70
     0
300
4:1
140
4.0
141
1.0
290
     0
  0
SCALE
  5
203
102
{ACAD_REACTORS
330
1F4
102
}
330
1F4
100
AcDbScale
 70
     0
300
8:1
140
8.0
141
1.0
290
     0
  0
SCALE
  5
204
102
{ACAD_REACTORS
330
1F4
102
}
330
1F4
100
AcDbScale
 70
     0
300
10:1
140
10.0
141
1.0
290
     0
  0
SCALE
  5
205
102
{ACAD_REACTORS
330
1F4
102
}
330
1F4
100
AcDbScale
 70
     0
300
100:1
140
100.0
141
1.0
290
     0
  0
SCALE
  5
206
102
{ACAD_REACTORS
330
1F4
102
}
330
1F4
100
AcDbScale
 70
     0
300
1/128" = 1'-0"
140
0.0078125
141
12.0
290
     0
  0
SCALE
  5
207
102
{ACAD_REACTORS
330
1F4
102
}
330
1F4
100
AcDbScale
 70
     0
300
1/64" = 1'-0"
140
0.015625
141
12.0
290
     0
  0
SCALE
  5
208
102
{ACAD_REACTORS
330
1F4
102
}
330
1F4
100
AcDbScale
 70
     0
300
1/32" = 1'-0"
140
0.03125
141
12.0
290
     0
  0
SCALE
  5
209
102
{ACAD_REACTORS
330
1F4
102
}
330
1F4
100
AcDbScale
 70
     0
300
1/16" = 1'-0"
140
0.0625
141
12.0
290
     0
  0
SCALE
  5
20A
102
{ACAD_REACTORS
330
1F4
102
}
330
1F4
100
AcDbScale
 70
     0
300
3/32" = 1'-0"
140
0.09375
141
12.0
290
     0
  0
SCALE
  5
20B
102
{ACAD_REACTORS
330
1F4
102
}
330
1F4
100
AcDbScale
 70
     0
300
1/8" = 1'-0"
140
0.125
141
12.0
290
     0
  0
SCALE
  5
20C
102
{ACAD_REACTORS
330
1F4
102
}
330
1F4
100
AcDbScale
 70
     0
300
3/16" = 1'-0"
140
0.1875
141
12.0
290
     0
  0
SCALE
  5
20D
102
{ACAD_REACTORS
330
1F4
102
}
330
1F4
100
AcDbScale
 70
     0
300
1/4" = 1'-0"
140
0.25
141
12.0
290
     0
  0
SCALE
  5
20E
102
{ACAD_REACTORS
330
1F4
102
}
330
1F4
100
AcDbScale
 70
     0
300
3/8" = 1'-0"
140
0.375
141
12.0
290
     0
  0
SCALE
  5
20F
102
{ACAD_REACTORS
330
1F4
102
}
330
1F4
100
AcDbScale
 70
     0
300
1/2" = 1'-0"
140
0.5
141
12.0
290
     0
  0
SCALE
  5
210
102
{ACAD_REACTORS
330
1F4
102
}
330
1F4
100
AcDbScale
 70
     0
300
3/4" = 1'-0"
140
0.75
141
12.0
290
     0
  0
SCALE
  5
211
102
{ACAD_REACTORS
330
1F4
102
}
330
1F4
100
AcDbScale
 70
     0
300
1" = 1'-0"
140
1.0
141
12.0
290
     0
  0
SCALE
  5
212
102
{ACAD_REACTORS
330
1F4
102
}
330
1F4
100
AcDbScale
 70
     0
300
1-1/2" = 1'-0"
140
1.5
141
12.0
290
     0
  0
SCALE
  5
213
102
{ACAD_REACTORS
330
1F4
102
}
330
1F4
100
AcDbScale
 70
     0
300
3" = 1'-0"
140
3.0
141
12.0
290
     0
  0
SCALE
  5
214
102
{ACAD_REACTORS
330
1F4
102
}
330
1F4
100
AcDbScale
 70
     0
300
6" = 1'-0"
140
6.0
141
12.0
290
     0
  0
SCALE
  5
215
102
{ACAD_REACTORS
330
1F4
102
}
330
1F4
100
AcDbScale
 70
     0
300
1'-0" = 1'-0"
140
12.0
141
12.0
290
     0
  0
TABLESTYLE
  5
238
102
{ACAD_REACTORS
330
237
102
}
102
{ACAD_XDICTIONARY
360
2BF
102
}
330
237
100
AcDbTableStyle
  3
Standard
 70
     0
 71
     0
 40
0.06
 41
0.06
280
     0
281
     0
  7
STANDARD
140
0.18
170
     2
 62
     0
 63
   257
283
     0
 90
        4
 91
        0
  1

274
    -2
284
     1
 64
     0
275
    -2
285
     1
 65
     0
276
    -2
286
     1
 66
     0
277
    -2
287
     1
 67
     0
278
    -2
288
     1
 68
     0
279
    -2
289
     1
 69
     0
  7
STANDARD
140
0.25
170
     5
 62
     0
 63
   257
283
     0
 90
        4
 91
        0
  1

274
    -2
284
     1
 64
     0
275
    -2
285
     1
 65
     0
276
    -2
286
     1
 66
     0
277
    -2
287
     1
 67
     0
278
    -2
288
     1
 68
     0
279
    -2
289
     1
 69
     0
  7
STANDARD
140
0.18
170
     5
 62
     0
 63
   257
283
     0
 90
        4
 91
        0
  1

274
    -2
284
     1
 64
     0
275
    -2
285
     1
 65
     0
276
    -2
286
     1
 66
     0
277
    -2
287
     1
 67
     0
278
    -2
288
     1
 68
     0
279
    -2
289
     1
 69
     0
  0
VISUALSTYLE
  5
21F
102
{ACAD_REACTORS
330
21A
102
}
330
21A
100
AcDbVisualStyle
  2
2dWireframe
 70
     4
 71
     0
 72
     2
 73
     0
 90
        0
 40
0.6
 41
30.0
 62
     5
 63
     7
421
 16777215
 74
     1
 91
        4
 64
     7
 65
   257
 75
     1
175
     1
 42
1.0
 92
        0
 66
   257
 43
1.0
 76
     1
 77
     6
 78
     2
 67
     7
 79
     5
170
     0
171
     0
290
     0
174
     0
 93
        1
 44
0.0
173
     0
291
     0
 45
0.0
  0
VISUALSTYLE
  5
222
102
{ACAD_REACTORS
330
21A
102
}
330
21A
100
AcDbVisualStyle
  2
Basic
 70
     7
 71
     1
 72
     0
 73
     1
 90
        0
 40
0.6
 41
30.0
 62
     5
 63
     7
421
 16777215
 74
     0
 91
        4
 64
     7
 65
   257
 75
     1
175
     1
 42
1.0
 92
        8
 66
     7
 43
1.0
 76
     1
 77
     6
 78
     2
 67
     7
 79
     5
170
     0
171
     0
290
     0
174
     0
 93
        1
 44
0.0
173
     0
291
     1
 45
0.0
  0
VISUALSTYLE
  5
226
102
{ACAD_REACTORS
330
21A
102
}
330
21A
100
AcDbVisualStyle
  2
Brighten
 70
    12
 71
     2
 72
     2
 73
     0
 90
        0
 40
0.6
 41
30.0
 62
     5
 63
     7
421
 16777215
 74
     1
 91
        4
 64
     7
 65
   257
 75
     1
175
     1
 42
1.0
 92
        8
 66
     7
 43
1.0
 76
     1
 77
     6
 78
     2
 67
     7
 79
     5
170
     0
171
     0
290
     0
174
     0
 93
        1
 44
50.0
173
     0
291
     1
 45
0.0
  0
VISUALSTYLE
  5
22A
102
{ACAD_REACTORS
330
21A
102
}
330
21A
100
AcDbVisualStyle
  2
ColorChange
 70
    16
 71
     2
 72
     2
 73
     3
 90
        0
 40
0.6
 41
30.0
 62
     5
 63
     8
421
  8421504
 74
     1
 91
        4
 64
     7
 65
   257
 75
     1
175
     1
 42
1.0
 92
        8
 66
     8
424
  8421504
 43
1.0
 76
     1
 77
     6
 78
     2
 67
     7
 79
     5
170
     0
171
     0
290
     0
174
     0
 93
        1
 44
0.0
173
     0
291
     1
 45
0.0
  0
VISUALSTYLE
  5
224
102
{ACAD_REACTORS
330
21A
102
}
330
21A
100
AcDbVisualStyle
  2
Conceptual
 70
     9
 71
     3
 72
     2
 73
     0
 90
        0
 40
0.6
 41
30.0
 62
     5
 63
     7
421
 16777215
 74
     2
 91
        2
 64
     7
 65
   257
 75
     1
175
     1
 42
179.0
 92
        8
 66
     7
 43
1.0
 76
     1
 77
     6
 78
     2
 67
     7
 79
     3
170
     0
171
     0
290
     0
174
     0
 93
        1
 44
0.0
173
     0
291
     0
 45
0.0
  0
VISUALSTYLE
  5
225
102
{ACAD_REACTORS
330
21A
102
}
330
21A
100
AcDbVisualStyle
  2
Dim
 70
    11
 71
     2
 72
     2
 73
     0
 90
        0
 40
0.6
 41
30.0
 62
     5
 63
     7
421
 16777215
 74
     1
 91
        4
 64
     7
 65
   257
 75
     1
175
     1
 42
1.0
 92
        8
 66
     7
 43
1.0
 76
     1
 77
     6
 78
     2
 67
     7
 79
     5
170
     0
171
     0
290
     0
174
     0
 93
        1
 44
-50.0
173
     0
291
     1
 45
0.0
  0
VISUALSTYLE
  5
22D
102
{ACAD_REACTORS
330
21A
102
}
330
21A
100
AcDbVisualStyle
  2
EdgeColorOff
 70
    22
 71
     2
 72
     2
 73
     0
 90
        0
 40
0.6
 41
30.0
 62
     5
 63
     7
421
 16777215
 74
     1
 91
        4
 64
     7
 65
   257
 75
     1
175
     1
 42
1.0
 92
        8
 66
     7
 43
1.0
 76
     1
 77
     6
 78
     2
 67
     7
 79
     5
170
     0
171
     0
290
     0
174
     0
 93
        1
 44
0.0
173
     0
291
     1
 45
0.0
  0
VISUALSTYLE
  5
229
102
{ACAD_REACTORS
330
21A
102
}
330
21A
100
AcDbVisualStyle
  2
Facepattern
 70
    15
 71
     2
 72
     2
 73
     0
 90
        0
 40
0.6
 41
30.0
 62
     5
 63
     7
421
 16777215
 74
     1
 91
        4
 64
     7
 65
   257
 75
     1
175
     1
 42
1.0
 92
        8
 66
     7
 43
1.0
 76
     1
 77
     6
 78
     2
 67
     7
 79
     5
170
     0
171
     0
290
     0
174
     0
 93
        1
 44
0.0
173
     0
291
     1
 45
0.0
  0
VISUALSTYLE
  5
21B
102
{ACAD_REACTORS
330
21A
102
}
330
21A
100
AcDbVisualStyle
  2
Flat
 70
     0
 71
     2
 72
     1
 73
     1
 90
        2
 40
0.6
 41
30.0
 62
     5
 63
     7
421
 16777215
 74
     0
 91
        0
 64
     7
 65
   257
 75
     1
175
     1
 42
1.0
 92
        8
 66
     7
 43
1.0
 76
     1
 77
     6
 78
     2
 67
     7
 79
     5
170
     0
171
     0
290
     0
174
     0
 93
       13
 44
0.0
173
     0
291
     1
 45
0.0
  0
VISUALSTYLE
  5
21C
102
{ACAD_REACTORS
330
21A
102
}
330
21A
100
AcDbVisualStyle
  2
FlatWithEdges
 70
     1
 71
     2
 72
     1
 73
     1
 90
        2
 40
0.6
 41
30.0
 62
     5
 63
     7
421
 16777215
 74
     1
 91
        0
 64
     7
 65
   257
 75
     1
175
     1
 42
1.0
 92
        0
 66
   257
 43
1.0
 76
     1
 77
     6
 78
     2
 67
     7
 79
     5
170
     0
171
     0
290
     0
174
     0
 93
       13
 44
0.0
173
     0
291
     1
 45
0.0
  0
VISUALSTYLE
  5
21D
102
{ACAD_REACTORS
330
21A
102
}
330
21A
100
AcDbVisualStyle
  2
Gouraud
 70
     2
 71
     2
 72
     2
 73
     1
 90
        2
 40
0.6
 41
30.0
 62
     5
 63
     7
421
 16777215
 74
     0
 91
        0
 64
     7
 65
   257
 75
     1
175
     1
 42
1.0
 92
        0
 66
     7
 43
1.0
 76
     1
 77
     6
 78
     2
 67
     7
 79
     5
170
     0
171
     0
290
     0
174
     0
 93
       13
 44
0.0
173
     0
291
     1
 45
0.0
  0
VISUALSTYLE
  5
21E
102
{ACAD_REACTORS
330
21A
102
}
330
21A
100
AcDbVisualStyle
  2
GouraudWithEdges
 70
     3
 71
     2
 72
     2
 73
     1
 90
        2
 40
0.6
 41
30.0
 62
     5
 63
     7
421
 16777215
 74
     1
 91
        0
 64
     7
 65
   257
 75
     1
175
     1
 42
1.0
 92
        0
 66
   257
 43
1.0
 76
     1
 77
     6
 78
     2
 67
     7
 79
     5
170
     0
171
     0
290
     0
174
     0
 93
       13
 44
0.0
173
     0
291
     1
 45
0.0
  0
VISUALSTYLE
  5
221
102
{ACAD_REACTORS
330
21A
102
}
330
21A
100
AcDbVisualStyle
  2
Hidden
 70
     6
 71
     1
 72
     2
 73
     2
 90
        0
 40
0.6
 41
30.0
 62
     5
 63
     7
421
 16777215
 74
     2
 91
        2
 64
     7
 65
   257
 75
     2
175
     1
 42
40.0
 92
        0
 66
   257
 43
1.0
 76
     1
 77
     6
 78
     2
 67
     7
 79
     3
170
     0
171
     0
290
     0
174
     0
 93
        1
 44
0.0
173
     0
291
     0
 45
0.0
  0
VISUALSTYLE
  5
22B
102
{ACAD_REACTORS
330
21A
102
}
330
21A
100
AcDbVisualStyle
  2
JitterOff
 70
    20
 71
     2
 72
     2
 73
     0
 90
        0
 40
0.6
 41
30.0
 62
     5
 63
     7
421
 16777215
 74
     1
 91
        4
 64
     7
 65
   257
 75
     1
175
     1
 42
1.0
 92
       10
 66
     7
 43
1.0
 76
     1
 77
     6
 78
     2
 67
     7
 79
     5
170
     0
171
     0
290
     0
174
     0
 93
        1
 44
0.0
173
     0
291
     1
 45
0.0
  0
VISUALSTYLE
  5
228
102
{ACAD_REACTORS
330
21A
102
}
330
21A
100
AcDbVisualStyle
  2
Linepattern
 70
    14
 71
     2
 72
     2
 73
     0
 90
        0
 40
0.6
 41
30.0
 62
     5
 63
     7
421
 16777215
 74
     1
 91
        4
 64
     7
 65
   257
 75
     7
175
     7
 42
1.0
 92
        8
 66
     7
 43
1.0
 76
     1
 77
     6
 78
     2
 67
     7
 79
     5
170
     0
171
     0
290
     0
174
     0
 93
        1
 44
0.0
173
     0
291
     1
 45
0.0
  0
VISUALSTYLE
  5
22C
102
{ACAD_REACTORS
330
21A
102
}
330
21A
100
AcDbVisualStyle
  2
OverhangOff
 70
    21
 71
     2
 72
     2
 73
     0
 90
        0
 40
0.6
 41
30.0
 62
     5
 63
     7
421
 16777215
 74
     1
 91
        4
 64
     7
 65
   257
 75
     1
175
     1
 42
1.0
 92
        9
 66
     7
 43
1.0
 76
     1
 77
     6
 78
     2
 67
     7
 79
     5
170
     0
171
     0
290
     0
174
     0
 93
        1
 44
0.0
173
     0
291
     1
 45
0.0
  0
VISUALSTYLE
  5
223
102
{ACAD_REACTORS
330
21A
102
}
330
21A
100
AcDbVisualStyle
  2
Realistic
 70
     8
 71
     2
 72
     3
 73
     0
 90
        2
 40
0.6
 41
30.0
 62
     5
 63
     7
421
 16777215
 74
     0
 91
        0
 64
     7
 65
   257
 75
     1
175
     1
 42
1.0
 92
        8
 66
   257
 43
1.0
 76
     1
 77
     6
 78
     2
 67
     7
 79
     3
170
     0
171
     0
290
     0
174
     0
 93
       13
 44
0.0
173
     0
291
     0
 45
0.0
  0
VISUALSTYLE
  5
232
102
{ACAD_REACTORS
330
21A
102
}
330
21A
100
AcDbVisualStyle
  2
Shaded
 70
    27
 71
     2
 72
     2
 73
     1
 90
        2
 40
0.6
 41
30.0
 62
     5
 63
     7
421
 16777215
 74
     0
 91
        4
 64
     7
 65
   257
 75
     1
175
     1
 42
1.0
 92
        8
 66
   257
 43
1.0
 76
     1
 77
     6
 78
     2
 67
     8
425
  7895160
 79
     3
170
     0
171
     0
290
     0
174
     0
 93
        5
 44
0.0
173
     0
291
     0
 45
0.0
  0
VISUALSTYLE
  5
231
102
{ACAD_REACTORS
330
21A
102
}
330
21A
100
AcDbVisualStyle
  2
Shaded with edges
 70
    26
 71
     2
 72
     2
 73
     1
 90
        2
 40
0.6
 41
30.0
 62
     5
 63
     7
421
 16777215
 74
     1
 91
       10
 64
     7
 65
   257
 75
     2
175
     1
 42
1.0
 92
        8
 66
   257
 43
1.0
 76
     1
 77
     6
 78
     2
 67
     7
 79
     3
170
     0
171
     0
290
     0
174
     0
 93
        5
 44
0.0
173
     0
291
     0
 45
0.0
  0
VISUALSTYLE
  5
22E
102
{ACAD_REACTORS
330
21A
102
}
330
21A
100
AcDbVisualStyle
  2
Shades of Gray
 70
    23
 71
     2
 72
     2
 73
     3
 90
        0
 40
0.6
 41
30.0
 62
     5
 63
     7
421
 16777215
 74
     2
 91
        2
 64
     7
 65
     7
 75
     1
175
     1
 42
40.0
 92
        8
 66
     7
 43
1.0
 76
     1
 77
     6
 78
     2
 67
     7
 79
     3
170
     0
171
     0
290
     0
174
     0
 93
        1
 44
0.0
173
     0
291
     0
 45
0.0
  0
VISUALSTYLE
  5
22F
102
{ACAD_REACTORS
330
21A
102
}
330
21A
100
AcDbVisualStyle
  2
Sketchy
 70
    24
 71
     1
 72
     2
 73
     2
 90
        0
 40
0.6
 41
30.0
 62
     5
 63
     7
421
 16777215
 74
     2
 91
        2
 64
     7
 65
     7
 75
     1
175
     1
 42
40.0
 92
       11
 66
     7
 43
1.0
 76
     1
 77
     6
 78
     2
 67
     7
 79
     6
170
     0
171
     0
290
     0
174
     0
 93
        1
 44
0.0
173
     0
291
     0
 45
0.0
  0
VISUALSTYLE
  5
227
102
{ACAD_REACTORS
330
21A
102
}
330
21A
100
AcDbVisualStyle
  2
Thicken
 70
    13
 71
     2
 72
     2
 73
     0
 90
        0
 40
0.6
 41
30.0
 62
     5
 63
     7
421
 16777215
 74
     1
 91
        4
 64
     7
 65
   257
 75
     1
175
     1
 42
1.0
 92
       12
 66
     7
 43
1.0
 76
     1
 77
     6
 78
     2
 67
     7
 79
     5
170
     0
171
     0
290
     0
174
     0
 93
        1
 44
0.0
173
     0
291
     1
 45
0.0
  0
VISUALSTYLE
  5
220
102
{ACAD_REACTORS
330
21A
102
}
330
21A
100
AcDbVisualStyle
  2
Wireframe
 70
     5
 71
     0
 72
     2
 73
     0
 90
        0
 40
0.6
 41
30.0
 62
     5
 63
     7
421
 16777215
 74
     1
 91
        4
 64
     7
 65
   257
 75
     1
175
     1
 42
1.0
 92
        0
 66
   257
 43
1.0
 76
     1
 77
     6
 78
     2
 67
     7
 79
     3
170
     0
171
     0
290
     0
174
     0
 93
        1
 44
0.0
173
     0
291
     0
 45
0.0
  0
VISUALSTYLE
  5
230
102
{ACAD_REACTORS
330
21A
102
}
330
21A
100
AcDbVisualStyle
  2
X-Ray
 70
    25
 71
     2
 72
     2
 73
     1
 90
        1
 40
0.5
 41
30.0
 62
     5
 63
     7
421
 16777215
 74
     1
 91
        0
 64
     7
 65
   257
 75
     1
175
     1
 42
1.0
 92
        8
 66
     7
 43
1.0
 76
     1
 77
     6
 78
     2
 67
     7
 79
     3
170
     0
171
     0
290
     0
174
     0
 93
       13
 44
0.0
173
     0
291
     0
 45
0.0
  0
DICTIONARYVAR
  5
279
102
{ACAD_REACTORS
330
278
102
}
330
278
100
DictionaryVariables
280
     0
  1
1:1
  0
DICTIONARYVAR
  5
27B
102
{ACAD_REACTORS
330
278
102
}
330
278
100
DictionaryVariables
280
     0
  1
Standard
  0
DICTIONARYVAR
  5
27A
102
{ACAD_REACTORS
330
278
102
}
330
278
100
DictionaryVariables
280
     0
  1
Standard
  0
DICTIONARYVAR
  5
27C
102
{ACAD_REACTORS
330
278
102
}
330
278
100
DictionaryVariables
280
     0
  1
0
  0
DICTIONARY
  5
2BF
330
238
100
AcDbDictionary
280
     1
281
     1
  3
ACAD_ROUNDTRIP_2008_TABLESTYLE_CELLSTYLEMAP
360
2C0
  0
CELLSTYLEMAP
  5
2C0
102
{ACAD_REACTORS
330
2BF
102
}
330
2BF
100
AcDbCellStyleMap
 90
        3
300
CELLSTYLE
  1
TABLEFORMAT_BEGIN
 90
        5
170
     1
 91
        0
 92
    32768
 62
   257
 93
        1
300
CONTENTFORMAT
  1
CONTENTFORMAT_BEGIN
 90
        0
 91
        0
 92
        4
 93
        0
300

 40
0.0
140
1.0
 94
        5
 62
     0
340
11
144
0.25
309
CONTENTFORMAT_END
171
     1
301
MARGIN
  1
CELLMARGIN_BEGIN
 40
0.06
 40
0.06
 40
0.06
 40
0.06
 40
0.06
 40
0.06
309
CELLMARGIN_END
 94
        6
 95
        1
302
GRIDFORMAT
  1
GRIDFORMAT_BEGIN
 90
        0
 91
        1
 62
     0
 92
       -2
340
14
 93
        0
 40
0.045
309
GRIDFORMAT_END
 95
        2
302
GRIDFORMAT
  1
GRIDFORMAT_BEGIN
 90
        0
 91
        1
 62
     0
 92
       -2
340
14
 93
        0
 40
0.045
309
GRIDFORMAT_END
 95
        4
302
GRIDFORMAT
  1
GRIDFORMAT_BEGIN
 90
        0
 91
        1
 62
     0
 92
       -2
340
14
 93
        0
 40
0.045
309
GRIDFORMAT_END
 95
        8
302
GRIDFORMAT
  1
GRIDFORMAT_BEGIN
 90
        0
 91
        1
 62
     0
 92
       -2
340
14
 93
        0
 40
0.045
309
GRIDFORMAT_END
 95
       16
302
GRIDFORMAT
  1
GRIDFORMAT_BEGIN
 90
        0
 91
        1
 62
     0
 92
       -2
340
14
 93
        0
 40
0.045
309
GRIDFORMAT_END
 95
       32
302
GRIDFORMAT
  1
GRIDFORMAT_BEGIN
 90
        0
 91
        1
 62
     0
 92
       -2
340
14
 93
        0
 40
0.045
309
GRIDFORMAT_END
309
TABLEFORMAT_END
  1
CELLSTYLE_BEGIN
 90
        1
 91
        1
300
_TITLE
309
CELLSTYLE_END
300
CELLSTYLE
  1
TABLEFORMAT_BEGIN
 90
        5
170
     1
 91
        0
 92
        0
 62
   257
 93
        1
300
CONTENTFORMAT
  1
CONTENTFORMAT_BEGIN
 90
        0
 91
        0
 92
        4
 93
        0
300

 40
0.0
140
1.0
 94
        5
 62
     0
340
11
144
0.18
309
CONTENTFORMAT_END
171
     1
301
MARGIN
  1
CELLMARGIN_BEGIN
 40
0.06
 40
0.06
 40
0.06
 40
0.06
 40
0.06
 40
0.06
309
CELLMARGIN_END
 94
        6
 95
        1
302
GRIDFORMAT
  1
GRIDFORMAT_BEGIN
 90
        0
 91
        1
 62
     0
 92
       -2
340
14
 93
        0
 40
0.045
309
GRIDFORMAT_END
 95
        2
302
GRIDFORMAT
  1
GRIDFORMAT_BEGIN
 90
        0
 91
        1
 62
     0
 92
       -2
340
14
 93
        0
 40
0.045
309
GRIDFORMAT_END
 95
        4
302
GRIDFORMAT
  1
GRIDFORMAT_BEGIN
 90
        0
 91
        1
 62
     0
 92
       -2
340
14
 93
        0
 40
0.045
309
GRIDFORMAT_END
 95
        8
302
GRIDFORMAT
  1
GRIDFORMAT_BEGIN
 90
        0
 91
        1
 62
     0
 92
       -2
340
14
 93
        0
 40
0.045
309
GRIDFORMAT_END
 95
       16
302
GRIDFORMAT
  1
GRIDFORMAT_BEGIN
 90
        0
 91
        1
 62
     0
 92
       -2
340
14
 93
        0
 40
0.045
309
GRIDFORMAT_END
 95
       32
302
GRIDFORMAT
  1
GRIDFORMAT_BEGIN
 90
        0
 91
        1
 62
     0
 92
       -2
340
14
 93
        0
 40
0.045
309
GRIDFORMAT_END
309
TABLEFORMAT_END
  1
CELLSTYLE_BEGIN
 90
        2
 91
        1
300
_HEADER
309
CELLSTYLE_END
300
CELLSTYLE
  1
TABLEFORMAT_BEGIN
 90
        5
170
     1
 91
        0
 92
        0
 62
   257
 93
        1
300
CONTENTFORMAT
  1
CONTENTFORMAT_BEGIN
 90
        0
 91
        0
 92
        4
 93
        0
300

 40
0.0
140
1.0
 94
        2
 62
     0
340
11
144
0.18
309
CONTENTFORMAT_END
171
     1
301
MARGIN
  1
CELLMARGIN_BEGIN
 40
0.06
 40
0.06
 40
0.06
 40
0.06
 40
0.06
 40
0.06
309
CELLMARGIN_END
 94
        6
 95
        1
302
GRIDFORMAT
  1
GRIDFORMAT_BEGIN
 90
        0
 91
        1
 62
     0
 92
       -2
340
14
 93
        0
 40
0.045
309
GRIDFORMAT_END
 95
        2
302
GRIDFORMAT
  1
GRIDFORMAT_BEGIN
 90
        0
 91
        1
 62
     0
 92
       -2
340
14
 93
        0
 40
0.045
309
GRIDFORMAT_END
 95
        4
302
GRIDFORMAT
  1
GRIDFORMAT_BEGIN
 90
        0
 91
        1
 62
     0
 92
       -2
340
14
 93
        0
 40
0.045
309
GRIDFORMAT_END
 95
        8
302
GRIDFORMAT
  1
GRIDFORMAT_BEGIN
 90
        0
 91
        1
 62
     0
 92
       -2
340
14
 93
        0
 40
0.045
309
GRIDFORMAT_END
 95
       16
302
GRIDFORMAT
  1
GRIDFORMAT_BEGIN
 90
        0
 91
        1
 62
     0
 92
       -2
340
14
 93
        0
 40
0.045
309
GRIDFORMAT_END
 95
       32
302
GRIDFORMAT
  1
GRIDFORMAT_BEGIN
 90
        0
 91
        1
 62
     0
 92
       -2
340
14
 93
        0
 40
0.045
309
GRIDFORMAT_END
309
TABLEFORMAT_END
  1
CELLSTYLE_BEGIN
 90
        3
 91
        2
300
_DATA
309
CELLSTYLE_END
  0
ENDSEC
  0
EOF
