  0
SECTION
  2
HEADER
  9
$ACADVER
  1
AC1009
  9
$INSBASE
 10
0
 20
0
 30
0
  9
$EXTMIN
 10
0
 20
0
  9
$EXTMAX
 10
3364
 20
2378
  9
$LIMMIN
 10
0
 20
0
  9
$LIMMAX
 10
3364
 20
2378
  9
$LTSCALE
 40
1
  0
ENDSEC
  0
SECTION
  2
TABLES
  0
TABLE
  2
LTYPE
 70
     9
  0
LTYPE
  2
CONTINUOUS
 70
    64
  3
実線
 72
    65
 73
     0
 40
0.0
  0
LTYPE
  2
DASHED1
 70
    64
  3
--  --  --  --  --  --  --  --  
 72
    65
 73
     2
 40
2.5
 49
1.25
 49
-1.25
  0
LTYPE
  2
DASHED2
 70
    64
  3
----    ----    ----    ----    
 72
    65
 73
     2
 40
5.0
 49
2.5
 49
-2.5
  0
LTYPE
  2
DASHED3
 70
    64
  3
------  ------  ------  ------  
 72
    65
 73
     2
 40
5.0
 49
3.75
 49
-1.25
  0
LTYPE
  2
CENTER1
 70
    64
  3
----- - ----- - ----- - ----- - 
 72
    65
 73
     4
 40
10.0
 49
6.25
 49
-1.25
 49
1.25
 49
-1.25
  0
LTYPE
  2
CENTER2
 70
    64
  3
----------  --  ----------  --  
 72
    65
 73
     4
 40
20.0
 49
12.5
 49
-2.5
 49
2.5
 49
-2.5
  0
LTYPE
  2
PHANTOM1
 70
    64
  3
--- - - --- - - --- - - --- - - 
 72
    65
 73
     6
 40
10.0
 49
3.25
 49
-1.25
 49
1.25
 49
-1.25
 49
1.25
 49
-1.25
  0
LTYPE
  2
PHANTOM2
 70
    64
  3
--------  -  -  --------  -  -  
 72
    65
 73
     6
 40
20.0
 49
10.0
 49
-2.5
 49
1.25
 49
-2.5
 49
1.25
 49
-2.5
  0
LTYPE
  2
DOT
 70
    64
  3
-   -   -   -   -   -   -   -   
 72
    65
 73
     2
 40
2.5
 49
0.625
 49
-1.875
  0
LTYPE
  2
DUMMY
 70
    64
  3
ダミー
 72
    65
 73
     0
 40
0.0
  0
LTYPE
  2
RAND1
 70
    64
  3
ランダム線1
 72
    65
 73
     4
 40
10.0
 49
1.0
 49
-2.0
 49
3.0
 49
-4.0
  0
LTYPE
  2
RAND2
 70
    64
  3
ランダム線2
 72
    65
 73
     4
 40
14.0
 49
2.0
 49
-3.0
 49
4.0
 49
-5.0
  0
LTYPE
  2
RAND3
 70
    64
  3
ランダム線3
 72
    65
 73
     4
 40
18.0
 49
3.0
 49
-4.0
 49
5.0
 49
-6.0
  0
LTYPE
  2
RAND4
 70
    64
  3
ランダム線4
 72
    65
 73
     4
 40
22.0
 49
4.0
 49
-5.0
 49
6.0
 49
-7.0
  0
LTYPE
  2
RAND5
 70
    64
  3
ランダム線5
 72
    65
 73
     4
 40
26.0
 49
5.0
 49
-6.0
 49
7.0
 49
-8.0
  0
LTYPE
  2
LONG1
 70
    64
  3
----------  --  ----------  --  
 72
    65
 73
     4
 40
40.0
 49
32.5
 49
-2.5
 49
2.5
 49
-2.5
  0
LTYPE
  2
LONG2
 70
    64
  3
--------  -  -  --------  -  -  
 72
    65
 73
     6
 40
40.0
 49
30.0
 49
-2.5
 49
1.25
 49
-2.5
 49
1.25
 49
-2.5
  0
LTYPE
  2
LONG3
 70
    64
  3
+++++++++++++++..+++++++++++++++
 72
    65
 73
     2
 40
40.0
 49
37.5
 49
-2.5
  0
LTYPE
  2
LONG4
 70
    64
  3
+++++++++++++++..+++++++++++++++
 72
    65
 73
     2
 40
80.0
 49
75.0
 49
-5.0
  0
LTYPE
  2
LONG5
 70
    64
  3
----------  --  ----------  --  
 72
    65
 73
     4
 40
60.0
 49
37.5
 49
-7.5
 49
7.5
 49
-7.5
  0
LTYPE
  2
dashed
 70
   64
  3
-------   -------------   ------
 72
   65
 73
    2
 40
7.5
 49
6
 49
-1.5
  0
LTYPE
  2
dashed_spaced
 70
   64
  3
----        --------        ----
 72
   65
 73
    2
 40
12
 49
6
 49
-6
  0
LTYPE
  2
long_dashed_dotted
 70
   64
  3
------------- --- --------------
 72
   65
 73
    4
 40
15.25
 49
12
 49
-1.5
 49
0.25
 49
-1.5
  0
LTYPE
  2
long_dashed_double-dotted
 70
   64
  3
----------- --- --- ------------
 72
   65
 73
    6
 40
17
 49
12
 49
-1.5
 49
0.25
 49
-1.5
 49
0.25
 49
-1.5
  0
LTYPE
  2
long_dashed_triplicate-dotted
 70
   64
  3
--------- --- --- --- ----------
 72
   65
 73
    8
 40
18.75
 49
12
 49
-1.5
 49
0.25
 49
-1.5
 49
0.25
 49
-1.5
 49
0.25
 49
-1.5
  0
LTYPE
  2
dotted
 70
   64
  3
   -       -       -       -    
 72
   65
 73
    2
 40
1.75
 49
0.25
 49
-1.5
  0
LTYPE
  2
chain
 70
   64
  3
-------------- -- --------------
 72
   65
 73
    4
 40
18.5
 49
12
 49
-1.5
 49
3.5
 49
-1.5
  0
LTYPE
  2
chain_double_dash
 70
   64
  3
------------ -- -- -------------
 72
   65
 73
    6
 40
23.5
 49
12
 49
-1.5
 49
3.5
 49
-1.5
 49
3.5
 49
-1.5
  0
LTYPE
  2
dashed_dotted
 70
   64
  3
-----------     -     ----------
 72
   65
 73
    4
 40
9.25
 49
6
 49
-1.5
 49
0.25
 49
-1.5
  0
LTYPE
  2
double-dashed_dotted
 70
   64
  3
------   -----------   -   -----
 72
   65
 73
    6
 40
16.75
 49
6
 49
-1.5
 49
6
 49
-1.5
 49
0.25
 49
-1.5
  0
LTYPE
  2
dashed_double-dotted
 70
   64
  3
---------    -    -    ---------
 72
   65
 73
    6
 40
11
 49
6
 49
-1.5
 49
0.25
 49
-1.5
 49
0.25
 49
-1.5
  0
LTYPE
  2
double-dashed_double-dotted
 70
   64
  3
-----   ---------   -   -   ----
 72
   65
 73
    8
 40
18.5
 49
6
 49
-1.5
 49
6
 49
-1.5
 49
0.25
 49
-1.5
 49
0.25
 49
-1.5
  0
LTYPE
  2
dashed_triplicate-dotted
 70
   64
  3
-------    -    -    -    ------
 72
   65
 73
    8
 40
12.75
 49
6
 49
-1.5
 49
0.25
 49
-1.5
 49
0.25
 49
-1.5
 49
0.25
 49
-1.5
  0
LTYPE
  2
double-dashed_triplicate-dotted
 70
   64
  3
-----  ---------  -  -  -  -----
 72
   65
 73
   10
 40
20.25
 49
6
 49
-1.5
 49
6
 49
-1.5
 49
0.25
 49
-1.5
 49
0.25
 49
-1.5
 49
0.25
 49
-1.5
  0
LTYPE
  2
undefined
 70
   64
  3
--------------------------------
 72
   65
 73
    0
 40
0
  0
LTYPE
  2
STYLE_01
 70
   64
  3
----        --------        ----
 72
   65
 73
    2
 40
0.4166399999999997
 49
0.2082799999999999
 49
-0.2083599999999999
  0
LTYPE
  2
STYLE_02
 70
   64
  3
------     -----------     -----
 72
   65
 73
    2
 40
0.694425
 49
0.48607
 49
-0.2083550000000001
  0
LTYPE
  2
STYLE_03
 70
   64
  3
-------   -------------   ------
 72
   65
 73
    2
 40
1.25
 49
1.0416400000000001
 49
-0.2083599999999999
  0
LTYPE
  2
STYLE_04
 70
   64
  3
-------  --------------  -------
 72
   65
 73
    2
 40
1.5277099999999999
 49
1.3194249999999998
 49
-0.208285
  0
LTYPE
  2
STYLE_05
 70
   64
  3
---           -----           --
 72
   65
 73
    2
 40
0.20828
 49
0.069425
 49
-0.138855
  0
LTYPE
  2
STYLE_06
 70
   64
  3
----------      --    ----------
 72
   65
 73
    4
 40
1.0416399999999999
 49
0.625
 49
-0.2082799999999999
 49
0.06943
 49
-0.13893
  0
LTYPE
  2
STYLE_07
 70
   64
  3
-----    -----------    -  -----
 72
   65
 73
    6
 40
1.8749999999999998
 49
0.625
 49
-0.2082799999999999
 49
0.6250000000000001
 49
-0.2083599999999999
 49
0.06943
 49
-0.1389299999999998
  0
LTYPE
  2
STYLE_08
 70
   64
  3
--------     --    --    -------
 72
   65
 73
    6
 40
1.2499999999999996
 49
0.625
 49
-0.2082799999999999
 49
0.06943
 49
-0.13893
 49
0.0694299999999997
 49
-0.13893
  0
LTYPE
  2
STYLE_09
 70
   64
  3
------------  ----  ------------
 72
   65
 73
    4
 40
5
 49
3.75
 49
-0.2777849999999997
 49
0.6944300000000003
 49
-0.2777849999999997
  0
LTYPE
  2
STYLE_10
 70
   64
  3
----------- ---- ---  ----------
 72
   65
 73
    6
 40
5.9375
 49
3.75
 49
-0.2777849999999997
 49
0.6944300000000003
 49
-0.2777849999999997
 49
0.625
 49
-0.3125
  0
ENDTAB
  0
TABLE
  2
STYLE
  5
3
100
AcDbSymbolTable
 70
     1
  0
STYLE
  5
10
100
AcDbSymbolTableRecord
100
AcDbTextStyleTableRecord
  2
STANDARD
 70
     0
 40
0.0
 41
1.0
 50
0.0
 71
     0
 42
0.2
  3
txt
  4
bigfont.shx
  0
STYLE
  5
26
100
AcDbSymbolTableRecord
100
AcDbTextStyleTableRecord
  2
TATEGAKI
 70
    68
 40
0.0
 41
1.0
 50
0.0
 71
     0
 42
1.0
  3
txt
  4
bigfont.shx
  0
ENDTAB
  0
TABLE
  2
LAYER
 70
    5
  0
LAYER
  2
_0-0_0
 70
   64
 62
    7
  6
CONTINUOUS
  0
LAYER
  2
_0-1_1_5
 70
   64
 62
    7
  6
CONTINUOUS
  0
LAYER
  2
_0-2_ADD_LINE
 70
   64
 62
    7
  6
CONTINUOUS
  0
LAYER
  2
_0-3_
 70
   64
 62
    7
  6
CONTINUOUS
  0
LAYER
  2
ADD_LINE
 70
   64
 62
    7
  6
CONTINUOUS
  0
ENDTAB
  0
ENDSEC
  0
SECTION
  2
BLOCKS
  0
ENDSEC
  0
SECTION
  2
ENTITIES
  0
LINE
  8
_0-0_0
  6
CONTINUOUS
 62
    7
 10
101.33045161893438
 20
1131.0014812751401
 11
398.33045161893438
 21
1131.0014812751401
  0
LINE
  8
_0-0_0
  6
CONTINUOUS
 62
    7
 10
101.33045161893438
 20
1341.0014812751401
 11
101.33045161893438
 21
1131.0014812751401
  0
LINE
  8
_0-0_0
  6
CONTINUOUS
 62
    7
 10
398.33045161893438
 20
1341.0014812751401
 11
101.33045161893438
 21
1341.0014812751401
  0
LINE
  8
_0-0_0
  6
CONTINUOUS
 62
    7
 10
398.33045161893438
 20
1131.0014812751401
 11
398.33045161893438
 21
1341.0014812751401
  0
LINE
  8
_0-3_
  6
CONTINUOUS
 62
    7
 10
390.8404049883618
 20
1150.7215254974808
 11
203.99319243072023
 21
1150.7215254974808
  0
LINE
  8
_0-3_
  6
CONTINUOUS
 62
    7
 10
390.8404049883618
 20
1144.7215254974808
 11
203.99319243072023
 21
1144.7215254974808
  0
LINE
  8
_0-3_
  6
CONTINUOUS
 62
    7
 10
203.99319243072023
 20
1138.7215254974808
 11
203.99319243072023
 21
1156.7215254974808
  0
TEXT
  8
_0-3_
 62
    4
 10
205.38716515390888
 20
1153.56758430126
 40
2
 41
1
 50
0
  1
品名
  0
TEXT
  8
_0-3_
 62
    4
 10
205.38716515390888
 20
1147.6382858532945
 40
2
 41
1
 50
0
  1
仕上げ
  0
TEXT
  8
_0-3_
 62
    4
 10
205.38716515390888
 20
1141.3969190659627
 40
2
 41
1
 50
0
  1
材質
  0
TEXT
  8
_0-3_
 62
    7
 10
214.17280755285788
 20
1139.9537127271044
 40
3.1000000000000001
 41
1
 50
0
  1
ステンレススチール
  0
TEXT
  8
_0-3_
 62
    4
 10
298.56265054007849
 20
1153.6054044194436
 40
2
 41
1
 50
0
  1
品番
  0
LINE
  8
_0-3_
  6
CONTINUOUS
 62
    7
 10
297.50707164836194
 20
1138.7215254974808
 11
297.50707164836194
 21
1156.7215254974808
  0
LINE
  8
_0-3_
  6
CONTINUOUS
 62
    7
 10
390.8404049883618
 20
1156.7215254974808
 11
203.99319243072023
 21
1156.7215254974808
  0
TEXT
  8
_0-3_
 62
    4
 10
298.55043409222412
 20
1147.653101904498
 40
2
 41
1
 50
0
  1
縮尺
  0
LINE
  8
_0-3_
  6
CONTINUOUS
 62
    7
 10
110.8404049883618
 20
1333.7215254974808
 11
110.8404049883618
 21
1138.7215254974808
  0
LINE
  8
_0-3_
  6
CONTINUOUS
 62
    7
 10
110.8404049883618
 20
1138.7215254974808
 11
390.8404049883618
 21
1138.7215254974808
  0
LINE
  8
_0-3_
  6
CONTINUOUS
 62
    7
 10
390.8404049883618
 20
1138.7215254974808
 11
390.8404049883618
 21
1333.7215254974808
  0
LINE
  8
_0-3_
  6
CONTINUOUS
 62
    7
 10
390.8404049883618
 20
1333.7215254974808
 11
110.8404049883618
 21
1333.7215254974808
  0
TEXT
  8
_0-3_
 62
    7
 10
308.01385942044749
 20
1145.7588867349882
 40
3.1000000000000001
 41
1
 50
0
  1
1/1
  0
TEXT
  8
_0-3_
 62
    7
 10
308.01385942044749
 20
1139.9195910092521
 40
3.1000000000000001
 41
1
 50
0
  1
大洋金物株式会社  ティーフォルム事業部
  0
TEXT
  8
_0-3_
 62
    7
 10
214.17280755285788
 20
1152.1579599997126
 40
3.1000000000000001
 41
1
 50
0
  1
フランジ
  0
CIRCLE
  8
_0-1_1_5
  6
CONTINUOUS
 62
    7
 10
220.15886906604123
 20
1253.3943358847528
 40
19
  0
CIRCLE
  8
_0-1_1_5
  6
CONTINUOUS
 62
    7
 10
220.15886906604123
 20
1253.3943358847528
 40
2.5
  0
LINE
  8
_0-1_1_5
  6
CONTINUOUS
 62
    7
 10
291.53449447717821
 20
1272.3943358847528
 11
291.53449447717821
 21
1234.3943358847528
  0
LINE
  8
_0-1_1_5
  6
CONTINUOUS
 62
    7
 10
291.53449447717821
 20
1234.3943358847528
 11
295.33449447717817
 21
1234.3943358847528
  0
LINE
  8
_0-1_1_5
  6
CONTINUOUS
 62
    7
 10
295.33449447717817
 20
1234.3943358847528
 11
295.33449447717817
 21
1272.3943358847528
  0
LINE
  8
_0-1_1_5
  6
CONTINUOUS
 62
    7
 10
295.33449447717817
 20
1272.3943358847528
 11
291.53449447717821
 21
1272.3943358847528
  0
LINE
  8
_0-1_1_5
  6
CONTINUOUS
 62
    7
 10
201.15887000879752
 20
1218.2956904322359
 11
239.15887000879752
 21
1218.2956904322359
  0
TEXT
  8
_0-1_1_5
 62
    4
 10
217.65887000879752
 20
1218.7956904322359
 40
2.5
 41
1
 50
0
  1
φ38
  0
POINT
  8
_0-2_ADD_LINE
 62
    7
 10
201.15887000879752
 20
1218.2956904322359
  0
POINT
  8
_0-2_ADD_LINE
 62
    7
 10
239.15887000879752
 20
1218.2956904322359
  0
LINE
  8
_0-1_1_5
  6
CONTINUOUS
 62
    7
 10
217.65887000879752
 20
1226.9543959373088
 11
222.65887000879752
 21
1226.9543959373088
  0
TEXT
  8
_0-1_1_5
 62
    4
 10
223.90887000879752
 20
1227.4543959373088
 40
2.5
 41
1
 50
0
  1
φ5
  0
LINE
  8
_0-2_ADD_LINE
  6
CONTINUOUS
 62
    7
 10
222.65887000879752
 20
1226.9543959373088
 11
227.65887000879752
 21
1226.9543959373088
  0
POINT
  8
_0-2_ADD_LINE
 62
    7
 10
217.65887000879752
 20
1226.9543959373088
  0
POINT
  8
_0-2_ADD_LINE
 62
    7
 10
222.65887000879752
 20
1226.9543959373088
  0
LINE
  8
_0-2_ADD_LINE
  6
CONTINUOUS
 62
    7
 10
201.15887000879752
 20
1250.3943358847528
 11
201.15887000879752
 21
1218.2956904322359
  0
LINE
  8
_0-2_ADD_LINE
  6
CONTINUOUS
 62
    7
 10
217.65887000879752
 20
1250.3943358847528
 11
217.65887000879752
 21
1226.9543959373088
  0
LINE
  8
_0-2_ADD_LINE
  6
CONTINUOUS
 62
    7
 10
222.65887000879752
 20
1250.3943358847528
 11
222.65887000879752
 21
1226.9543959373088
  0
LINE
  8
_0-2_ADD_LINE
  6
CONTINUOUS
 62
    7
 10
239.15887000879752
 20
1250.3943358847528
 11
239.15887000879752
 21
1218.2956904322359
  0
POINT
  8
_0-2_ADD_LINE
 62
    7
 10
295.33449447717817
 20
1222.8440984197644
  0
POINT
  8
_0-2_ADD_LINE
 62
    7
 10
291.53449447717821
 20
1222.8440984197644
  0
LINE
  8
_0-2_ADD_LINE
  6
CONTINUOUS
 62
    7
 10
295.33449447717817
 20
1222.8440984197644
 11
295.33449447717817
 21
1231.3943358847528
  0
LINE
  8
_0-2_ADD_LINE
  6
CONTINUOUS
 62
    7
 10
291.53449447717821
 20
1222.8440984197644
 11
291.53449447717821
 21
1231.3943358847528
  0
LINE
  8
_0-1_1_5
  6
CONTINUOUS
 62
    7
 10
295.33449447717817
 20
1222.8440984197644
 11
291.53449447717821
 21
1222.8440984197644
  0
TEXT
  8
_0-1_1_5
 62
    4
 10
291.55949447717808
 20
1223.3440984197644
 40
2.5
 41
1
 50
0
  1
3.8
  0
TEXT
  8
_0-3_
 62
    7
 10
110.87039707992813
 20
1134.0825026128398
 40
2.5
 41
1
 50
0
  1
130226SH
  0
TEXT
  8
_0-3_
 62
    7
 10
308.01385942044749
 20
1151.8562503073006
 40
3.1000000000000001
 41
1
 50
0
  1
TFP59-D100-003
  0
TEXT
  8
_0-3_
 62
    7
 10
214.17280755285788
 20
1146.0043581313521
 40
3.1000000000000001
 41
1
 50
0
  1
ポリッシュ
  0
TEXT
  8
_0-2_ADD_LINE
 62
    7
 10
307.8993521297507
 20
1159.5219624045442
 40
3.1000000000000001
 41
1
 50
0
  1
※２個セット
  0
ENDSEC
  0
EOF
